  0
SECTION
  2
HEADER
  9
$ACADVER
  1
AC1015
  9
$ACADMAINTVER
 70
     6
  9
$DWGCODEPAGE
  3
ANSI_932
  9
$INSBASE
 10
0.0
 20
0.0
 30
0.0
  9
$EXTMIN
 10
-536.4000052809715
 20
-362.9000034928322
 30
0.0
  9
$EXTMAX
 10
526.800010561943
 20
340.3000069856644
 30
0.0
  9
$LIMMIN
 10
-182.0
 20
-128.5
  9
$LIMMAX
 10
182.0
 20
128.5
  9
$ORTHOMODE
 70
     0
  9
$REGENMODE
 70
     1
  9
$FILLMODE
 70
     1
  9
$QTEXTMODE
 70
     0
  9
$MIRRTEXT
 70
     1
  9
$LTSCALE
 40
0.25
  9
$ATTMODE
 70
     1
  9
$TEXTSIZE
 40
0.2
  9
$TRACEWID
 40
0.05
  9
$TEXTSTYLE
  7
Standard
  9
$CLAYER
  8
0
  9
$CELTYPE
  6
ByLayer
  9
$CECOLOR
 62
   256
  9
$CELTSCALE
 40
1.0
  9
$DISPSILH
 70
     0
  9
$DIMSCALE
 40
1.0
  9
$DIMASZ
 40
3.000001882570243
  9
$DIMEXO
 40
1.0
  9
$DIMDLI
 40
10.0
  9
$DIMRND
 40
0.0
  9
$DIMDLE
 40
0.0
  9
$DIMEXE
 40
1.0
  9
$DIMTP
 40
0.0
  9
$DIMTM
 40
0.0
  9
$DIMTXT
 40
3.0
  9
$DIMCEN
 40
0.0
  9
$DIMTSZ
 40
0.0
  9
$DIMTOL
 70
     0
  9
$DIMLIM
 70
     0
  9
$DIMTIH
 70
     0
  9
$DIMTOH
 70
     0
  9
$DIMSE1
 70
     0
  9
$DIMSE2
 70
     0
  9
$DIMTAD
 70
     1
  9
$DIMZIN
 70
     8
  9
$DIMBLK
  1

  9
$DIMASO
 70
     1
  9
$DIMSHO
 70
     1
  9
$DIMPOST
  1

  9
$DIMAPOST
  1

  9
$DIMALT
 70
     0
  9
$DIMALTD
 70
     2
  9
$DIMALTF
 40
25.4
  9
$DIMLFAC
 40
1.0
  9
$DIMTOFL
 70
     0
  9
$DIMTVP
 40
0.0
  9
$DIMTIX
 70
     0
  9
$DIMSOXD
 70
     0
  9
$DIMSAH
 70
     0
  9
$DIMBLK1
  1

  9
$DIMBLK2
  1

  9
$DIMSTYLE
  2
Standard
  9
$DIMCLRD
 70
     0
  9
$DIMCLRE
 70
     0
  9
$DIMCLRT
 70
     0
  9
$DIMTFAC
 40
0.65
  9
$DIMGAP
 40
0.09
  9
$DIMJUST
 70
     0
  9
$DIMSD1
 70
     0
  9
$DIMSD2
 70
     0
  9
$DIMTOLJ
 70
     0
  9
$DIMTZIN
 70
     0
  9
$DIMALTZ
 70
     0
  9
$DIMALTTZ
 70
     0
  9
$DIMUPT
 70
     0
  9
$DIMDEC
 70
     2
  9
$DIMTDEC
 70
     2
  9
$DIMALTU
 70
     2
  9
$DIMALTTD
 70
     2
  9
$DIMTXSTY
  7
Standard
  9
$DIMAUNIT
 70
     0
  9
$DIMADEC
 70
     2
  9
$DIMALTRND
 40
0.0
  9
$DIMAZIN
 70
     2
  9
$DIMDSEP
 70
    46
  9
$DIMATFIT
 70
     3
  9
$DIMFRAC
 70
     0
  9
$DIMLDRBLK
  1

  9
$DIMLUNIT
 70
     2
  9
$DIMLWD
 70
    -2
  9
$DIMLWE
 70
    -2
  9
$DIMTMOVE
 70
     0
  9
$LUNITS
 70
     2
  9
$LUPREC
 70
     4
  9
$SKETCHINC
 40
0.1
  9
$FILLETRAD
 40
0.5
  9
$AUNITS
 70
     0
  9
$AUPREC
 70
     0
  9
$MENU
  1
.
  9
$ELEVATION
 40
0.0
  9
$PELEVATION
 40
0.0
  9
$THICKNESS
 40
0.0
  9
$LIMCHECK
 70
     0
  9
$CHAMFERA
 40
0.5
  9
$CHAMFERB
 40
0.5
  9
$CHAMFERC
 40
1.0
  9
$CHAMFERD
 40
0.0
  9
$SKPOLY
 70
     0
  9
$TDCREATE
 40
2459607.014884803
  9
$TDUCREATE
 40
2459606.639884803
  9
$TDUPDATE
 40
2459607.014884815
  9
$TDUUPDATE
 40
2459606.639884815
  9
$TDINDWG
 40
0.0000000116
  9
$TDUSRTIMER
 40
0.0000000116
  9
$USRTIMER
 70
     1
  9
$ANGBASE
 50
0.0
  9
$ANGDIR
 70
     0
  9
$PDMODE
 70
     0
  9
$PDSIZE
 40
1.0
  9
$PLINEWID
 40
0.0
  9
$SPLFRAME
 70
     0
  9
$SPLINETYPE
 70
     6
  9
$SPLINESEGS
 70
     8
  9
$HANDSEED
  5
5FE
  9
$SURFTAB1
 70
     6
  9
$SURFTAB2
 70
     6
  9
$SURFTYPE
 70
     6
  9
$SURFU
 70
     6
  9
$SURFV
 70
     6
  9
$UCSBASE
  2

  9
$UCSNAME
  2

  9
$UCSORG
 10
0.0
 20
0.0
 30
0.0
  9
$UCSXDIR
 10
1.0
 20
0.0
 30
0.0
  9
$UCSYDIR
 10
0.0
 20
1.0
 30
0.0
  9
$UCSORTHOREF
  2

  9
$UCSORTHOVIEW
 70
     0
  9
$UCSORGTOP
 10
0.0
 20
0.0
 30
0.0
  9
$UCSORGBOTTOM
 10
0.0
 20
0.0
 30
0.0
  9
$UCSORGLEFT
 10
0.0
 20
0.0
 30
0.0
  9
$UCSORGRIGHT
 10
0.0
 20
0.0
 30
0.0
  9
$UCSORGFRONT
 10
0.0
 20
0.0
 30
0.0
  9
$UCSORGBACK
 10
0.0
 20
0.0
 30
0.0
  9
$PUCSBASE
  2

  9
$PUCSNAME
  2

  9
$PUCSORG
 10
0.0
 20
0.0
 30
0.0
  9
$PUCSXDIR
 10
1.0
 20
0.0
 30
0.0
  9
$PUCSYDIR
 10
0.0
 20
1.0
 30
0.0
  9
$PUCSORTHOREF
  2

  9
$PUCSORTHOVIEW
 70
     0
  9
$PUCSORGTOP
 10
0.0
 20
0.0
 30
0.0
  9
$PUCSORGBOTTOM
 10
0.0
 20
0.0
 30
0.0
  9
$PUCSORGLEFT
 10
0.0
 20
0.0
 30
0.0
  9
$PUCSORGRIGHT
 10
0.0
 20
0.0
 30
0.0
  9
$PUCSORGFRONT
 10
0.0
 20
0.0
 30
0.0
  9
$PUCSORGBACK
 10
0.0
 20
0.0
 30
0.0
  9
$USERI1
 70
     0
  9
$USERI2
 70
     0
  9
$USERI3
 70
     0
  9
$USERI4
 70
     0
  9
$USERI5
 70
     0
  9
$USERR1
 40
0.0
  9
$USERR2
 40
0.0
  9
$USERR3
 40
0.0
  9
$USERR4
 40
0.0
  9
$USERR5
 40
0.0
  9
$WORLDVIEW
 70
     1
  9
$SHADEDGE
 70
     3
  9
$SHADEDIF
 70
    70
  9
$TILEMODE
 70
     1
  9
$MAXACTVP
 70
    64
  9
$PINSBASE
 10
0.0
 20
0.0
 30
0.0
  9
$PLIMCHECK
 70
     0
  9
$PEXTMIN
 10
1.000000000000000E+20
 20
1.000000000000000E+20
 30
1.000000000000000E+20
  9
$PEXTMAX
 10
-1.000000000000000E+20
 20
-1.000000000000000E+20
 30
-1.000000000000000E+20
  9
$PLIMMIN
 10
0.0
 20
0.0
  9
$PLIMMAX
 10
12.0
 20
9.0
  9
$UNITMODE
 70
     0
  9
$VISRETAIN
 70
     0
  9
$PLINEGEN
 70
     1
  9
$PSLTSCALE
 70
     0
  9
$TREEDEPTH
 70
  3020
  9
$CMLSTYLE
  2
Standard
  9
$CMLJUST
 70
     0
  9
$CMLSCALE
 40
1.0
  9
$PROXYGRAPHICS
 70
     0
  9
$MEASUREMENT
 70
     1
  9
$CELWEIGHT
370
    -1
  9
$ENDCAPS
280
     0
  9
$JOINSTYLE
280
     0
  9
$LWDISPLAY
290
     1
  9
$INSUNITS
 70
     4
  9
$HYPERLINKBASE
  1

  9
$STYLESHEET
  1

  9
$XEDIT
290
     1
  9
$CEPSNTYPE
380
     0
  9
$PSTYLEMODE
290
     1
  9
$FINGERPRINTGUID
  2
{0FE8BFDF-1DD7-4CFA-915E-42E4C53F92BF}
  9
$VERSIONGUID
  2
{FAEB1C32-E019-11D5-929B-00C0DF256EC4}
  9
$EXTNAMES
290
     1
  9
$PSVPSCALE
 40
0.0
  9
$OLESTARTUP
290
     0
  0
ENDSEC
  0
SECTION
  2
CLASSES
  0
CLASS
  1
ACDBDICTIONARYWDFLT
  2
AcDbDictionaryWithDefault
  3
ObjectDBX Classes
 90
        0
280
     0
281
     0
  0
CLASS
  1
VISUALSTYLE
  2
AcDbVisualStyle
  3
ObjectDBX Classes
 90
     4095
280
     0
281
     0
  0
CLASS
  1
MATERIAL
  2
AcDbMaterial
  3
ObjectDBX Classes
 90
     1153
280
     0
281
     0
  0
CLASS
  1
SCALE
  2
AcDbScale
  3
ObjectDBX Classes
 90
     1153
280
     0
281
     0
  0
CLASS
  1
DICTIONARYVAR
  2
AcDbDictionaryVar
  3
ObjectDBX Classes
 90
        0
280
     0
281
     0
  0
CLASS
  1
ACDBPLACEHOLDER
  2
AcDbPlaceHolder
  3
ObjectDBX Classes
 90
        0
280
     0
281
     0
  0
CLASS
  1
LAYOUT
  2
AcDbLayout
  3
ObjectDBX Classes
 90
        0
280
     0
281
     0
  0
ENDSEC
  0
SECTION
  2
TABLES
  0
TABLE
  2
VPORT
  5
8
330
0
100
AcDbSymbolTable
 70
     1
  0
VPORT
  5
29
330
8
100
AcDbSymbolTableRecord
100
AcDbViewportTableRecord
  2
*Active
 70
     0
 10
0.0
 20
0.0
 11
1.0
 21
1.0
 12
-4.79999735951424
 22
-11.29999825358391
 13
0.0
 23
0.0
 14
0.5
 24
0.5
 15
0.5
 25
0.5
 16
0.0
 26
0.0
 36
1.0
 17
0.0
 27
0.0
 37
0.0
 40
239.0880035626888
 41
1.511945392491467
 42
50.0
 43
0.0
 44
0.0
 50
0.0
 51
0.0
 71
     0
 72
  1000
 73
     1
 74
     1
 75
     0
 76
     0
 77
     0
 78
     0
281
     0
 65
     1
110
0.0
120
0.0
130
0.0
111
1.0
121
0.0
131
0.0
112
0.0
122
1.0
132
0.0
 79
     0
146
0.0
  0
ENDTAB
  0
TABLE
  2
LTYPE
  5
5
330
0
100
AcDbSymbolTable
 70
    53
  0
LTYPE
  5
14
330
5
100
AcDbSymbolTableRecord
100
AcDbLinetypeTableRecord
  2
ByBlock
 70
     0
  3

 72
    65
 73
     0
 40
0.0
  0
LTYPE
  5
15
330
5
100
AcDbSymbolTableRecord
100
AcDbLinetypeTableRecord
  2
ByLayer
 70
     0
  3

 72
    65
 73
     0
 40
0.0
  0
LTYPE
  5
16
330
5
100
AcDbSymbolTableRecord
100
AcDbLinetypeTableRecord
  2
Continuous
 70
     0
  3
Solid line
 72
    65
 73
     0
 40
0.0
  0
LTYPE
  5
40
330
5
100
AcDbSymbolTableRecord
100
AcDbLinetypeTableRecord
  2
HIDDENX2
 70
     0
  3
Hidden (2x) ____ ____ ____ ____ ____ ____ ____ 
 72
    65
 73
     2
 40
19.05
 49
12.7
 74
     0
 49
-6.35
 74
     0
  0
LTYPE
  5
41
330
5
100
AcDbSymbolTableRecord
100
AcDbLinetypeTableRecord
  2
HIDDEN
 70
     0
  3
Hidden __ __ __ __ __ __ __ __ __ __ __ __ __ __
 72
    65
 73
     2
 40
9.524999999999999
 49
6.35
 74
     0
 49
-3.175
 74
     0
  0
LTYPE
  5
42
330
5
100
AcDbSymbolTableRecord
100
AcDbLinetypeTableRecord
  2
HIDDEN2
 70
     0
  3
Hidden (.5x) _ _ _ _ _ _ _ _ _ _ _ _ _ _ _ _ _ 
 72
    65
 73
     2
 40
4.762499999999999
 49
3.175
 74
     0
 49
-1.5875
 74
     0
  0
LTYPE
  5
43
330
5
100
AcDbSymbolTableRecord
100
AcDbLinetypeTableRecord
  2
DASHED
 70
     0
  3
Dashed __ __ __ __ __ __ __ __ __ __ __ __ __ _
 72
    65
 73
     2
 40
19.05
 49
12.7
 74
     0
 49
-6.35
 74
     0
  0
LTYPE
  5
44
330
5
100
AcDbSymbolTableRecord
100
AcDbLinetypeTableRecord
  2
DASHED2
 70
     0
  3
Dashed (.5x) _ _ _ _ _ _ _ _ _ _ _ _ _ _ _ _ _ 
 72
    65
 73
     2
 40
9.524999999999999
 49
6.35
 74
     0
 49
-3.175
 74
     0
  0
LTYPE
  5
45
330
5
100
AcDbSymbolTableRecord
100
AcDbLinetypeTableRecord
  2
DASHEDX2
 70
     0
  3
Dashed (2x) ____  ____  ____  ____  ____  ___
 72
    65
 73
     2
 40
38.09999999999999
 49
25.4
 74
     0
 49
-12.7
 74
     0
  0
LTYPE
  5
46
330
5
100
AcDbSymbolTableRecord
100
AcDbLinetypeTableRecord
  2
DOTX2
 70
     0
  3
Dot (2x) .  .  .  .  .  .  .  .  .  .  .  .  .  .
 72
    65
 73
     2
 40
12.7
 49
0.0
 74
     0
 49
-12.7
 74
     0
  0
LTYPE
  5
47
330
5
100
AcDbSymbolTableRecord
100
AcDbLinetypeTableRecord
  2
DOT
 70
     0
  3
Dot . . . . . . . . . . . . . . . . . . . . . . . .
 72
    65
 73
     2
 40
6.35
 49
0.0
 74
     0
 49
-6.35
 74
     0
  0
LTYPE
  5
48
330
5
100
AcDbSymbolTableRecord
100
AcDbLinetypeTableRecord
  2
DOT2
 70
     0
  3
Dot (.5x) ........................................
 72
    65
 73
     2
 40
3.175
 49
0.0
 74
     0
 49
-3.175
 74
     0
  0
LTYPE
  5
49
330
5
100
AcDbSymbolTableRecord
100
AcDbLinetypeTableRecord
  2
CENTERX2
 70
     0
  3
Center (2x) ________  __  ________  __  _____
 72
    65
 73
     4
 40
101.6
 49
63.5
 74
     0
 49
-12.7
 74
     0
 49
12.7
 74
     0
 49
-12.7
 74
     0
  0
LTYPE
  5
4A
330
5
100
AcDbSymbolTableRecord
100
AcDbLinetypeTableRecord
  2
CENTER
 70
     0
  3
Center ____ _ ____ _ ____ _ ____ _ ____ _ ____
 72
    65
 73
     4
 40
50.8
 49
31.75
 74
     0
 49
-6.35
 74
     0
 49
6.35
 74
     0
 49
-6.35
 74
     0
  0
LTYPE
  5
4B
330
5
100
AcDbSymbolTableRecord
100
AcDbLinetypeTableRecord
  2
CENTER2
 70
     0
  3
Center (.5x) ___ _ ___ _ ___ _ ___ _ ___ _ ___
 72
    65
 73
     4
 40
28.575
 49
19.05
 74
     0
 49
-3.175
 74
     0
 49
3.175
 74
     0
 49
-3.175
 74
     0
  0
LTYPE
  5
4C
330
5
100
AcDbSymbolTableRecord
100
AcDbLinetypeTableRecord
  2
DASHDOTX2
 70
     0
  3
Dash dot (2x) ____  .  ____  .  ____  .  ___
 72
    65
 73
     4
 40
50.8
 49
25.4
 74
     0
 49
-12.7
 74
     0
 49
0.0
 74
     0
 49
-12.7
 74
     0
  0
LTYPE
  5
4D
330
5
100
AcDbSymbolTableRecord
100
AcDbLinetypeTableRecord
  2
DASHDOT
 70
     0
  3
Dash dot __ . __ . __ . __ . __ . __ . __ . __
 72
    65
 73
     4
 40
25.4
 49
12.7
 74
     0
 49
-6.35
 74
     0
 49
0.0
 74
     0
 49
-6.35
 74
     0
  0
LTYPE
  5
4E
330
5
100
AcDbSymbolTableRecord
100
AcDbLinetypeTableRecord
  2
DASHDOT2
 70
     0
  3
Dash dot (.5x) _._._._._._._._._._._._._._._.
 72
    65
 73
     4
 40
12.7
 49
6.35
 74
     0
 49
-3.175
 74
     0
 49
0.0
 74
     0
 49
-3.175
 74
     0
  0
LTYPE
  5
4F
330
5
100
AcDbSymbolTableRecord
100
AcDbLinetypeTableRecord
  2
DIVIDEX2
 70
     0
  3
Divide (2x) ________  .  .  ________  .  .  _
 72
    65
 73
     6
 40
63.5
 49
25.4
 74
     0
 49
-12.7
 74
     0
 49
0.0
 74
     0
 49
-12.7
 74
     0
 49
0.0
 74
     0
 49
-12.7
 74
     0
  0
LTYPE
  5
50
330
5
100
AcDbSymbolTableRecord
100
AcDbLinetypeTableRecord
  2
DIVIDE
 70
     0
  3
Divide ____ . . ____ . . ____ . . ____ . . ____
 72
    65
 73
     6
 40
31.75
 49
12.7
 74
     0
 49
-6.35
 74
     0
 49
0.0
 74
     0
 49
-6.35
 74
     0
 49
0.0
 74
     0
 49
-6.35
 74
     0
  0
LTYPE
  5
51
330
5
100
AcDbSymbolTableRecord
100
AcDbLinetypeTableRecord
  2
DIVIDE2
 70
     0
  3
Divide (.5x) __..__..__..__..__..__..__..__.._
 72
    65
 73
     6
 40
15.875
 49
6.35
 74
     0
 49
-3.175
 74
     0
 49
0.0
 74
     0
 49
-3.175
 74
     0
 49
0.0
 74
     0
 49
-3.175
 74
     0
  0
LTYPE
  5
52
330
5
100
AcDbSymbolTableRecord
100
AcDbLinetypeTableRecord
  2
BORDERX2
 70
     0
  3
Border (2x) ____  ____  .  ____  ____  .  ___
 72
    65
 73
     6
 40
88.89999999999999
 49
25.4
 74
     0
 49
-12.7
 74
     0
 49
25.4
 74
     0
 49
-12.7
 74
     0
 49
0.0
 74
     0
 49
-12.7
 74
     0
  0
LTYPE
  5
53
330
5
100
AcDbSymbolTableRecord
100
AcDbLinetypeTableRecord
  2
BORDER
 70
     0
  3
Border __ __ . __ __ . __ __ . __ __ . __ __ .
 72
    65
 73
     6
 40
44.45
 49
12.7
 74
     0
 49
-6.35
 74
     0
 49
12.7
 74
     0
 49
-6.35
 74
     0
 49
0.0
 74
     0
 49
-6.35
 74
     0
  0
LTYPE
  5
54
330
5
100
AcDbSymbolTableRecord
100
AcDbLinetypeTableRecord
  2
BORDER2
 70
     0
  3
Border (.5x) __.__.__.__.__.__.__.__.__.__.__.
 72
    65
 73
     6
 40
22.225
 49
6.35
 74
     0
 49
-3.175
 74
     0
 49
6.35
 74
     0
 49
-3.175
 74
     0
 49
0.0
 74
     0
 49
-3.175
 74
     0
  0
LTYPE
  5
55
330
5
100
AcDbSymbolTableRecord
100
AcDbLinetypeTableRecord
  2
PHANTOMX2
 70
     0
  3
Phantom (2x) ____________    ____    ____   _
 72
    65
 73
     6
 40
127.0
 49
63.5
 74
     0
 49
-12.7
 74
     0
 49
12.7
 74
     0
 49
-12.7
 74
     0
 49
12.7
 74
     0
 49
-12.7
 74
     0
  0
LTYPE
  5
56
330
5
100
AcDbSymbolTableRecord
100
AcDbLinetypeTableRecord
  2
PHANTOM
 70
     0
  3
Phantom ______  __  __  ______  __  __  ______ 
 72
    65
 73
     6
 40
63.5
 49
31.75
 74
     0
 49
-6.35
 74
     0
 49
6.35
 74
     0
 49
-6.35
 74
     0
 49
6.35
 74
     0
 49
-6.35
 74
     0
  0
LTYPE
  5
57
330
5
100
AcDbSymbolTableRecord
100
AcDbLinetypeTableRecord
  2
PHANTOM2
 70
     0
  3
Phantom (.5x) ___ _ _ ___ _ _ ___ _ _ ___ _ _
 72
    65
 73
     6
 40
31.75
 49
15.875
 74
     0
 49
-3.175
 74
     0
 49
3.175
 74
     0
 49
-3.175
 74
     0
 49
3.175
 74
     0
 49
-3.175
 74
     0
  0
LTYPE
  5
58
330
5
100
AcDbSymbolTableRecord
100
AcDbLinetypeTableRecord
  2
ACAD_ISO06W100
 70
     0
  3
ISO long-dash triple-dot ____ ... ____ ... ____
 72
    65
 73
     8
 40
36.0
 49
24.0
 74
     0
 49
-3.0
 74
     0
 49
0.0
 74
     0
 49
-3.0
 74
     0
 49
0.0
 74
     0
 49
-3.0
 74
     0
 49
0.0
 74
     0
 49
-3.0
 74
     0
  0
LTYPE
  5
59
330
5
100
AcDbSymbolTableRecord
100
AcDbLinetypeTableRecord
  2
ACAD_ISO13W100
 70
     0
  3
ISO double-dash double-dot __ __ . . __ __ . . _
 72
    65
 73
     8
 40
36.0
 49
12.0
 74
     0
 49
-3.0
 74
     0
 49
12.0
 74
     0
 49
-3.0
 74
     0
 49
0.0
 74
     0
 49
-3.0
 74
     0
 49
0.0
 74
     0
 49
-3.0
 74
     0
  0
LTYPE
  5
5A
330
5
100
AcDbSymbolTableRecord
100
AcDbLinetypeTableRecord
  2
ACAD_ISO14W100
 70
     0
  3
ISO dash triple-dot __ . . . __ . . . __ . . . _
 72
    65
 73
     8
 40
24.0
 49
12.0
 74
     0
 49
-3.0
 74
     0
 49
0.0
 74
     0
 49
-3.0
 74
     0
 49
0.0
 74
     0
 49
-3.0
 74
     0
 49
0.0
 74
     0
 49
-3.0
 74
     0
  0
LTYPE
  5
5B
330
5
100
AcDbSymbolTableRecord
100
AcDbLinetypeTableRecord
  2
ACAD_ISO02W100
 70
     0
  3
ISO dash __ __ __ __ __ __ __ __ __ __ __ __ __
 72
    65
 73
     2
 40
15.0
 49
12.0
 74
     0
 49
-3.0
 74
     0
  0
LTYPE
  5
5C
330
5
100
AcDbSymbolTableRecord
100
AcDbLinetypeTableRecord
  2
ACAD_ISO03W100
 70
     0
  3
ISO dash space __    __    __    __    __    __
 72
    65
 73
     2
 40
30.0
 49
12.0
 74
     0
 49
-18.0
 74
     0
  0
LTYPE
  5
5D
330
5
100
AcDbSymbolTableRecord
100
AcDbLinetypeTableRecord
  2
ACAD_ISO04W100
 70
     0
  3
ISO long-dash dot ____ . ____ . ____ . ____ . _
 72
    65
 73
     4
 40
30.0
 49
24.0
 74
     0
 49
-3.0
 74
     0
 49
0.0
 74
     0
 49
-3.0
 74
     0
  0
LTYPE
  5
5E
330
5
100
AcDbSymbolTableRecord
100
AcDbLinetypeTableRecord
  2
ACAD_ISO05W100
 70
     0
  3
ISO long-dash double-dot ____ .. ____ .. ____ . 
 72
    65
 73
     6
 40
33.0
 49
24.0
 74
     0
 49
-3.0
 74
     0
 49
0.0
 74
     0
 49
-3.0
 74
     0
 49
0.0
 74
     0
 49
-3.0
 74
     0
  0
LTYPE
  5
5F
330
5
100
AcDbSymbolTableRecord
100
AcDbLinetypeTableRecord
  2
ACAD_ISO07W100
 70
     0
  3
ISO dot . . . . . . . . . . . . . . . . . . . . 
 72
    65
 73
     2
 40
3.0
 49
0.0
 74
     0
 49
-3.0
 74
     0
  0
LTYPE
  5
60
330
5
100
AcDbSymbolTableRecord
100
AcDbLinetypeTableRecord
  2
ACAD_ISO08W100
 70
     0
  3
ISO long-dash short-dash ____ __ ____ __ ____ _
 72
    65
 73
     4
 40
36.0
 49
24.0
 74
     0
 49
-3.0
 74
     0
 49
6.0
 74
     0
 49
-3.0
 74
     0
  0
LTYPE
  5
61
330
5
100
AcDbSymbolTableRecord
100
AcDbLinetypeTableRecord
  2
ACAD_ISO09W100
 70
     0
  3
ISO long-dash double-short-dash ____ __ __ ____
 72
    65
 73
     6
 40
45.0
 49
24.0
 74
     0
 49
-3.0
 74
     0
 49
6.0
 74
     0
 49
-3.0
 74
     0
 49
6.0
 74
     0
 49
-3.0
 74
     0
  0
LTYPE
  5
62
330
5
100
AcDbSymbolTableRecord
100
AcDbLinetypeTableRecord
  2
ACAD_ISO10W100
 70
     0
  3
ISO dash dot __ . __ . __ . __ . __ . __ . __ . 
 72
    65
 73
     4
 40
18.0
 49
12.0
 74
     0
 49
-3.0
 74
     0
 49
0.0
 74
     0
 49
-3.0
 74
     0
  0
LTYPE
  5
63
330
5
100
AcDbSymbolTableRecord
100
AcDbLinetypeTableRecord
  2
ACAD_ISO11W100
 70
     0
  3
ISO double-dash dot __ __ . __ __ . __ __ . __ _
 72
    65
 73
     6
 40
33.0
 49
12.0
 74
     0
 49
-3.0
 74
     0
 49
12.0
 74
     0
 49
-3.0
 74
     0
 49
0.0
 74
     0
 49
-3.0
 74
     0
  0
LTYPE
  5
64
330
5
100
AcDbSymbolTableRecord
100
AcDbLinetypeTableRecord
  2
ACAD_ISO12W100
 70
     0
  3
ISO dash double-dot __ . . __ . . __ . . __ . . 
 72
    65
 73
     6
 40
21.0
 49
12.0
 74
     0
 49
-3.0
 74
     0
 49
0.0
 74
     0
 49
-3.0
 74
     0
 49
0.0
 74
     0
 49
-3.0
 74
     0
  0
LTYPE
  5
65
330
5
100
AcDbSymbolTableRecord
100
AcDbLinetypeTableRecord
  2
ACAD_ISO15W100
 70
     0
  3
ISO double-dash triple-dot __ __ . . . __ __ . .
 72
    65
 73
    10
 40
39.0
 49
12.0
 74
     0
 49
-3.0
 74
     0
 49
12.0
 74
     0
 49
-3.0
 74
     0
 49
0.0
 74
     0
 49
-3.0
 74
     0
 49
0.0
 74
     0
 49
-3.0
 74
     0
 49
0.0
 74
     0
 49
-3.0
 74
     0
  0
LTYPE
  5
66
330
5
100
AcDbSymbolTableRecord
100
AcDbLinetypeTableRecord
  2
JIS_02_0.7
 70
     0
  3
HIDDEN0.75 _ _ _ _ _ _ _ _ _ _ _ _ _ _ _ _ _ 
 72
    65
 73
     2
 40
1.35
 49
0.75
 74
     0
 49
-0.6
 74
     0
  0
LTYPE
  5
67
330
5
100
AcDbSymbolTableRecord
100
AcDbLinetypeTableRecord
  2
JIS_02_1.0
 70
     0
  3
HIDDEN01 _ _ _ _ _ _ _ _ _ _ _ _ _ _ _ _ _ 
 72
    65
 73
     2
 40
2.0
 49
1.0
 74
     0
 49
-1.0
 74
     0
  0
LTYPE
  5
68
330
5
100
AcDbSymbolTableRecord
100
AcDbLinetypeTableRecord
  2
JIS_02_1.2
 70
     0
  3
HIDDEN01.25  _ _ _ _ _ _ _ _ _ _ _ _ _ _ _ _ _ 
 72
    65
 73
     2
 40
2.5
 49
1.25
 74
     0
 49
-1.25
 74
     0
  0
LTYPE
  5
69
330
5
100
AcDbSymbolTableRecord
100
AcDbLinetypeTableRecord
  2
JIS_02_2.0
 70
     0
  3
HIDDEN02 __ __ __ __ __ __ __ __ __ __ __ 
 72
    65
 73
     2
 40
3.0
 49
2.0
 74
     0
 49
-1.0
 74
     0
  0
LTYPE
  5
6A
330
5
100
AcDbSymbolTableRecord
100
AcDbLinetypeTableRecord
  2
JIS_02_4.0
 70
     0
  3
HIDDEN04 ____ ____ ____ ____ ____ ____ ____ 
 72
    65
 73
     2
 40
5.5
 49
4.0
 74
     0
 49
-1.5
 74
     0
  0
LTYPE
  5
6B
330
5
100
AcDbSymbolTableRecord
100
AcDbLinetypeTableRecord
  2
JIS_08_11
 70
     0
  3
1SASEN11 ___ _ ___ _ ___ _ ___ _ ___ _ ___
 72
    65
 73
     4
 40
12.8
 49
11.0
 74
     0
 49
-0.6
 74
     0
 49
0.6
 74
     0
 49
-0.6
 74
     0
  0
LTYPE
  5
6C
330
5
100
AcDbSymbolTableRecord
100
AcDbLinetypeTableRecord
  2
JIS_08_15
 70
     0
  3
1SASEN15 ____ _ ____ _ ____ _ ____ _ ____ 
 72
    65
 73
     4
 40
17.25
 49
15.0
 74
     0
 49
-0.75
 74
     0
 49
0.75
 74
     0
 49
-0.75
 74
     0
  0
LTYPE
  5
6D
330
5
100
AcDbSymbolTableRecord
100
AcDbLinetypeTableRecord
  2
JIS_08_25
 70
     0
  3
1SASEN25 ________  __  ________  __  _____
 72
    65
 73
     4
 40
28.0
 49
25.0
 74
     0
 49
-1.125
 74
     0
 49
0.75
 74
     0
 49
-1.125
 74
     0
  0
LTYPE
  5
6E
330
5
100
AcDbSymbolTableRecord
100
AcDbLinetypeTableRecord
  2
JIS_08_37
 70
     0
  3
1SASEN37 ________  __  ________  __  _____
 72
    65
 73
     4
 40
40.5
 49
37.5
 74
     0
 49
-1.125
 74
     0
 49
0.75
 74
     0
 49
-1.125
 74
     0
  0
LTYPE
  5
6F
330
5
100
AcDbSymbolTableRecord
100
AcDbLinetypeTableRecord
  2
JIS_08_50
 70
     0
  3
1SASEN50 _______________  __  ____________
 72
    65
 73
     4
 40
53.0
 49
50.0
 74
     0
 49
-1.125
 74
     0
 49
0.75
 74
     0
 49
-1.125
 74
     0
  0
LTYPE
  5
70
330
5
100
AcDbSymbolTableRecord
100
AcDbLinetypeTableRecord
  2
JIS_09_08
 70
     0
  3
2SASEN8 __ _ _ __ _ _ __ _ _ __ _ _ __ _ _ 
 72
    65
 73
     6
 40
10.75
 49
8.0
 74
     0
 49
-0.55
 74
     0
 49
0.55
 74
     0
 49
-0.55
 74
     0
 49
0.55
 74
     0
 49
-0.55
 74
     0
  0
LTYPE
  5
71
330
5
100
AcDbSymbolTableRecord
100
AcDbLinetypeTableRecord
  2
JIS_09_15
 70
     0
  3
2SASEN15 ___ _ _ ___ _ _ ___ _ _ ___ _ _ ___ 
 72
    65
 73
     6
 40
18.9
 49
15.0
 74
     0
 49
-0.9
 74
     0
 49
0.6
 74
     0
 49
-0.9
 74
     0
 49
0.6
 74
     0
 49
-0.9
 74
     0
  0
LTYPE
  5
72
330
5
100
AcDbSymbolTableRecord
100
AcDbLinetypeTableRecord
  2
JIS_09_29
 70
     0
  3
2SASEN29 ______　__  __  ______　__  __  ___
 72
    65
 73
     6
 40
34.0
 49
29.0
 74
     0
 49
-1.2
 74
     0
 49
0.7
 74
     0
 49
-1.2
 74
     0
 49
0.7
 74
     0
 49
-1.2
 74
     0
  0
LTYPE
  5
73
330
5
100
AcDbSymbolTableRecord
100
AcDbLinetypeTableRecord
  2
JIS_09_50
 70
     0
  3
2SASEN50 ____________　__  __  _____________
 72
    65
 73
     6
 40
55.0
 49
50.0
 74
     0
 49
-1.2
 74
     0
 49
0.7
 74
     0
 49
-1.2
 74
     0
 49
0.7
 74
     0
 49
-1.2
 74
     0
  0
ENDTAB
  0
TABLE
  2
LAYER
  5
2
330
0
100
AcDbSymbolTable
 70
     4
  0
LAYER
  5
10
330
2
100
AcDbSymbolTableRecord
100
AcDbLayerTableRecord
  2
0
 70
     0
 62
     7
  6
Continuous
370
    -3
390
F
  0
LAYER
  5
74
330
2
100
AcDbSymbolTableRecord
100
AcDbLayerTableRecord
  2
16
 70
     0
 62
     7
  6
Continuous
370
    -3
390
F
  0
LAYER
  5
75
330
2
100
AcDbSymbolTableRecord
100
AcDbLayerTableRecord
  2
22
 70
     0
 62
     7
  6
Continuous
370
    -3
390
F
  0
LAYER
  5
76
330
2
100
AcDbSymbolTableRecord
100
AcDbLayerTableRecord
  2
32
 70
     0
 62
     7
  6
Continuous
370
    -3
390
F
  0
ENDTAB
  0
TABLE
  2
STYLE
  5
3
330
0
100
AcDbSymbolTable
 70
     2
  0
STYLE
  5
11
330
3
100
AcDbSymbolTableRecord
100
AcDbTextStyleTableRecord
  2
Standard
 70
     0
 40
0.0
 41
1.0
 50
0.0
 71
     0
 42
0.2
  3
txt.shx
  4
bigfont.shx
  0
STYLE
  5
9A
330
3
100
AcDbSymbolTableRecord
100
AcDbTextStyleTableRecord
  2
dcStyle0
 70
     0
 40
0.0
 41
0.8333333354938274
 50
0.0
 71
     0
 42
0.2
  3
txt.shx
  4
bigfont
  0
ENDTAB
  0
TABLE
  2
VIEW
  5
6
330
0
100
AcDbSymbolTable
 70
     0
  0
ENDTAB
  0
TABLE
  2
UCS
  5
7
330
0
100
AcDbSymbolTable
 70
     0
  0
ENDTAB
  0
TABLE
  2
APPID
  5
9
330
0
100
AcDbSymbolTable
 70
     2
  0
APPID
  5
12
330
9
100
AcDbSymbolTableRecord
100
AcDbRegAppTableRecord
  2
ACAD
 70
     0
  0
APPID
  5
3F
330
9
100
AcDbSymbolTableRecord
100
AcDbRegAppTableRecord
  2
DaFusionOut
 70
     0
  0
ENDTAB
  0
TABLE
  2
DIMSTYLE
  5
A
330
0
100
AcDbSymbolTable
 70
     1
100
AcDbDimStyleTable
  0
DIMSTYLE
105
27
330
A
100
AcDbSymbolTableRecord
100
AcDbDimStyleTableRecord
  2
Standard
 70
     0
178
     0
340
11
  0
ENDTAB
  0
TABLE
  2
BLOCK_RECORD
  5
1
330
0
100
AcDbSymbolTable
 70
     2
  0
BLOCK_RECORD
  5
1F
330
1
100
AcDbSymbolTableRecord
100
AcDbBlockTableRecord
  2
*Model_Space
340
22
  0
BLOCK_RECORD
  5
1B
330
1
100
AcDbSymbolTableRecord
100
AcDbBlockTableRecord
  2
*Paper_Space
340
1E
  0
BLOCK_RECORD
  5
23
330
1
100
AcDbSymbolTableRecord
100
AcDbBlockTableRecord
  2
*Paper_Space0
340
26
  0
BLOCK_RECORD
  5
5A7
330
1
100
AcDbSymbolTableRecord
100
AcDbBlockTableRecord
  2
_OPEN30
340
0
102
{BLKREFS
331
5AD
102
}
  0
ENDTAB
  0
ENDSEC
  0
SECTION
  2
BLOCKS
  0
BLOCK
  5
20
330
1F
100
AcDbEntity
  8
0
100
AcDbBlockBegin
  2
*Model_Space
 70
     0
 10
0.0
 20
0.0
 30
0.0
  3
*Model_Space
  1

  0
ENDBLK
  5
21
330
1F
100
AcDbEntity
  8
0
100
AcDbBlockEnd
  0
BLOCK
  5
1C
330
1B
100
AcDbEntity
 67
     1
  8
0
100
AcDbBlockBegin
  2
*Paper_Space
 70
     0
 10
0.0
 20
0.0
 30
0.0
  3
*Paper_Space
  1

  0
ENDBLK
  5
1D
330
1B
100
AcDbEntity
 67
     1
  8
0
100
AcDbBlockEnd
  0
BLOCK
  5
24
330
23
100
AcDbEntity
  8
0
100
AcDbBlockBegin
  2
*Paper_Space0
 70
     0
 10
0.0
 20
0.0
 30
0.0
  3
*Paper_Space0
  1

  0
ENDBLK
  5
25
330
23
100
AcDbEntity
  8
0
100
AcDbBlockEnd
  0
BLOCK
  5
5A8
330
5A7
100
AcDbEntity
  8
0
100
AcDbBlockBegin
  2
_OPEN30
 70
     0
 10
0.0
 20
0.0
 30
0.0
  3
_OPEN30
  1

  0
LINE
  5
5AA
330
5A7
100
AcDbEntity
  8
0
  6
ByBlock
 62
     0
370
    -2
100
AcDbLine
 10
-1.0
 20
0.267949
 30
0.0
 11
0.0
 21
0.0
 31
0.0
  0
LINE
  5
5AB
330
5A7
100
AcDbEntity
  8
0
  6
ByBlock
 62
     0
370
    -2
100
AcDbLine
 10
0.0
 20
0.0
 30
0.0
 11
-1.0
 21
-0.267949
 31
0.0
  0
LINE
  5
5AC
330
5A7
100
AcDbEntity
  8
0
  6
ByBlock
 62
     0
370
    -2
100
AcDbLine
 10
0.0
 20
0.0
 30
0.0
 11
-1.0
 21
0.0
 31
0.0
  0
ENDBLK
  5
5A9
330
5A7
100
AcDbEntity
  8
0
100
AcDbBlockEnd
  0
ENDSEC
  0
SECTION
  2
ENTITIES
  0
LINE
  5
78
330
1F
100
AcDbEntity
  8
0
  6
Continuous
 62
   150
370
    25
100
AcDbLine
 10
-173.5999998748302
 20
-114.0999997854233
 30
0.0
 11
-173.5999998748302
 21
105.9000034928322
 31
0.0
  0
LINE
  5
79
330
1F
100
AcDbEntity
  8
0
  6
Continuous
 62
   150
370
    25
100
AcDbLine
 10
-173.5999998748302
 20
105.9000034928322
 30
0.0
 11
172.4000052809715
 21
105.9000034928322
 31
0.0
  0
LINE
  5
7A
330
1F
100
AcDbEntity
  8
0
  6
Continuous
 62
   150
370
    25
100
AcDbLine
 10
172.4000052809715
 20
105.9000034928322
 30
0.0
 11
172.4000052809715
 21
-114.0999997854233
 31
0.0
  0
LINE
  5
7B
330
1F
100
AcDbEntity
  8
0
  6
Continuous
 62
   150
370
    25
100
AcDbLine
 10
172.4000052809715
 20
-114.0999997854233
 30
0.0
 11
-173.5999998748302
 21
-114.0999997854233
 31
0.0
  0
LINE
  5
7C
330
1F
100
AcDbEntity
  8
0
  6
Continuous
 62
   150
370
    25
100
AcDbLine
 10
172.4000052809715
 20
-84.09999933838844
 30
0.0
 11
10.40000286698341
 21
-84.09999933838844
 31
0.0
  0
LINE
  5
7D
330
1F
100
AcDbEntity
  8
0
  6
Continuous
 62
   150
370
    25
100
AcDbLine
 10
10.40000286698341
 20
-84.09999933838844
 30
0.0
 11
10.40000286698341
 21
-114.0999997854233
 31
0.0
  0
LINE
  5
7E
330
1F
100
AcDbEntity
  8
0
  6
Continuous
 62
   150
370
    25
100
AcDbLine
 10
10.40000286698341
 20
-97.09999953210354
 30
0.0
 11
96.40000414848328
 21
-97.09999953210354
 31
0.0
  0
LINE
  5
7F
330
1F
100
AcDbEntity
  8
0
  6
Continuous
 62
   150
370
    25
100
AcDbLine
 10
96.40000414848328
 20
-88.59999940544367
 30
0.0
 11
10.40000286698341
 21
-88.59999940544367
 31
0.0
  0
LINE
  5
80
330
1F
100
AcDbEntity
  8
0
  6
Continuous
 62
   150
370
    25
100
AcDbLine
 10
23.40000306069851
 20
-84.09999933838844
 30
0.0
 11
23.40000306069851
 21
-97.09999953210354
 31
0.0
  0
LINE
  5
81
330
1F
100
AcDbEntity
  8
0
  6
Continuous
 62
   150
370
    25
100
AcDbLine
 10
36.4000032544136
 20
-97.09999953210354
 30
0.0
 11
36.4000032544136
 21
-84.09999933838844
 31
0.0
  0
LINE
  5
82
330
1F
100
AcDbEntity
  8
0
  6
Continuous
 62
   150
370
    25
100
AcDbLine
 10
49.4000034481287
 20
-84.09999933838844
 30
0.0
 11
49.4000034481287
 21
-97.09999953210354
 31
0.0
  0
LINE
  5
83
330
1F
100
AcDbEntity
  8
0
  6
Continuous
 62
   150
370
    25
100
AcDbLine
 10
75.40000383555889
 20
-97.09999953210354
 30
0.0
 11
75.40000383555889
 21
-84.09999933838844
 31
0.0
  0
LINE
  5
84
330
1F
100
AcDbEntity
  8
0
  6
Continuous
 62
   150
370
    25
100
AcDbLine
 10
96.40000414848328
 20
-84.09999933838844
 30
0.0
 11
96.40000414848328
 21
-114.0999997854233
 31
0.0
  0
LINE
  5
85
330
1F
100
AcDbEntity
  8
0
  6
Continuous
 62
   150
370
    25
100
AcDbLine
 10
101.4000042229891
 20
-114.0999997854233
 30
0.0
 11
101.4000042229891
 21
-100.5999995842576
 31
0.0
  0
LINE
  5
86
330
1F
100
AcDbEntity
  8
0
  6
Continuous
 62
   150
370
    25
100
AcDbLine
 10
96.40000414848328
 20
-100.5999995842576
 30
0.0
 11
172.4000052809715
 21
-100.5999995842576
 31
0.0
  0
LINE
  5
87
330
1F
100
AcDbEntity
  8
0
  6
Continuous
 62
   150
370
    25
100
AcDbLine
 10
168.4000052213669
 20
-94.59999949485064
 30
0.0
 11
100.4000042080879
 21
-94.59999949485064
 31
0.0
  0
LINE
  5
88
330
1F
100
AcDbEntity
  8
0
  6
Continuous
 62
   150
370
    25
100
AcDbLine
 10
19.40000300109386
 20
-109.1999997124076
 30
0.0
 11
23.90000306814909
 21
-106.6999996751547
 31
0.0
  0
LINE
  5
89
330
1F
100
AcDbEntity
  8
0
  6
Continuous
 62
   150
370
    25
100
AcDbLine
 10
23.90000306814909
 20
-106.6999996751547
 30
0.0
 11
28.40000313520432
 21
-109.1999997124076
 31
0.0
  0
LINE
  5
8A
330
1F
100
AcDbEntity
  8
0
  6
Continuous
 62
   150
370
    25
100
AcDbLine
 10
28.40000313520432
 20
-109.1999997124076
 30
0.0
 11
23.90000306814909
 21
-111.6999997496605
 31
0.0
  0
LINE
  5
8B
330
1F
100
AcDbEntity
  8
0
  6
Continuous
 62
   150
370
    25
100
AcDbLine
 10
23.90000306814909
 20
-111.6999997496605
 30
0.0
 11
19.40000300109386
 21
-109.1999997124076
 31
0.0
  0
LINE
  5
8C
330
1F
100
AcDbEntity
  8
0
  6
Continuous
 62
   150
370
    25
100
AcDbLine
 10
23.40000306069851
 20
-107.6999996900558
 30
0.0
 11
24.40000307559967
 21
-107.6999996900558
 31
0.0
  0
LINE
  5
8D
330
1F
100
AcDbEntity
  8
0
  6
Continuous
 62
   150
370
    25
100
AcDbLine
 10
24.40000307559967
 20
-107.6999996900558
 30
0.0
 11
24.40000307559967
 21
-110.6999997347593
 31
0.0
  0
LINE
  5
8E
330
1F
100
AcDbEntity
  8
0
  6
Continuous
 62
   150
370
    25
100
AcDbLine
 10
24.40000307559967
 20
-110.6999997347593
 30
0.0
 11
23.40000306069851
 21
-110.6999997347593
 31
0.0
  0
LINE
  5
8F
330
1F
100
AcDbEntity
  8
0
  6
Continuous
 62
   150
370
    25
100
AcDbLine
 10
23.40000306069851
 20
-110.6999997347593
 30
0.0
 11
23.40000306069851
 21
-107.6999996900558
 31
0.0
  0
LINE
  5
90
330
1F
100
AcDbEntity
  8
0
  6
Continuous
 62
   150
370
    25
100
AcDbLine
 10
23.40000306069851
 20
-107.6999996900558
 30
0.0
 11
23.60000306367874
 21
-107.6999996900558
 31
0.0
  0
LINE
  5
91
330
1F
100
AcDbEntity
  8
0
  6
Continuous
 62
   150
370
    25
100
AcDbLine
 10
23.60000306367874
 20
-107.6999996900558
 30
0.0
 11
23.60000306367874
 21
-110.6999997347593
 31
0.0
  0
LINE
  5
92
330
1F
100
AcDbEntity
  8
0
  6
Continuous
 62
   150
370
    25
100
AcDbLine
 10
23.60000306367874
 20
-110.6999997347593
 30
0.0
 11
23.80000306665897
 21
-110.6999997347593
 31
0.0
  0
LINE
  5
93
330
1F
100
AcDbEntity
  8
0
  6
Continuous
 62
   150
370
    25
100
AcDbLine
 10
23.80000306665897
 20
-110.6999997347593
 30
0.0
 11
23.80000306665897
 21
-107.6999996900558
 31
0.0
  0
LINE
  5
94
330
1F
100
AcDbEntity
  8
0
  6
Continuous
 62
   150
370
    25
100
AcDbLine
 10
23.80000306665897
 20
-107.6999996900558
 30
0.0
 11
24.00000306963921
 21
-107.6999996900558
 31
0.0
  0
LINE
  5
95
330
1F
100
AcDbEntity
  8
0
  6
Continuous
 62
   150
370
    25
100
AcDbLine
 10
24.00000306963921
 20
-107.6999996900558
 30
0.0
 11
24.00000306963921
 21
-110.6999997347593
 31
0.0
  0
LINE
  5
96
330
1F
100
AcDbEntity
  8
0
  6
Continuous
 62
   150
370
    25
100
AcDbLine
 10
24.00000306963921
 20
-110.6999997347593
 30
0.0
 11
24.20000307261944
 21
-110.6999997347593
 31
0.0
  0
LINE
  5
97
330
1F
100
AcDbEntity
  8
0
  6
Continuous
 62
   150
370
    25
100
AcDbLine
 10
24.20000307261944
 20
-110.6999997347593
 30
0.0
 11
24.20000307261944
 21
-107.6999996900558
 31
0.0
  0
LINE
  5
98
330
1F
100
AcDbEntity
  8
0
  6
Continuous
 62
   150
370
    25
100
AcDbLine
 10
24.20000307261944
 20
-107.6999996900558
 30
0.0
 11
24.40000307559967
 21
-107.6999996900558
 31
0.0
  0
LINE
  5
99
330
1F
100
AcDbEntity
  8
0
  6
Continuous
 62
   150
370
    25
100
AcDbLine
 10
24.40000307559967
 20
-107.6999996900558
 30
0.0
 11
24.40000307559967
 21
-110.6999997347593
 31
0.0
  0
TEXT
  5
9B
330
1F
100
AcDbEntity
  8
0
 62
   150
100
AcDbText
 10
12.4000029
 20
-87.8999994
 30
0.0
 40
3.0
  1
担　当
 41
0.8333333354938274
  7
dcStyle0
 72
     5
 11
21.40000304
 21
-87.8999994
 31
0.0
100
AcDbText
  0
TEXT
  5
9C
330
1F
100
AcDbEntity
  8
0
 62
   150
100
AcDbText
 10
25.40000309
 20
-87.8999994
 30
0.0
 40
3.0
  1
製　図
 41
0.833333335493827
  7
dcStyle0
 72
     5
 11
34.40000323
 21
-87.8999994
 31
0.0
100
AcDbText
  0
TEXT
  5
9D
330
1F
100
AcDbEntity
  8
0
 62
   150
100
AcDbText
 10
38.40000328
 20
-87.8999994
 30
0.0
 40
3.0
  1
検　図
 41
0.833333335493827
  7
dcStyle0
 72
     5
 11
47.40000342
 21
-87.8999994
 31
0.0
100
AcDbText
  0
TEXT
  5
9E
330
1F
100
AcDbEntity
  8
0
 62
   150
100
AcDbText
 10
56.40000355
 20
-87.8999994
 30
0.0
 40
3.0
  1
尺　　度
 41
0.8333333354166672
  7
dcStyle0
 72
     5
 11
68.40000373000001
 21
-87.8999994
 31
0.0
100
AcDbText
  0
TEXT
  5
9F
330
1F
100
AcDbEntity
  8
0
 62
   150
100
AcDbText
 10
79.9000039
 20
-87.8999994
 30
0.0
 40
3.0
  1
作　　図
 41
0.8333333354166668
  7
dcStyle0
 72
     5
 11
91.90000408
 21
-87.8999994
 31
0.0
100
AcDbText
  0
TEXT
  5
A0
330
1F
100
AcDbEntity
  8
0
 62
   150
100
AcDbText
 10
97.40000416
 20
-87.8999994
 30
0.0
 40
3.0
  1
工事名
 41
0.833333335493827
  7
dcStyle0
 72
     5
 11
106.4000043
 21
-87.8999994
 31
0.0
100
AcDbText
  0
TEXT
  5
A1
330
1F
100
AcDbEntity
  8
0
 62
   150
100
AcDbText
 10
97.40000416
 20
-99.39999957
 30
0.0
 40
2.5
  1
図面番号
 41
0.8333333354166671
  7
dcStyle0
 72
     5
 11
107.40000431
 21
-99.39999957
 31
0.0
100
AcDbText
  0
TEXT
  5
A2
330
1F
100
AcDbEntity
  8
0
 62
   150
100
AcDbText
 10
97.40000416
 20
-104.09999964
 30
0.0
 40
2.5
  1
図
 41
0.8333333333333334
  7
dcStyle0
 72
     5
 11
99.90000416
 21
-104.09999964
 31
0.0
100
AcDbText
  0
TEXT
  5
A3
330
1F
100
AcDbEntity
  8
0
 62
   150
100
AcDbText
 10
97.40000416
 20
-107.09999968
 30
0.0
 40
2.5
  1
面
 41
0.8333333333333334
  7
dcStyle0
 72
     5
 11
99.90000416
 21
-107.09999968
 31
0.0
100
AcDbText
  0
TEXT
  5
A4
330
1F
100
AcDbEntity
  8
0
 62
   150
100
AcDbText
 10
97.40000416
 20
-110.09999973
 30
0.0
 40
2.5
  1
名
 41
0.8333333333333334
  7
dcStyle0
 72
     5
 11
99.90000416
 21
-110.09999973
 31
0.0
100
AcDbText
  0
TEXT
  5
A5
330
1F
100
AcDbEntity
  8
0
 62
   150
100
AcDbText
 10
97.40000416
 20
-113.09999977
 30
0.0
 40
2.5
  1
称
 41
0.8333333333333334
  7
dcStyle0
 72
     5
 11
99.90000416
 21
-113.09999977
 31
0.0
100
AcDbText
  0
TEXT
  5
A6
330
1F
100
AcDbEntity
  8
0
 62
   150
100
AcDbText
 10
80.60000391
 20
-94.09999949
 30
0.0
 40
2.5
  1
年
 41
0.8333333333333334
  7
dcStyle0
 72
     5
 11
83.10000391
 21
-94.09999949
 31
0.0
100
AcDbText
  0
TEXT
  5
A7
330
1F
100
AcDbEntity
  8
0
 62
   150
100
AcDbText
 10
87.10000401
 20
-94.09999949
 30
0.0
 40
2.5
  1
月
 41
0.8333333333333334
  7
dcStyle0
 72
     5
 11
89.60000401
 21
-94.09999949
 31
0.0
100
AcDbText
  0
TEXT
  5
A8
330
1F
100
AcDbEntity
  8
0
 62
   150
100
AcDbText
 10
93.60000411
 20
-94.09999949
 30
0.0
 40
2.5
  1
日
 41
0.8333333333333334
  7
dcStyle0
 72
     5
 11
96.10000411
 21
-94.09999949
 31
0.0
100
AcDbText
  0
TEXT
  5
A9
330
1F
100
AcDbEntity
  8
0
 62
   222
100
AcDbText
 10
24.90000308
 20
-103.89999963
 30
0.0
 40
4.0
  1
タイヘイグレーチング
 41
1.041666666041667
  7
dcStyle0
 72
     5
 11
74.90000380000001
 21
-103.89999963
 31
0.0
100
AcDbText
  0
TEXT
  5
AA
330
1F
100
AcDbEntity
  8
0
 62
   222
100
AcDbText
 10
30.15000316
 20
-111.39999975
 30
0.0
 40
5.0
  1
石田鉄工株式会社
 41
0.8461538481952661
  7
dcStyle0
 72
     5
 11
74.15000384999999
 21
-111.39999975
 31
0.0
100
AcDbText
  0
LINE
  5
AB
330
1F
100
AcDbEntity
  8
22
  6
Continuous
 62
     2
370
    25
100
AcDbLine
 10
-182.0
 20
-128.5
 30
0.0
 11
-178.9999999552965
 21
-128.5
 31
0.0
  0
LINE
  5
AC
330
1F
100
AcDbEntity
  8
22
  6
Continuous
 62
     2
370
    25
100
AcDbLine
 10
-178.9999999552965
 20
-128.5
 30
0.0
 11
-178.9999999552965
 21
-125.4999999552965
 31
0.0
  0
LINE
  5
AD
330
1F
100
AcDbEntity
  8
22
  6
Continuous
 62
     2
370
    25
100
AcDbLine
 10
-178.9999999552965
 20
-125.4999999552965
 30
0.0
 11
-182.0
 21
-125.4999999552965
 31
0.0
  0
LINE
  5
AE
330
1F
100
AcDbEntity
  8
22
  6
Continuous
 62
     2
370
    25
100
AcDbLine
 10
-182.0
 20
-125.4999999552965
 30
0.0
 11
-182.0
 21
-128.5
 31
0.0
  0
LINE
  5
AF
330
1F
100
AcDbEntity
  8
22
  6
Continuous
 62
     2
370
    25
100
AcDbLine
 10
-182.0
 20
-128.5
 30
0.0
 11
-178.9999999552965
 21
-128.5
 31
0.0
  0
LINE
  5
B0
330
1F
100
AcDbEntity
  8
22
  6
Continuous
 62
     2
370
    25
100
AcDbLine
 10
-178.9999999552965
 20
-128.5
 30
0.0
 11
-178.9999999552965
 21
-125.4999999552965
 31
0.0
  0
LINE
  5
B1
330
1F
100
AcDbEntity
  8
22
  6
Continuous
 62
     2
370
    25
100
AcDbLine
 10
-178.9999999552965
 20
-125.4999999552965
 30
0.0
 11
-182.0
 21
-125.4999999552965
 31
0.0
  0
LINE
  5
B2
330
1F
100
AcDbEntity
  8
22
  6
Continuous
 62
     2
370
    25
100
AcDbLine
 10
-182.0
 20
-125.4999999552965
 30
0.0
 11
-182.0
 21
-128.5
 31
0.0
  0
LINE
  5
B3
330
1F
100
AcDbEntity
  8
22
  6
Continuous
 62
     2
370
    25
100
AcDbLine
 10
-182.0
 20
-128.5
 30
0.0
 11
-178.9999999552965
 21
-128.5
 31
0.0
  0
LINE
  5
B4
330
1F
100
AcDbEntity
  8
22
  6
Continuous
 62
     2
370
    25
100
AcDbLine
 10
-178.9999999552965
 20
-128.5
 30
0.0
 11
-178.9999999552965
 21
-125.4999999552965
 31
0.0
  0
LINE
  5
B5
330
1F
100
AcDbEntity
  8
22
  6
Continuous
 62
     2
370
    25
100
AcDbLine
 10
-178.9999999552965
 20
-125.4999999552965
 30
0.0
 11
-182.0
 21
-125.4999999552965
 31
0.0
  0
LINE
  5
B6
330
1F
100
AcDbEntity
  8
22
  6
Continuous
 62
     2
370
    25
100
AcDbLine
 10
-182.0
 20
-125.4999999552965
 30
0.0
 11
-182.0
 21
-128.5
 31
0.0
  0
TEXT
  5
B7
330
1F
100
AcDbEntity
  8
22
 62
     2
100
AcDbText
 10
102.40000424
 20
-104.49999966
 30
0.0
 40
3.2
  1
TYKHC
 41
0.9375000009375004
  7
dcStyle0
 72
     5
 11
117.40000448
 21
-104.49999966
 31
0.0
100
AcDbText
  0
TEXT
  5
B8
330
1F
100
AcDbEntity
  8
22
 62
     2
100
AcDbText
 10
117.40000446
 20
-104.49999966
 30
0.0
 40
3.2
  1
 360 
 41
0.7812500027343743
  7
dcStyle0
 72
     5
 11
129.90000466
 21
-104.49999966
 31
0.0
100
AcDbText
  0
TEXT
  5
B9
330
1F
100
AcDbEntity
  8
22
 62
     2
100
AcDbText
 10
127.40000461
 20
-104.49999966
 30
0.0
 40
3.0
  1
×
 41
0.6944444444444445
  7
dcStyle0
 72
     5
 11
129.90000461
 21
-104.49999966
 31
0.0
100
AcDbText
  0
TEXT
  5
BA
330
1F
100
AcDbEntity
  8
22
 62
     2
100
AcDbText
 10
128.90000463
 20
-104.49999966
 30
0.0
 40
3.0
  1
 494 
 41
0.8333333355555547
  7
dcStyle0
 72
     5
 11
141.40000483
 21
-104.49999966
 31
0.0
100
AcDbText
  0
TEXT
  5
BB
330
1F
100
AcDbEntity
  8
22
 62
     2
100
AcDbText
 10
138.90000478
 20
-104.49999966
 30
0.0
 40
3.0
  1
×
 41
0.6944444444444445
  7
dcStyle0
 72
     5
 11
141.40000478
 21
-104.49999966
 31
0.0
100
AcDbText
  0
TEXT
  5
BC
330
1F
100
AcDbEntity
  8
22
 62
     2
100
AcDbText
 10
140.4000048
 20
-104.49999966
 30
0.0
 40
3.0
  1
 25 
 41
0.8333333354166671
  7
dcStyle0
 72
     5
 11
150.40000495
 21
-104.49999966
 31
0.0
100
AcDbText
  0
TEXT
  5
BD
330
1F
100
AcDbEntity
  8
22
 62
     2
100
AcDbText
 10
147.90000492
 20
-104.49999966
 30
0.0
 40
3.0
  1
/
 41
0.8333333333333334
  7
dcStyle0
 72
     5
 11
150.40000492
 21
-104.49999966
 31
0.0
100
AcDbText
  0
TEXT
  5
BE
330
1F
100
AcDbEntity
  8
22
 62
     2
100
AcDbText
 10
147.90000492
 20
-104.49999966
 30
0.0
 40
3.0
  1
 90 
 41
0.8333333354166671
  7
dcStyle0
 72
     5
 11
157.90000507
 21
-104.49999966
 31
0.0
100
AcDbText
  0
TEXT
  5
BF
330
1F
100
AcDbEntity
  8
22
 62
     2
100
AcDbText
 10
25.65000309
 20
-94.59999949000002
 30
0.0
 40
3.0
  1
岡本　
 41
0.8536585384889945
  7
dcStyle0
 72
     5
 11
36.15000325
 21
-94.59999949000002
 31
0.0
100
AcDbText
  0
TEXT
  5
C0
330
1F
100
AcDbEntity
  8
22
 62
     2
100
AcDbText
 10
56.70000356000001
 20
-94.09999949000002
 30
0.0
 40
3.0
  1
1/
 41
1.000000000000001
  7
dcStyle0
 72
     5
 11
62.70000365000001
 21
-94.09999949000002
 31
0.0
100
AcDbText
  0
TEXT
  5
C1
330
1F
100
AcDbEntity
  8
22
 62
     2
100
AcDbText
 10
59.7000036
 20
-94.09999949000002
 30
0.0
 40
3.0
  1
 5 
 41
0.9999999999999998
  7
dcStyle0
 72
     5
 11
68.70000374
 21
-94.09999949000002
 31
0.0
100
AcDbText
  0
TEXT
  5
C2
330
1F
100
AcDbEntity
  8
22
 62
     2
100
AcDbText
 10
112.00000438
 20
-99.59999958000003
 30
0.0
 40
3.0
  1
TYKHC25-250A T-2
 41
0.8333333354166668
  7
dcStyle0
 72
     5
 11
152.00000498
 21
-99.59999958000003
 31
0.0
100
AcDbText
  0
TEXT
  5
C3
330
1F
100
AcDbEntity
  8
22
 62
     2
100
AcDbText
 10
73.95000381
 20
-70.2999992
 30
0.0
 40
3.5
  1
＜表面処理＞
 41
0.7446808537799908
  7
dcStyle0
 72
     5
 11
94.95000411
 21
-70.2999992
 31
0.0
100
AcDbText
  0
TEXT
  5
C4
330
1F
100
AcDbEntity
  8
22
 62
     2
100
AcDbText
 10
78.95000389
 20
-75.29999928000001
 30
0.0
 40
3.5
  1
本体：溶融亜鉛メッキ
 41
0.7446808537256675
  7
dcStyle0
 72
     5
 11
113.95000438
 21
-75.29999928000001
 31
0.0
100
AcDbText
  0
TEXT
  5
C5
330
1F
100
AcDbEntity
  8
22
 62
     2
100
AcDbText
 10
115.20000467
 20
-75.29999928000001
 30
0.0
 40
3.5
  1
（セラミック充填）
 41
0.7446808539610686
  7
dcStyle0
 72
     5
 11
146.70000515
 21
-75.29999928000001
 31
0.0
100
AcDbText
  0
TEXT
  5
C6
330
1F
100
AcDbEntity
  8
22
 62
     2
100
AcDbText
 10
38.15000327956918
 20
-94.09999948807909
 30
0.0
 40
3.0
  1
戸田　
 41
0.8536585384889945
  7
dcStyle0
 72
     5
 11
48.65000343956918
 21
-94.09999948807909
 31
0.0
100
AcDbText
  0
TEXT
  5
C7
330
1F
100
AcDbEntity
  8
22
 62
     2
100
AcDbText
 10
-125.49999916
 20
88.10000323192094
 30
0.0
 40
3.0
  1
車両進行方向
 41
0.8333333352623458
  7
dcStyle0
 72
     5
 11
-107.49999891
 21
88.10000323192094
 31
0.0
100
AcDbText
  0
TEXT
  5
C8
330
1F
100
AcDbEntity
  8
22
 62
     2
100
AcDbText
 10
-109.74999892
 20
81.10000312192095
 30
0.0
 40
2.5
  1
ベアリングバー：
 41
0.8333333352777776
  7
dcStyle0
 72
     5
 11
-89.74999864000002
 21
81.10000312192095
 31
0.0
100
AcDbText
  0
TEXT
  5
C9
330
1F
100
AcDbEntity
  8
22
 62
     2
100
AcDbText
 10
-89.74999863
 20
81.10000312192095
 30
0.0
 40
2.5
  1
Y-
 41
0.9999999999999998
  7
dcStyle0
 72
     5
 11
-84.74999856
 21
81.10000312192095
 31
0.0
100
AcDbText
  0
TEXT
  5
CA
330
1F
100
AcDbEntity
  8
22
 62
     2
100
AcDbText
 10
-86.74999858000001
 20
81.10000312192095
 30
0.0
 40
2.5
  1
 25 
 41
1.0
  7
dcStyle0
 72
     5
 11
-76.74999843
 21
81.10000312192095
 31
0.0
100
AcDbText
  0
TEXT
  5
CB
330
1F
100
AcDbEntity
  8
22
 62
     2
100
AcDbText
 10
-79.24999847
 20
81.10000312192095
 30
0.0
 40
2.5
  1
×
 41
0.8333333333333334
  7
dcStyle0
 72
     5
 11
-76.74999847
 21
81.10000312192095
 31
0.0
100
AcDbText
  0
TEXT
  5
CC
330
1F
100
AcDbEntity
  8
22
 62
     2
100
AcDbText
 10
-76.74999843
 20
81.10000312192095
 30
0.0
 40
2.5
  1
20
 41
0.9999999999999998
  7
dcStyle0
 72
     5
 11
-71.74999836
 21
81.10000312192095
 31
0.0
100
AcDbText
  0
TEXT
  5
CD
330
1F
100
AcDbEntity
  8
22
 62
     2
100
AcDbText
 10
-71.74999836
 20
81.10000312192095
 30
0.0
 40
2.5
  1
×
 41
0.8333333333333334
  7
dcStyle0
 72
     5
 11
-69.24999836
 21
81.10000312192095
 31
0.0
100
AcDbText
  0
TEXT
  5
CE
330
1F
100
AcDbEntity
  8
22
 62
     2
100
AcDbText
 10
-71.24999835
 20
81.10000312192095
 30
0.0
 40
2.5
  1
 4.6 
 41
0.8000000025599998
  7
dcStyle0
 72
     5
 11
-61.24999819
 21
81.10000312192095
 31
0.0
100
AcDbText
  0
TEXT
  5
CF
330
1F
100
AcDbEntity
  8
22
 62
     2
100
AcDbText
 10
-104.89999885
 20
76.90000306192093
 30
0.0
 40
2.5
  1
ツイストバー：
 41
0.8333333352380948
  7
dcStyle0
 72
     5
 11
-87.39999861000001
 21
76.90000306192093
 31
0.0
100
AcDbText
  0
TEXT
  5
D0
330
1F
100
AcDbEntity
  8
22
 62
     2
100
AcDbText
 10
-87.39999859
 20
76.90000306192093
 30
0.0
 40
2.5
  1
φ
 41
0.8333333333333334
  7
dcStyle0
 72
     5
 11
-84.89999859
 21
76.90000306192093
 31
0.0
100
AcDbText
  0
TEXT
  5
D1
330
1F
100
AcDbEntity
  8
22
 62
     2
100
AcDbText
 10
-86.89999858
 20
76.90000306192093
 30
0.0
 40
2.5
  1
 8 
 41
0.9999999999999994
  7
dcStyle0
 72
     5
 11
-79.39999846
 21
76.90000306192093
 31
0.0
100
AcDbText
  0
TEXT
  5
D2
330
1F
100
AcDbEntity
  8
22
 62
     2
100
AcDbText
 10
-79.39999847000001
 20
76.90000306192093
 30
0.0
 40
2.5
  1
絞りパイプ
 41
0.8333333355555557
  7
dcStyle0
 72
     5
 11
-66.89999827000001
 21
76.90000306192093
 31
0.0
100
AcDbText
  0
TEXT
  5
D3
330
1F
100
AcDbEntity
  8
22
 62
     2
100
AcDbText
 10
-98.25999631000002
 20
72.20000299192093
 30
0.0
 40
2.5
  1
エンドプレート：
 41
0.8333333352777776
  7
dcStyle0
 72
     5
 11
-78.25999603000002
 21
72.20000299192093
 31
0.0
100
AcDbText
  0
TEXT
  5
D4
330
1F
100
AcDbEntity
  8
22
 62
     2
100
AcDbText
 10
-78.25999601000001
 20
72.20000299192093
 30
0.0
 40
2.5
  1
FB
 41
0.9999999999999998
  7
dcStyle0
 72
     5
 11
-73.25999594000001
 21
72.20000299192093
 31
0.0
100
AcDbText
  0
TEXT
  5
D5
330
1F
100
AcDbEntity
  8
22
 62
     2
100
AcDbText
 10
-75.25999597
 20
72.20000299192093
 30
0.0
 40
2.5
  1
 4.5 
 41
0.8000000025599998
  7
dcStyle0
 72
     5
 11
-65.25999581
 21
72.20000299192093
 31
0.0
100
AcDbText
  0
TEXT
  5
D6
330
1F
100
AcDbEntity
  8
22
 62
     2
100
AcDbText
 10
-67.75999586
 20
72.20000299192093
 30
0.0
 40
2.5
  1
×
 41
0.8333333333333334
  7
dcStyle0
 72
     5
 11
-65.25999586
 21
72.20000299192093
 31
0.0
100
AcDbText
  0
TEXT
  5
D7
330
1F
100
AcDbEntity
  8
22
 62
     2
100
AcDbText
 10
-67.25999585
 20
72.20000299192093
 30
0.0
 40
2.5
  1
 25 
 41
0.9999999999999998
  7
dcStyle0
 72
     5
 11
-57.2599957
 21
72.20000299192093
 31
0.0
100
AcDbText
  0
TEXT
  5
D8
330
1F
100
AcDbEntity
  8
22
 62
     2
100
AcDbText
 10
-90.27999627
 20
-58.19999894807907
 30
0.0
 40
3.0
  1
 27.9 
 41
0.8333333351851854
  7
dcStyle0
 72
     5
 11
-75.27999607
 21
-58.19999894807907
 31
0.0
100
AcDbText
  0
TEXT
  5
D9
330
1F
100
AcDbEntity
  8
22
 62
     2
100
AcDbText
 10
-98.34999875
 20
-51.19999884807908
 30
0.0
 40
3.0
  1
 494 
 41
0.8333333355555557
  7
dcStyle0
 72
     5
 11
-85.84999855
 21
-51.19999884807908
 31
0.0
100
AcDbText
  0
TEXT
  5
DA
330
1F
100
AcDbEntity
  8
22
 62
     2
100
AcDbText
 10
-3.199997335993621
 20
39.4000025067286
 30
0.0
 40
3.0
  1
 80 
 50
90.0000001836389
 41
0.8333333354166659
  7
dcStyle0
 72
     5
 11
-3.199997368044656
 21
49.40000265672859
 31
0.0
100
AcDbText
  0
TEXT
  5
DB
330
1F
100
AcDbEntity
  8
22
 62
     2
100
AcDbText
 10
-3.199997335993622
 20
20.15000221672858
 30
0.0
 40
3.0
  1
 100 
 50
90.0000001836389
 41
0.8333333355555554
  7
dcStyle0
 72
     5
 11
-3.199997376057415
 21
32.65000241672858
 31
0.0
100
AcDbText
  0
TEXT
  5
DC
330
1F
100
AcDbEntity
  8
22
 62
     2
100
AcDbText
 10
-10.19999743599362
 20
10.15000206672858
 30
0.0
 40
3.0
  1
 360 
 50
90.0000001836389
 41
0.8333333355555556
  7
dcStyle0
 72
     5
 11
-10.19999747605742
 21
22.65000226672858
 31
0.0
100
AcDbText
  0
TEXT
  5
DD
330
1F
100
AcDbEntity
  8
22
 62
     2
100
AcDbText
 10
30.80000317400638
 20
10.15000206672858
 30
0.0
 40
3.0
  1
 348 
 50
90.0000001836389
 41
0.8333333355555556
  7
dcStyle0
 72
     5
 11
30.80000313394259
 21
22.65000226672858
 31
0.0
100
AcDbText
  0
TEXT
  5
DE
330
1F
100
AcDbEntity
  8
22
 62
     2
100
AcDbText
 10
35.80000325480766
 20
8.900002056728583
 30
0.0
 40
3.0
  1
嵩上材外寸
 50
90.0000001836389
 41
0.8333333355555554
  7
dcStyle0
 72
     5
 11
35.80000320673111
 21
23.90000229672858
 31
0.0
100
AcDbText
  0
TEXT
  5
DF
330
1F
100
AcDbEntity
  8
22
 62
     2
100
AcDbText
 10
4.30000278
 20
71.00000297192094
 30
0.0
 40
2.5
  1
□－
 41
0.6666666699999999
  7
dcStyle0
 72
     5
 11
8.30000284
 21
71.00000297192094
 31
0.0
100
AcDbText
  0
TEXT
  5
E0
330
1F
100
AcDbEntity
  8
22
 62
     2
100
AcDbText
 10
8.30000284
 20
71.00000297192094
 30
0.0
 40
2.5
  1
3.2
 41
0.6000000031999999
  7
dcStyle0
 72
     5
 11
12.8000029
 21
71.00000297192094
 31
0.0
100
AcDbText
  0
TEXT
  5
E1
330
1F
100
AcDbEntity
  8
22
 62
     2
100
AcDbText
 10
12.8000029
 20
71.00000297192094
 30
0.0
 40
2.5
  1
×
 41
0.6666666666666666
  7
dcStyle0
 72
     5
 11
14.8000029
 21
71.00000297192094
 31
0.0
100
AcDbText
  0
TEXT
  5
E2
330
1F
100
AcDbEntity
  8
22
 62
     2
100
AcDbText
 10
12.8000029
 20
71.00000297192094
 30
0.0
 40
2.5
  1
 65 
 41
0.8000000023999999
  7
dcStyle0
 72
     5
 11
20.80000302
 21
71.00000297192094
 31
0.0
100
AcDbText
  0
TEXT
  5
E3
330
1F
100
AcDbEntity
  8
22
 62
     2
100
AcDbText
 10
18.80000299
 20
71.00000297192094
 30
0.0
 40
2.5
  1
×
 41
0.6666666666666666
  7
dcStyle0
 72
     5
 11
20.80000299
 21
71.00000297192094
 31
0.0
100
AcDbText
  0
TEXT
  5
E4
330
1F
100
AcDbEntity
  8
22
 62
     2
100
AcDbText
 10
18.80000299
 20
71.00000297192094
 30
0.0
 40
2.5
  1
 40 
 41
0.8000000023999999
  7
dcStyle0
 72
     5
 11
26.80000311
 21
71.00000297192094
 31
0.0
100
AcDbText
  0
TEXT
  5
E5
330
1F
100
AcDbEntity
  8
22
 62
     2
100
AcDbText
 10
-6.69999739
 20
-34.09999859807908
 30
0.0
 40
3.0
  1
 25 
 41
0.8333333354166667
  7
dcStyle0
 72
     5
 11
3.30000276
 21
-34.09999859807908
 31
0.0
100
AcDbText
  0
TEXT
  5
E6
330
1F
100
AcDbEntity
  8
22
 62
     2
100
AcDbText
 10
6.300002809999999
 20
-41.09999869807908
 30
0.0
 40
3.0
  1
 90 
 41
0.8333333354166668
  7
dcStyle0
 72
     5
 11
16.30000296
 21
-41.09999869807908
 31
0.0
100
AcDbText
  0
TEXT
  5
E7
330
1F
100
AcDbEntity
  8
22
 62
     2
100
AcDbText
 10
93.90000411
 20
93.90000331192094
 30
0.0
 40
4.0
  1
◇　荷　重　計　算　◇
 41
0.833333335542929
  7
dcStyle0
 72
     5
 11
137.90000481
 21
93.90000331192094
 31
0.0
100
AcDbText
  0
TEXT
  5
E8
330
1F
100
AcDbEntity
  8
22
 62
     2
100
AcDbText
 10
64.55000367
 20
83.90000316192092
 30
0.0
 40
3.3
  1
設計条件
 41
0.8583691004600379
  7
dcStyle0
 72
     5
 11
80.5500039
 21
83.90000316192092
 31
0.0
100
AcDbText
  0
TEXT
  5
E9
330
1F
100
AcDbEntity
  8
22
 62
     2
100
AcDbText
 10
69.80000374999999
 20
77.90000307192092
 30
0.0
 40
3.3
  1
荷重基準：　
 41
0.8413461557530508
  7
dcStyle0
 72
     5
 11
90.80000404999998
 21
77.90000307192092
 31
0.0
100
AcDbText
  0
TEXT
  5
EA
330
1F
100
AcDbEntity
  8
22
 62
     2
100
AcDbText
 10
90.70000406
 20
77.90000307192092
 30
0.0
 40
3.3
  1
鋼道路橋等設計示方書による
 41
0.8413461557237141
  7
dcStyle0
 72
     5
 11
136.2000047
 21
77.90000307192092
 31
0.0
100
AcDbText
  0
TEXT
  5
EB
330
1F
100
AcDbEntity
  8
22
 62
     2
100
AcDbText
 10
69.80000374999999
 20
72.90000300192092
 30
0.0
 40
3.3
  1
荷　　重：　
 41
0.8413461557530508
  7
dcStyle0
 72
     5
 11
90.80000404999998
 21
72.90000300192092
 31
0.0
100
AcDbText
  0
TEXT
  5
EC
330
1F
100
AcDbEntity
  8
22
 62
     2
100
AcDbText
 10
90.80000407
 20
72.90000300192092
 30
0.0
 40
3.0
  1
T-
  7
dcStyle0
 72
     5
 11
96.80000416
 21
72.90000300192092
 31
0.0
100
AcDbText
  0
TEXT
  5
ED
330
1F
100
AcDbEntity
  8
22
 62
     2
100
AcDbText
 10
94.80000412
 20
72.90000300192092
 30
0.0
 40
3.0
  1
 2 
 41
0.8333333355555551
  7
dcStyle0
 72
     5
 11
102.30000424
 21
72.90000300192092
 31
0.0
100
AcDbText
  0
TEXT
  5
EE
330
1F
100
AcDbEntity
  8
22
 62
     2
100
AcDbText
 10
102.20000423
 20
72.90000300192092
 30
0.0
 40
3.3
  1
（後輪一輪荷重：
 41
0.8413461558960683
  7
dcStyle0
 72
     5
 11
130.20000466
 21
72.90000300192092
 31
0.0
100
AcDbText
  0
TEXT
  5
EF
330
1F
100
AcDbEntity
  8
22
 62
     2
100
AcDbText
 10
130.20000465
 20
72.90000300192092
 30
0.0
 40
3.0
  1
  800
 41
0.8333333355555547
  7
dcStyle0
 72
     5
 11
142.70000485
 21
72.90000300192092
 31
0.0
100
AcDbText
  0
TEXT
  5
F0
330
1F
100
AcDbEntity
  8
22
 62
     2
100
AcDbText
 10
142.70000484
 20
72.90000300192092
 30
0.0
 40
3.0
  1
Kg
 41
0.5000000033333338
  7
dcStyle0
 72
     5
 11
145.70000488
 21
72.90000300192092
 31
0.0
100
AcDbText
  0
TEXT
  5
F1
330
1F
100
AcDbEntity
  8
22
 62
     2
100
AcDbText
 10
145.70000488
 20
72.90000300192092
 30
0.0
 40
3.3
  1
）
 41
0.8333333333333363
  7
dcStyle0
 72
     5
 11
149.00000488
 21
72.90000300192092
 31
0.0
100
AcDbText
  0
TEXT
  5
F2
330
1F
100
AcDbEntity
  8
22
 62
     2
100
AcDbText
 10
69.80000374999999
 20
67.90000292192094
 30
0.0
 40
3.3
  1
載荷寸法：　
 41
0.8413461557530508
  7
dcStyle0
 72
     5
 11
90.80000404999998
 21
67.90000292192094
 31
0.0
100
AcDbText
  0
TEXT
  5
F3
330
1F
100
AcDbEntity
  8
22
 62
     2
100
AcDbText
 10
90.80000407
 20
67.90000292192093
 30
0.0
 40
3.0
  1
200
 41
0.8333333355555551
  7
dcStyle0
 72
     5
 11
98.30000419
 21
67.90000292192093
 31
0.0
100
AcDbText
  0
TEXT
  5
F4
330
1F
100
AcDbEntity
  8
22
 62
     2
100
AcDbText
 10
98.30000418
 20
67.90000292192093
 30
0.0
 40
3.0
  1
mm
 41
0.6666666700000008
  7
dcStyle0
 72
     5
 11
102.30000424
 21
67.90000292192093
 31
0.0
100
AcDbText
  0
TEXT
  5
F5
330
1F
100
AcDbEntity
  8
22
 62
     2
100
AcDbText
 10
102.20000423
 20
67.90000292192094
 30
0.0
 40
3.3
  1
×
 41
0.8333333333333326
  7
dcStyle0
 72
     5
 11
105.50000423
 21
67.90000292192094
 31
0.0
100
AcDbText
  0
TEXT
  5
F6
330
1F
100
AcDbEntity
  8
22
 62
     2
100
AcDbText
 10
105.70000429
 20
67.90000292192093
 30
0.0
 40
3.0
  1
160
 41
0.8333333355555551
  7
dcStyle0
 72
     5
 11
113.20000441
 21
67.90000292192093
 31
0.0
100
AcDbText
  0
TEXT
  5
F7
330
1F
100
AcDbEntity
  8
22
 62
     2
100
AcDbText
 10
113.2000044
 20
67.90000292192093
 30
0.0
 40
3.0
  1
mm
 41
0.6666666700000008
  7
dcStyle0
 72
     5
 11
117.20000446
 21
67.90000292192093
 31
0.0
100
AcDbText
  0
TEXT
  5
F8
330
1F
100
AcDbEntity
  8
22
 62
     2
100
AcDbText
 10
117.10000446
 20
67.90000292192094
 30
0.0
 40
3.3
  1
　（等分布負載）
 41
0.8413461558960686
  7
dcStyle0
 72
     5
 11
145.10000489
 21
67.90000292192094
 31
0.0
100
AcDbText
  0
TEXT
  5
F9
330
1F
100
AcDbEntity
  8
22
 62
     2
100
AcDbText
 10
69.80000374999999
 20
62.90000285192094
 30
0.0
 40
3.3
  1
許容応力：　
 41
0.8413461557530508
  7
dcStyle0
 72
     5
 11
90.80000404999998
 21
62.90000285192094
 31
0.0
100
AcDbText
  0
TEXT
  5
FA
330
1F
100
AcDbEntity
  8
22
 62
     2
100
AcDbText
 10
90.80000407
 20
62.90000285192094
 30
0.0
 40
3.3
  1
σｂ＝
 41
0.6313131350372407
  7
dcStyle0
 72
     5
 11
98.30000419
 21
62.90000285192094
 31
0.0
100
AcDbText
  0
TEXT
  5
FB
330
1F
100
AcDbEntity
  8
22
 62
     2
100
AcDbText
 10
98.30000418
 20
62.90000285192093
 30
0.0
 40
3.0
  1
 12.0
 41
0.8333333355555557
  7
dcStyle0
 72
     5
 11
110.80000438
 21
62.90000285192093
 31
0.0
100
AcDbText
  0
TEXT
  5
FC
330
1F
100
AcDbEntity
  8
22
 62
     2
100
AcDbText
 10
111.40000437
 20
62.90000285192093
 30
0.0
 40
3.0
  1
Kg
 41
0.5000000033333338
  7
dcStyle0
 72
     5
 11
114.40000441
 21
62.90000285192093
 31
0.0
100
AcDbText
  0
TEXT
  5
FD
330
1F
100
AcDbEntity
  8
22
 62
     2
100
AcDbText
 10
114.15000441
 20
62.90000285192093
 30
0.0
 40
3.0
  1
／
 41
0.8333333333333334
  7
dcStyle0
 72
     5
 11
117.15000441
 21
62.90000285192093
 31
0.0
100
AcDbText
  0
TEXT
  5
FE
330
1F
100
AcDbEntity
  8
22
 62
     2
100
AcDbText
 10
117.65000447
 20
62.90000285192093
 30
0.0
 40
3.0
  1
mm
 41
0.6666666700000008
  7
dcStyle0
 72
     5
 11
121.65000453
 21
62.90000285192093
 31
0.0
100
AcDbText
  0
TEXT
  5
FF
330
1F
100
AcDbEntity
  8
22
 62
     2
100
AcDbText
 10
121.65000452
 20
64.90000288192093
 30
0.0
 40
1.8
  1
2
 41
0.8333333333333333
  7
dcStyle0
 72
     5
 11
123.15000452
 21
64.90000288192093
 31
0.0
100
AcDbText
  0
TEXT
  5
100
330
1F
100
AcDbEntity
  8
22
 62
     2
100
AcDbText
 10
124.15000456
 20
62.90000285192094
 30
0.0
 40
3.3
  1
（ＳＰＨＣ使用）
 41
0.7575757602540559
  7
dcStyle0
 72
     5
 11
148.15000491
 21
62.90000285192094
 31
0.0
100
AcDbText
  0
TEXT
  5
101
330
1F
100
AcDbEntity
  8
22
 62
     2
100
AcDbText
 10
69.80000374999999
 20
57.90000278192094
 30
0.0
 40
3.3
  1
衝撃係数：　
 41
0.8413461557530508
  7
dcStyle0
 72
     5
 11
90.80000404999998
 21
57.90000278192094
 31
0.0
100
AcDbText
  0
TEXT
  5
102
330
1F
100
AcDbEntity
  8
22
 62
     2
100
AcDbText
 10
90.80000407
 20
57.90000278192094
 30
0.0
 40
3.3
  1
ｉ　＝
 41
0.6313131350372407
  7
dcStyle0
 72
     5
 11
98.30000419
 21
57.90000278192094
 31
0.0
100
AcDbText
  0
TEXT
  5
103
330
1F
100
AcDbEntity
  8
22
 62
     2
100
AcDbText
 10
98.30000418
 20
57.90000278192093
 30
0.0
 40
3.0
  1
 0.0
 41
0.8333333354166671
  7
dcStyle0
 72
     5
 11
108.30000433
 21
57.90000278192093
 31
0.0
100
AcDbText
  0
TEXT
  5
104
330
1F
100
AcDbEntity
  8
22
 62
     2
100
AcDbText
 10
69.80000374999999
 20
52.90000270192093
 30
0.0
 40
3.3
  1
スパン　：　
 41
0.8413461557530508
  7
dcStyle0
 72
     5
 11
90.80000404999998
 21
52.90000270192093
 31
0.0
100
AcDbText
  0
TEXT
  5
105
330
1F
100
AcDbEntity
  8
22
 62
     2
100
AcDbText
 10
90.80000407
 20
52.90000270192093
 30
0.0
 40
3.0
  1
L =
 41
0.8333333355555551
  7
dcStyle0
 72
     5
 11
98.30000419
 21
52.90000270192093
 31
0.0
100
AcDbText
  0
TEXT
  5
106
330
1F
100
AcDbEntity
  8
22
 62
     2
100
AcDbText
 10
98.30000418
 20
52.90000270192093
 30
0.0
 40
3.0
  1
 270 
 41
0.8333333355555557
  7
dcStyle0
 72
     5
 11
110.80000438
 21
52.90000270192093
 31
0.0
100
AcDbText
  0
TEXT
  5
107
330
1F
100
AcDbEntity
  8
22
 62
     2
100
AcDbText
 10
110.80000436
 20
52.90000270192093
 30
0.0
 40
3.0
  1
mm
 41
0.6666666700000008
  7
dcStyle0
 72
     5
 11
114.80000442
 21
52.90000270192093
 31
0.0
100
AcDbText
  0
TEXT
  5
108
330
1F
100
AcDbEntity
  8
22
 62
     2
100
AcDbText
 10
79.80000390000001
 20
44.90000258192093
 30
0.0
 40
3.3
  1
　Ｗ　：主部材が支える最大後輪一輪荷重
 41
0.8413461559738495
  7
dcStyle0
 72
     5
 11
146.30000496
 21
44.90000258192093
 31
0.0
100
AcDbText
  0
TEXT
  5
109
330
1F
100
AcDbEntity
  8
22
 62
     2
100
AcDbText
 10
146.30000489
 20
44.90000258192094
 30
0.0
 40
3.0
  1
（Kg）
 41
1.000000000000001
  7
dcStyle0
 72
     5
 11
154.30000501
 21
44.90000258192094
 31
0.0
100
AcDbText
  0
TEXT
  5
10A
330
1F
100
AcDbEntity
  8
22
 62
     2
100
AcDbText
 10
79.80000390000001
 20
40.90000252192093
 30
0.0
 40
3.3
  1
　Ｎ　：荷重を受ける主部材本数
 41
0.8413461558293267
  7
dcStyle0
 72
     5
 11
132.30000468
 21
40.90000252192093
 31
0.0
100
AcDbText
  0
TEXT
  5
10B
330
1F
100
AcDbEntity
  8
22
 62
     2
100
AcDbText
 10
79.80000390000001
 20
36.90000246192093
 30
0.0
 40
3.3
  1
〔Ｚ〕：主部材断面係数（㎜
 41
0.8413461557237141
  7
dcStyle0
 72
     5
 11
125.30000454
 21
36.90000246192093
 31
0.0
100
AcDbText
  0
TEXT
  5
10C
330
1F
100
AcDbEntity
  8
22
 62
     2
100
AcDbText
 10
125.30000458
 20
38.40000249192093
 30
0.0
 40
1.5
  1
3
  7
dcStyle0
 72
     5
 11
126.80000458
 21
38.40000249192093
 31
0.0
100
AcDbText
  0
TEXT
  5
10D
330
1F
100
AcDbEntity
  8
22
 62
     2
100
AcDbText
 10
126.8000046
 20
36.90000246192093
 30
0.0
 40
3.3
  1
）
 41
0.8333333333333363
  7
dcStyle0
 72
     5
 11
130.1000046
 21
36.90000246192093
 31
0.0
100
AcDbText
  0
TEXT
  5
10E
330
1F
100
AcDbEntity
  8
22
 62
     2
100
AcDbText
 10
79.80000390000001
 20
32.90000240192093
 30
0.0
 40
3.3
  1
　Ｓ　：溝幅方向載荷寸法（㎜）
 41
0.8413461558293267
  7
dcStyle0
 72
     5
 11
132.30000468
 21
32.90000240192093
 31
0.0
100
AcDbText
  0
TEXT
  5
10F
330
1F
100
AcDbEntity
  8
22
 62
     2
100
AcDbText
 10
64.55000367
 20
27.90000233192093
 30
0.0
 40
3.3
  1
荷重計算
 41
0.8583691004600379
  7
dcStyle0
 72
     5
 11
80.5500039
 21
27.90000233192093
 31
0.0
100
AcDbText
  0
TEXT
  5
110
330
1F
100
AcDbEntity
  8
22
 62
     2
100
AcDbText
 10
69.80000374999999
 20
20.90000222192094
 30
0.0
 40
3.3
  1
側　溝
 41
0.8413461558801774
  7
dcStyle0
 72
     5
 11
80.30000390999999
 21
20.90000222192094
 31
0.0
100
AcDbText
  0
TEXT
  5
111
330
1F
100
AcDbEntity
  8
22
 62
     2
100
AcDbText
 10
80.20000390999999
 20
20.90000222192094
 30
0.0
 40
3.3
  1
　（溝幅＞載荷寸法Ｓの場合）
 41
0.8413461557802923
  7
dcStyle0
 72
     5
 11
129.20000462
 21
20.90000222192094
 31
0.0
100
AcDbText
  0
TEXT
  5
112
330
1F
100
AcDbEntity
  8
22
 62
     2
100
AcDbText
 10
69.90000375
 20
10.90000208192093
 30
0.0
 40
3.3
  1
Ｗ　＝
 41
0.6313131350372407
  7
dcStyle0
 72
     5
 11
77.40000386999999
 21
10.90000208192093
 31
0.0
100
AcDbText
  0
TEXT
  5
113
330
1F
100
AcDbEntity
  8
22
 62
     2
100
AcDbText
 10
80.90000392000002
 20
13.40000211192093
 30
0.0
 40
3.0
  1
8
  7
dcStyle0
 72
     5
 11
83.90000392000002
 21
13.40000211192093
 31
0.0
100
AcDbText
  0
TEXT
  5
114
330
1F
100
AcDbEntity
  8
22
 62
     2
100
AcDbText
 10
83.90000396
 20
13.40000211192093
 30
0.0
 40
0.8
  1
 
 41
0.9999999999999964
  7
dcStyle0
 72
     5
 11
84.70000396
 21
13.40000211192093
 31
0.0
100
AcDbText
  0
TEXT
  5
115
330
1F
100
AcDbEntity
  8
22
 62
     2
100
AcDbText
 10
84.70000397000001
 20
13.40000211192093
 30
0.0
 40
3.3
  1
σｂ
 41
0.6313131345717272
  7
dcStyle0
 72
     5
 11
89.70000404000001
 21
13.40000211192093
 31
0.0
100
AcDbText
  0
TEXT
  5
116
330
1F
100
AcDbEntity
  8
22
 62
     2
100
AcDbText
 10
89.70000404999999
 20
13.40000211192093
 30
0.0
 40
0.8
  1
 
 41
0.9999999999999964
  7
dcStyle0
 72
     5
 11
90.50000404999999
 21
13.40000211192093
 31
0.0
100
AcDbText
  0
TEXT
  5
117
330
1F
100
AcDbEntity
  8
22
 62
     2
100
AcDbText
 10
90.50000406
 20
13.40000211192093
 30
0.0
 40
3.3
  1
Ｚ
 41
0.7575757575757576
  7
dcStyle0
 72
     5
 11
93.50000406
 21
13.40000211192093
 31
0.0
100
AcDbText
  0
TEXT
  5
118
330
1F
100
AcDbEntity
  8
22
 62
     2
100
AcDbText
 10
80.90000392000002
 20
8.40000204192093
 30
0.0
 40
3.0
  1
2
 41
0.8333333333333334
  7
dcStyle0
 72
     5
 11
83.40000392000002
 21
8.40000204192093
 31
0.0
100
AcDbText
  0
TEXT
  5
119
330
1F
100
AcDbEntity
  8
22
 62
     2
100
AcDbText
 10
83.40000395000001
 20
8.400002041920928
 30
0.0
 40
3.3
  1
Ｌ－Ｓ
 41
0.8333333352974188
  7
dcStyle0
 72
     5
 11
93.30000409000002
 21
8.400002041920928
 31
0.0
100
AcDbText
  0
TEXT
  5
11A
330
1F
100
AcDbEntity
  8
22
 62
     2
100
AcDbText
 10
94.90000413000001
 20
10.90000208192093
 30
0.0
 40
3.3
  1
＝
 41
0.7575757575757576
  7
dcStyle0
 72
     5
 11
97.90000413000001
 21
10.90000208192093
 31
0.0
100
AcDbText
  0
TEXT
  5
11B
330
1F
100
AcDbEntity
  8
22
 62
     2
100
AcDbText
 10
100.40000421
 20
13.40000211192093
 30
0.0
 40
3.0
  1
8
 41
0.8333333333333334
  7
dcStyle0
 72
     5
 11
102.90000421
 21
13.40000211192093
 31
0.0
100
AcDbText
  0
TEXT
  5
11C
330
1F
100
AcDbEntity
  8
22
 62
     2
100
AcDbText
 10
102.80000424
 20
13.40000211192093
 30
0.0
 40
3.3
  1
×
 41
0.8333333333333326
  7
dcStyle0
 72
     5
 11
106.10000424
 21
13.40000211192093
 31
0.0
100
AcDbText
  0
TEXT
  5
11D
330
1F
100
AcDbEntity
  8
22
 62
     2
100
AcDbText
 10
104.30000427
 20
13.40000211192093
 30
0.0
 40
3.0
  1
 12 
 41
0.8333333354166671
  7
dcStyle0
 72
     5
 11
114.30000442
 21
13.40000211192093
 31
0.0
100
AcDbText
  0
TEXT
  5
11E
330
1F
100
AcDbEntity
  8
22
 62
     2
100
AcDbText
 10
112.9500044
 20
13.40000211192093
 30
0.0
 40
3.3
  1
×Ｚ
 41
0.8583691005360198
  7
dcStyle0
 72
     5
 11
120.95000452
 21
13.40000211192093
 31
0.0
100
AcDbText
  0
TEXT
  5
11F
330
1F
100
AcDbEntity
  8
22
 62
     2
100
AcDbText
 10
100.40000421
 20
8.40000204192093
 30
0.0
 40
3.0
  1
2
 41
0.8333333333333334
  7
dcStyle0
 72
     5
 11
102.90000421
 21
8.40000204192093
 31
0.0
100
AcDbText
  0
TEXT
  5
120
330
1F
100
AcDbEntity
  8
22
 62
     2
100
AcDbText
 10
102.80000424
 20
8.400002041920928
 30
0.0
 40
3.3
  1
×
 41
0.8333333333333326
  7
dcStyle0
 72
     5
 11
106.10000424
 21
8.400002041920928
 31
0.0
100
AcDbText
  0
TEXT
  5
121
330
1F
100
AcDbEntity
  8
22
 62
     2
100
AcDbText
 10
104.30000427
 20
8.40000204192093
 30
0.0
 40
3.0
  1
 270 
 41
0.8333333355555557
  7
dcStyle0
 72
     5
 11
116.80000447
 21
8.40000204192093
 31
0.0
100
AcDbText
  0
TEXT
  5
122
330
1F
100
AcDbEntity
  8
22
 62
     2
100
AcDbText
 10
114.80000442
 20
8.400002041920928
 30
0.0
 40
3.3
  1
－
 41
0.6313131313131313
  7
dcStyle0
 72
     5
 11
117.30000442
 21
8.400002041920928
 31
0.0
100
AcDbText
  0
TEXT
  5
123
330
1F
100
AcDbEntity
  8
22
 62
     2
100
AcDbText
 10
116.30000445
 20
8.40000204192093
 30
0.0
 40
3.0
  1
 160 
 41
0.8333333355555547
  7
dcStyle0
 72
     5
 11
128.80000465
 21
8.40000204192093
 31
0.0
100
AcDbText
  0
TEXT
  5
124
330
1F
100
AcDbEntity
  8
22
 62
     2
100
AcDbText
 10
130.90000466
 20
10.90000208192093
 30
0.0
 40
3.3
  1
＝
 41
0.7575757575757576
  7
dcStyle0
 72
     5
 11
133.90000466
 21
10.90000208192093
 31
0.0
100
AcDbText
  0
TEXT
  5
125
330
1F
100
AcDbEntity
  8
22
 62
     2
100
AcDbText
 10
133.90000471
 20
10.90000208192093
 30
0.0
 40
3.0
  1
0.253
 41
0.8333333355555547
  7
dcStyle0
 72
     5
 11
146.40000491
 21
10.90000208192093
 31
0.0
100
AcDbText
  0
TEXT
  5
126
330
1F
100
AcDbEntity
  8
22
 62
     2
100
AcDbText
 10
146.05000489
 20
10.90000208192093
 30
0.0
 40
3.3
  1
×Ｚ
 41
0.8583691005360212
  7
dcStyle0
 72
     5
 11
154.05000501
 21
10.90000208192093
 31
0.0
100
AcDbText
  0
TEXT
  5
127
330
1F
100
AcDbEntity
  8
22
 62
     2
100
AcDbText
 10
69.90000375
 20
1.900001941920929
 30
0.0
 40
3.3
  1
Ｚ　＝　Ｎ〔Ｚ〕＝
 41
0.6313131346234511
  7
dcStyle0
 72
     5
 11
92.40000407
 21
1.900001941920929
 31
0.0
100
AcDbText
  0
TEXT
  5
128
330
1F
100
AcDbEntity
  8
22
 62
     2
100
AcDbText
 10
90.40000406000001
 20
1.900001941920929
 30
0.0
 40
3.0
  1
 8 
 41
0.8333333355555551
  7
dcStyle0
 72
     5
 11
97.90000418000001
 21
1.900001941920929
 31
0.0
100
AcDbText
  0
TEXT
  5
129
330
1F
100
AcDbEntity
  8
22
 62
     2
100
AcDbText
 10
95.90000414
 20
1.900001941920929
 30
0.0
 40
3.3
  1
×
 41
0.7575757575757576
  7
dcStyle0
 72
     5
 11
98.90000414
 21
1.900001941920929
 31
0.0
100
AcDbText
  0
TEXT
  5
12A
330
1F
100
AcDbEntity
  8
22
 62
     2
100
AcDbText
 10
98.90000419
 20
1.900001941920929
 30
0.0
 40
3.0
  1
0.644
 41
0.8333333355555557
  7
dcStyle0
 72
     5
 11
111.40000439
 21
1.900001941920929
 31
0.0
100
AcDbText
  0
TEXT
  5
12B
330
1F
100
AcDbEntity
  8
22
 62
     2
100
AcDbText
 10
111.30000437
 20
1.900001941920929
 30
0.0
 40
3.3
  1
×
 41
0.8333333333333326
  7
dcStyle0
 72
     5
 11
114.60000437
 21
1.900001941920929
 31
0.0
100
AcDbText
  0
TEXT
  5
12C
330
1F
100
AcDbEntity
  8
22
 62
     2
100
AcDbText
 10
114.80000442
 20
1.900001941920929
 30
0.0
 40
3.0
  1
10
 41
0.8333333352777776
  7
dcStyle0
 72
     5
 11
119.80000449
 21
1.900001941920929
 31
0.0
100
AcDbText
  0
TEXT
  5
12D
330
1F
100
AcDbEntity
  8
22
 62
     2
100
AcDbText
 10
119.8000045
 20
3.900001971920929
 30
0.0
 40
1.8
  1
3
 41
0.8333333333333333
  7
dcStyle0
 72
     5
 11
121.3000045
 21
3.900001971920929
 31
0.0
100
AcDbText
  0
TEXT
  5
12E
330
1F
100
AcDbEntity
  8
22
 62
     2
100
AcDbText
 10
122.30000453
 20
1.900001941920929
 30
0.0
 40
3.0
  1
=
  7
dcStyle0
 72
     5
 11
125.30000453
 21
1.900001941920929
 31
0.0
100
AcDbText
  0
TEXT
  5
12F
330
1F
100
AcDbEntity
  8
22
 62
     2
100
AcDbText
 10
125.30000458
 20
1.900001941920929
 30
0.0
 40
3.0
  1
5.15
 41
0.8333333354166671
  7
dcStyle0
 72
     5
 11
135.30000473
 21
1.900001941920929
 31
0.0
100
AcDbText
  0
TEXT
  5
130
330
1F
100
AcDbEntity
  8
22
 62
     2
100
AcDbText
 10
135.20000473
 20
1.900001941920929
 30
0.0
 40
3.3
  1
×
 41
0.8333333333333363
  7
dcStyle0
 72
     5
 11
138.50000473
 21
1.900001941920929
 31
0.0
100
AcDbText
  0
TEXT
  5
131
330
1F
100
AcDbEntity
  8
22
 62
     2
100
AcDbText
 10
138.70000478
 20
1.900001941920929
 30
0.0
 40
3.0
  1
10
 41
0.8333333352777776
  7
dcStyle0
 72
     5
 11
143.70000485
 21
1.900001941920929
 31
0.0
100
AcDbText
  0
TEXT
  5
132
330
1F
100
AcDbEntity
  8
22
 62
     2
100
AcDbText
 10
143.70000485
 20
3.900001971920929
 30
0.0
 40
1.8
  1
3
 41
0.8333333333333333
  7
dcStyle0
 72
     5
 11
145.20000485
 21
3.900001971920929
 31
0.0
100
AcDbText
  0
TEXT
  5
133
330
1F
100
AcDbEntity
  8
22
 62
     2
100
AcDbText
 10
64.90000368
 20
-5.099998158079071
 30
0.0
 40
3.3
  1
∴　Ｗ　＝
 41
0.6313131350372412
  7
dcStyle0
 72
     5
 11
77.40000388
 21
-5.099998158079071
 31
0.0
100
AcDbText
  0
TEXT
  5
134
330
1F
100
AcDbEntity
  8
22
 62
     2
100
AcDbText
 10
77.40000387
 20
-5.099998158079071
 30
0.0
 40
3.0
  1
 0.253
 41
0.8333333351851854
  7
dcStyle0
 72
     5
 11
92.40000407000001
 21
-5.099998158079071
 31
0.0
100
AcDbText
  0
TEXT
  5
135
330
1F
100
AcDbEntity
  8
22
 62
     2
100
AcDbText
 10
92.30000408999999
 20
-5.099998158079071
 30
0.0
 40
3.3
  1
×
 41
0.8333333333333326
  7
dcStyle0
 72
     5
 11
95.60000408999998
 21
-5.099998158079071
 31
0.0
100
AcDbText
  0
TEXT
  5
136
330
1F
100
AcDbEntity
  8
22
 62
     2
100
AcDbText
 10
95.80000414
 20
-5.099998158079071
 30
0.0
 40
3.0
  1
5.15
 41
0.8333333354166671
  7
dcStyle0
 72
     5
 11
105.80000429
 21
-5.099998158079071
 31
0.0
100
AcDbText
  0
TEXT
  5
137
330
1F
100
AcDbEntity
  8
22
 62
     2
100
AcDbText
 10
105.70000429
 20
-5.099998158079071
 30
0.0
 40
3.3
  1
×
 41
0.8333333333333326
  7
dcStyle0
 72
     5
 11
109.00000429
 21
-5.099998158079071
 31
0.0
100
AcDbText
  0
TEXT
  5
138
330
1F
100
AcDbEntity
  8
22
 62
     2
100
AcDbText
 10
109.20000434
 20
-5.099998158079071
 30
0.0
 40
3.0
  1
10
 41
0.8333333352777776
  7
dcStyle0
 72
     5
 11
114.20000441
 21
-5.099998158079071
 31
0.0
100
AcDbText
  0
TEXT
  5
139
330
1F
100
AcDbEntity
  8
22
 62
     2
100
AcDbText
 10
114.20000441
 20
-3.099998128079071
 30
0.0
 40
1.8
  1
3
 41
0.8333333333333333
  7
dcStyle0
 72
     5
 11
115.70000441
 21
-3.099998128079071
 31
0.0
100
AcDbText
  0
TEXT
  5
13A
330
1F
100
AcDbEntity
  8
22
 62
     2
100
AcDbText
 10
116.70000445
 20
-5.099998158079071
 30
0.0
 40
3.0
  1
=
  7
dcStyle0
 72
     5
 11
119.70000445
 21
-5.099998158079071
 31
0.0
100
AcDbText
  0
TEXT
  5
13B
330
1F
100
AcDbEntity
  8
22
 62
     2
100
AcDbText
 10
119.7000045
 20
-5.099998158079071
 30
0.0
 40
3.0
  1
1.30
 41
0.8333333354166671
  7
dcStyle0
 72
     5
 11
129.70000465
 21
-5.099998158079071
 31
0.0
100
AcDbText
  0
TEXT
  5
13C
330
1F
100
AcDbEntity
  8
22
 62
     2
100
AcDbText
 10
129.60000464
 20
-5.099998158079071
 30
0.0
 40
3.3
  1
×
 41
0.8333333333333363
  7
dcStyle0
 72
     5
 11
132.90000464
 21
-5.099998158079071
 31
0.0
100
AcDbText
  0
TEXT
  5
13D
330
1F
100
AcDbEntity
  8
22
 62
     2
100
AcDbText
 10
133.1000047
 20
-5.099998158079071
 30
0.0
 40
3.0
  1
10
 41
0.8333333352777776
  7
dcStyle0
 72
     5
 11
138.10000477
 21
-5.099998158079071
 31
0.0
100
AcDbText
  0
TEXT
  5
13E
330
1F
100
AcDbEntity
  8
22
 62
     2
100
AcDbText
 10
138.10000477
 20
-3.099998128079071
 30
0.0
 40
1.8
  1
3
 41
0.8333333333333333
  7
dcStyle0
 72
     5
 11
139.60000477
 21
-3.099998128079071
 31
0.0
100
AcDbText
  0
TEXT
  5
13F
330
1F
100
AcDbEntity
  8
22
 62
     2
100
AcDbText
 10
140.60000481
 20
-5.099998158079071
 30
0.0
 40
3.0
  1
(Kg)
 41
0.8333333354166671
  7
dcStyle0
 72
     5
 11
150.60000496
 21
-5.099998158079071
 31
0.0
100
AcDbText
  0
TEXT
  5
140
330
1F
100
AcDbEntity
  8
22
 62
     2
100
AcDbText
 10
69.90000375
 20
-12.09999826807907
 30
0.0
 40
3.3
  1
Ｔ
 41
0.6313131313131313
  7
dcStyle0
 72
     5
 11
72.40000375
 21
-12.09999826807907
 31
0.0
100
AcDbText
  0
TEXT
  5
141
330
1F
100
AcDbEntity
  8
22
 62
     2
100
AcDbText
 10
72.40000379000001
 20
-12.09999826807907
 30
0.0
 40
3.0
  1
 = 0
 41
0.8333333354166671
  7
dcStyle0
 72
     5
 11
82.40000394000002
 21
-12.09999826807907
 31
0.0
100
AcDbText
  0
TEXT
  5
142
330
1F
100
AcDbEntity
  8
22
 62
     2
100
AcDbText
 10
79.9000039
 20
-12.09999826807907
 30
0.0
 40
3.0
  1
 .4 
 41
0.8333333354166671
  7
dcStyle0
 72
     5
 11
89.90000405
 21
-12.09999826807907
 31
0.0
100
AcDbText
  0
TEXT
  5
143
330
1F
100
AcDbEntity
  8
22
 62
     2
100
AcDbText
 10
87.40000401
 20
-10.09999823807907
 30
0.0
 40
1.8
  1
-1
 41
0.833333335185186
  7
dcStyle0
 72
     5
 11
90.40000405
 21
-10.09999823807907
 31
0.0
100
AcDbText
  0
TEXT
  5
144
330
1F
100
AcDbEntity
  8
22
 62
     2
100
AcDbText
 10
91.30000407
 20
-12.09999826807907
 30
0.0
 40
3.3
  1
×
 41
0.8333333333333326
  7
dcStyle0
 72
     5
 11
94.60000407
 21
-12.09999826807907
 31
0.0
100
AcDbText
  0
TEXT
  5
145
330
1F
100
AcDbEntity
  8
22
 62
     2
100
AcDbText
 10
94.80000412
 20
-12.09999826807907
 30
0.0
 40
3.0
  1
10
 41
0.8333333352777776
  7
dcStyle0
 72
     5
 11
99.80000419
 21
-12.09999826807907
 31
0.0
100
AcDbText
  0
TEXT
  5
146
330
1F
100
AcDbEntity
  8
22
 62
     2
100
AcDbText
 10
99.8000042
 20
-10.09999823807907
 30
0.0
 40
1.8
  1
-3
 41
0.833333335185186
  7
dcStyle0
 72
     5
 11
102.80000424
 21
-10.09999823807907
 31
0.0
100
AcDbText
  0
TEXT
  5
147
330
1F
100
AcDbEntity
  8
22
 62
     2
100
AcDbText
 10
103.70000426
 20
-12.09999826807907
 30
0.0
 40
3.3
  1
×Ｗ
 41
0.8413461557530504
  7
dcStyle0
 72
     5
 11
110.70000436
 21
-12.09999826807907
 31
0.0
100
AcDbText
  0
TEXT
  5
148
330
1F
100
AcDbEntity
  8
22
 62
     2
100
AcDbText
 10
69.90000375
 20
-17.09999833807908
 30
0.0
 40
3.0
  1
  = 0
 41
0.8333333355555557
  7
dcStyle0
 72
     5
 11
82.40000395
 21
-17.09999833807908
 31
0.0
100
AcDbText
  0
TEXT
  5
149
330
1F
100
AcDbEntity
  8
22
 62
     2
100
AcDbText
 10
79.9000039
 20
-17.09999833807908
 30
0.0
 40
3.0
  1
 .4 
 41
0.8333333354166671
  7
dcStyle0
 72
     5
 11
89.90000405
 21
-17.09999833807908
 31
0.0
100
AcDbText
  0
TEXT
  5
14A
330
1F
100
AcDbEntity
  8
22
 62
     2
100
AcDbText
 10
87.40000401
 20
-15.09999830807907
 30
0.0
 40
1.8
  1
-1
 41
0.833333335185186
  7
dcStyle0
 72
     5
 11
90.40000405
 21
-15.09999830807907
 31
0.0
100
AcDbText
  0
TEXT
  5
14B
330
1F
100
AcDbEntity
  8
22
 62
     2
100
AcDbText
 10
91.30000407
 20
-17.09999833807907
 30
0.0
 40
3.3
  1
×
 41
0.8333333333333326
  7
dcStyle0
 72
     5
 11
94.60000407
 21
-17.09999833807907
 31
0.0
100
AcDbText
  0
TEXT
  5
14C
330
1F
100
AcDbEntity
  8
22
 62
     2
100
AcDbText
 10
94.80000412
 20
-17.09999833807908
 30
0.0
 40
3.0
  1
10
 41
0.8333333352777776
  7
dcStyle0
 72
     5
 11
99.80000419
 21
-17.09999833807908
 31
0.0
100
AcDbText
  0
TEXT
  5
14D
330
1F
100
AcDbEntity
  8
22
 62
     2
100
AcDbText
 10
99.8000042
 20
-15.09999830807907
 30
0.0
 40
1.8
  1
-3
 41
0.833333335185186
  7
dcStyle0
 72
     5
 11
102.80000424
 21
-15.09999830807907
 31
0.0
100
AcDbText
  0
TEXT
  5
14E
330
1F
100
AcDbEntity
  8
22
 62
     2
100
AcDbText
 10
103.70000426
 20
-17.09999833807907
 30
0.0
 40
3.3
  1
×
 41
0.8333333333333326
  7
dcStyle0
 72
     5
 11
107.00000426
 21
-17.09999833807907
 31
0.0
100
AcDbText
  0
TEXT
  5
14F
330
1F
100
AcDbEntity
  8
22
 62
     2
100
AcDbText
 10
107.20000431
 20
-17.09999833807908
 30
0.0
 40
3.0
  1
1.30
 41
0.8333333354166671
  7
dcStyle0
 72
     5
 11
117.20000446
 21
-17.09999833807908
 31
0.0
100
AcDbText
  0
TEXT
  5
150
330
1F
100
AcDbEntity
  8
22
 62
     2
100
AcDbText
 10
117.10000446
 20
-17.09999833807907
 30
0.0
 40
3.3
  1
×
 41
0.8333333333333326
  7
dcStyle0
 72
     5
 11
120.40000446
 21
-17.09999833807907
 31
0.0
100
AcDbText
  0
TEXT
  5
151
330
1F
100
AcDbEntity
  8
22
 62
     2
100
AcDbText
 10
120.60000451
 20
-17.09999833807908
 30
0.0
 40
3.0
  1
10
 41
0.8333333352777776
  7
dcStyle0
 72
     5
 11
125.60000458
 21
-17.09999833807908
 31
0.0
100
AcDbText
  0
TEXT
  5
152
330
1F
100
AcDbEntity
  8
22
 62
     2
100
AcDbText
 10
125.60000458
 20
-15.09999830807907
 30
0.0
 40
1.8
  1
3
 41
0.8333333333333333
  7
dcStyle0
 72
     5
 11
127.10000458
 21
-15.09999830807907
 31
0.0
100
AcDbText
  0
TEXT
  5
153
330
1F
100
AcDbEntity
  8
22
 62
     2
100
AcDbText
 10
69.90000375
 20
-22.09999841807907
 30
0.0
 40
3.0
  1
  =
 41
0.8333333355555551
  7
dcStyle0
 72
     5
 11
77.40000386999999
 21
-22.09999841807907
 31
0.0
100
AcDbText
  0
TEXT
  5
154
330
1F
100
AcDbEntity
  8
22
 62
     2
100
AcDbText
 10
77.40000387
 20
-22.09999841807907
 30
0.0
 40
3.0
  1
 3.2
 41
0.8333333354166671
  7
dcStyle0
 72
     5
 11
87.40000402000001
 21
-22.09999841807907
 31
0.0
100
AcDbText
  0
TEXT
  5
155
330
1F
100
AcDbEntity
  8
22
 62
     2
100
AcDbText
 10
89.90000405
 20
-22.09999841807907
 30
0.0
 40
3.0
  1
>
  7
dcStyle0
 72
     5
 11
92.90000405
 21
-22.09999841807907
 31
0.0
100
AcDbText
  0
TEXT
  5
156
330
1F
100
AcDbEntity
  8
22
 62
     2
100
AcDbText
 10
92.9000041
 20
-22.09999841807907
 30
0.0
 40
3.0
  1
 2 
 41
0.8333333355555551
  7
dcStyle0
 72
     5
 11
100.40000422
 21
-22.09999841807907
 31
0.0
100
AcDbText
  0
TEXT
  5
157
330
1F
100
AcDbEntity
  8
22
 62
     2
100
AcDbText
 10
84.80000398000001
 20
-58.09999894807907
 30
0.0
 40
3.3
  1
以上より　
 41
0.8413461559818785
  7
dcStyle0
 72
     5
 11
102.30000426
 21
-58.09999894807907
 31
0.0
100
AcDbText
  0
TEXT
  5
158
330
1F
100
AcDbEntity
  8
22
 62
     2
100
AcDbText
 10
102.30000424
 20
-58.09999894807907
 30
0.0
 40
3.5
  1
Ｔ－
 41
0.8333333353174596
  7
dcStyle0
 72
     5
 11
109.30000434
 21
-58.09999894807907
 31
0.0
100
AcDbText
  0
TEXT
  5
159
330
1F
100
AcDbEntity
  8
22
 62
     2
100
AcDbText
 10
109.30000434
 20
-58.09999894807907
 30
0.0
 40
3.0
  1
 2 
 41
0.8333333355555551
  7
dcStyle0
 72
     5
 11
116.80000446
 21
-58.09999894807907
 31
0.0
100
AcDbText
  0
TEXT
  5
15A
330
1F
100
AcDbEntity
  8
22
 62
     2
100
AcDbText
 10
116.70000445
 20
-58.09999894807907
 30
0.0
 40
3.3
  1
となる
 41
0.8413461558801774
  7
dcStyle0
 72
     5
 11
127.20000461
 21
-58.09999894807907
 31
0.0
100
AcDbText
  0
TEXT
  5
15B
330
1F
100
AcDbEntity
  8
22
 62
     2
100
AcDbText
 10
24.90000308
 20
-77.69999923807907
 30
0.0
 40
3.0
  1
本体重量：
 41
0.6944444478395061
  7
dcStyle0
 72
     5
 11
37.40000328
 21
-77.69999923807907
 31
0.0
100
AcDbText
  0
TEXT
  5
15C
330
1F
100
AcDbEntity
  8
22
 62
     2
100
AcDbText
 10
37.40000327000001
 20
-77.69999923807907
 30
0.0
 40
3.0
  1
 13.0
 41
0.666666670222222
  7
dcStyle0
 72
     5
 11
47.40000343000001
 21
-77.69999923807907
 31
0.0
100
AcDbText
  0
TEXT
  5
15D
330
1F
100
AcDbEntity
  8
22
 62
     2
100
AcDbText
 10
47.40000342
 20
-77.69999923807907
 30
0.0
 40
3.0
  1
Kg
 41
0.6666666699999997
  7
dcStyle0
 72
     5
 11
51.40000348
 21
-77.69999923807907
 31
0.0
100
AcDbText
  0
TEXT
  5
15E
330
1F
100
AcDbEntity
  8
22
 62
     2
100
AcDbText
 10
-98.14999875000001
 20
-89.19999941807907
 30
0.0
 40
3.0
  1
 480 
 41
0.8333333355555557
  7
dcStyle0
 72
     5
 11
-85.64999855
 21
-89.19999941807907
 31
0.0
100
AcDbText
  0
LINE
  5
15F
330
1F
100
AcDbEntity
  8
16
  6
Continuous
 62
     3
370
    25
100
AcDbLine
 10
-182.0
 20
-128.5
 30
0.0
 11
-178.9999999552965
 21
-128.5
 31
0.0
  0
LINE
  5
160
330
1F
100
AcDbEntity
  8
16
  6
Continuous
 62
     3
370
    25
100
AcDbLine
 10
-178.9999999552965
 20
-128.5
 30
0.0
 11
-178.9999999552965
 21
-125.4999999552965
 31
0.0
  0
LINE
  5
161
330
1F
100
AcDbEntity
  8
16
  6
Continuous
 62
     3
370
    25
100
AcDbLine
 10
-182.0
 20
-125.4999999552965
 30
0.0
 11
-178.9999999552965
 21
-125.4999999552965
 31
0.0
  0
LINE
  5
162
330
1F
100
AcDbEntity
  8
16
  6
Continuous
 62
     3
370
    25
100
AcDbLine
 10
-182.0
 20
-128.5
 30
0.0
 11
-182.0
 21
-125.4999999552965
 31
0.0
  0
LINE
  5
163
330
1F
100
AcDbEntity
  8
16
  6
Continuous
 62
     3
370
    25
100
AcDbLine
 10
-182.0
 20
-128.5
 30
0.0
 11
-178.9999999552965
 21
-128.5
 31
0.0
  0
LINE
  5
164
330
1F
100
AcDbEntity
  8
16
  6
Continuous
 62
     3
370
    25
100
AcDbLine
 10
-178.9999999552965
 20
-128.5
 30
0.0
 11
-178.9999999552965
 21
-125.4999999552965
 31
0.0
  0
LINE
  5
165
330
1F
100
AcDbEntity
  8
16
  6
Continuous
 62
     3
370
    25
100
AcDbLine
 10
-182.0
 20
-125.4999999552965
 30
0.0
 11
-178.9999999552965
 21
-125.4999999552965
 31
0.0
  0
LINE
  5
166
330
1F
100
AcDbEntity
  8
16
  6
Continuous
 62
     3
370
    25
100
AcDbLine
 10
-182.0
 20
-128.5
 30
0.0
 11
-182.0
 21
-125.4999999552965
 31
0.0
  0
LINE
  5
167
330
1F
100
AcDbEntity
  8
16
  6
Continuous
 62
     3
370
    25
100
AcDbLine
 10
-182.0
 20
-128.5
 30
0.0
 11
-178.9999999552965
 21
-128.5
 31
0.0
  0
LINE
  5
168
330
1F
100
AcDbEntity
  8
16
  6
Continuous
 62
     3
370
    25
100
AcDbLine
 10
-178.9999999552965
 20
-128.5
 30
0.0
 11
-178.9999999552965
 21
-125.4999999552965
 31
0.0
  0
LINE
  5
169
330
1F
100
AcDbEntity
  8
16
  6
Continuous
 62
     3
370
    25
100
AcDbLine
 10
-182.0
 20
-125.4999999552965
 30
0.0
 11
-178.9999999552965
 21
-125.4999999552965
 31
0.0
  0
LINE
  5
16A
330
1F
100
AcDbEntity
  8
16
  6
Continuous
 62
     3
370
    25
100
AcDbLine
 10
-182.0
 20
-128.5
 30
0.0
 11
-182.0
 21
-125.4999999552965
 31
0.0
  0
LINE
  5
16B
330
1F
100
AcDbEntity
  8
16
  6
Continuous
 62
     3
370
    25
100
AcDbLine
 10
-182.0
 20
-128.5
 30
0.0
 11
-178.9999999552965
 21
-128.5
 31
0.0
  0
LINE
  5
16C
330
1F
100
AcDbEntity
  8
16
  6
Continuous
 62
     3
370
    25
100
AcDbLine
 10
-178.9999999552965
 20
-128.5
 30
0.0
 11
-178.9999999552965
 21
-125.4999999552965
 31
0.0
  0
LINE
  5
16D
330
1F
100
AcDbEntity
  8
16
  6
Continuous
 62
     3
370
    25
100
AcDbLine
 10
-182.0
 20
-125.4999999552965
 30
0.0
 11
-178.9999999552965
 21
-125.4999999552965
 31
0.0
  0
LINE
  5
16E
330
1F
100
AcDbEntity
  8
16
  6
Continuous
 62
     3
370
    25
100
AcDbLine
 10
-182.0
 20
-128.5
 30
0.0
 11
-182.0
 21
-125.4999999552965
 31
0.0
  0
LINE
  5
16F
330
1F
100
AcDbEntity
  8
16
  6
Continuous
 62
     3
370
    25
100
AcDbLine
 10
-182.0
 20
-128.5
 30
0.0
 11
-178.9999999552965
 21
-128.5
 31
0.0
  0
LINE
  5
170
330
1F
100
AcDbEntity
  8
16
  6
Continuous
 62
     3
370
    25
100
AcDbLine
 10
-178.9999999552965
 20
-128.5
 30
0.0
 11
-178.9999999552965
 21
-125.4999999552965
 31
0.0
  0
LINE
  5
171
330
1F
100
AcDbEntity
  8
16
  6
Continuous
 62
     3
370
    25
100
AcDbLine
 10
-182.0
 20
-125.4999999552965
 30
0.0
 11
-178.9999999552965
 21
-125.4999999552965
 31
0.0
  0
LINE
  5
172
330
1F
100
AcDbEntity
  8
16
  6
Continuous
 62
     3
370
    25
100
AcDbLine
 10
-182.0
 20
-128.5
 30
0.0
 11
-182.0
 21
-125.4999999552965
 31
0.0
  0
LINE
  5
173
330
1F
100
AcDbEntity
  8
16
  6
Continuous
 62
     3
370
    25
100
AcDbLine
 10
-141.499999396503
 20
52.40000269562006
 30
0.0
 11
-42.69999792426825
 21
52.40000269562006
 31
0.0
  0
LINE
  5
174
330
1F
100
AcDbEntity
  8
16
  6
Continuous
 62
     3
370
    25
100
AcDbLine
 10
-42.69999792426825
 20
51.50000268220901
 30
0.0
 11
-42.69999792426825
 21
52.40000269562006
 31
0.0
  0
LINE
  5
175
330
1F
100
AcDbEntity
  8
16
  6
Continuous
 62
     3
370
    25
100
AcDbLine
 10
-141.499999396503
 20
51.50000268220901
 30
0.0
 11
-42.69999792426825
 21
51.50000268220901
 31
0.0
  0
LINE
  5
176
330
1F
100
AcDbEntity
  8
16
  6
Continuous
 62
     3
370
    25
100
AcDbLine
 10
-141.499999396503
 20
51.50000268220901
 30
0.0
 11
-141.499999396503
 21
52.40000269562006
 31
0.0
  0
LINE
  5
177
330
1F
100
AcDbEntity
  8
16
  6
Continuous
 62
     3
370
    25
100
AcDbLine
 10
-141.499999396503
 20
-18.6999983638525
 30
0.0
 11
-42.69999792426825
 21
-18.6999983638525
 31
0.0
  0
LINE
  5
178
330
1F
100
AcDbEntity
  8
16
  6
Continuous
 62
     3
370
    25
100
AcDbLine
 10
-42.69999792426825
 20
-19.59999837726355
 30
0.0
 11
-42.69999792426825
 21
-18.6999983638525
 31
0.0
  0
LINE
  5
179
330
1F
100
AcDbEntity
  8
16
  6
Continuous
 62
     3
370
    25
100
AcDbLine
 10
-141.499999396503
 20
-19.59999837726355
 30
0.0
 11
-42.69999792426825
 21
-19.59999837726355
 31
0.0
  0
LINE
  5
17A
330
1F
100
AcDbEntity
  8
16
  6
Continuous
 62
     3
370
    25
100
AcDbLine
 10
-141.499999396503
 20
-19.59999837726355
 30
0.0
 11
-141.499999396503
 21
-18.6999983638525
 31
0.0
  0
LINE
  5
17B
330
1F
100
AcDbEntity
  8
16
  6
Continuous
 62
     3
370
    25
100
AcDbLine
 10
-137.4999993368983
 20
36.90000246465206
 30
0.0
 11
-135.919999294281
 21
36.90000246465206
 31
0.0
  0
LINE
  5
17C
330
1F
100
AcDbEntity
  8
16
  6
Continuous
 62
     3
370
    25
100
AcDbLine
 10
-131.920000474453
 20
36.90000246465206
 30
0.0
 11
-130.3400004318357
 21
36.90000246465206
 31
0.0
  0
LINE
  5
17D
330
1F
100
AcDbEntity
  8
16
  6
Continuous
 62
     3
370
    25
100
AcDbLine
 10
-126.3400016120076
 20
36.90000246465206
 30
0.0
 11
-124.7600015693903
 21
36.90000246465206
 31
0.0
  0
LINE
  5
17E
330
1F
100
AcDbEntity
  8
16
  6
Continuous
 62
     3
370
    25
100
AcDbLine
 10
-120.7599966460466
 20
36.90000246465206
 30
0.0
 11
-119.1799966034293
 21
36.90000246465206
 31
0.0
  0
LINE
  5
17F
330
1F
100
AcDbEntity
  8
16
  6
Continuous
 62
     3
370
    25
100
AcDbLine
 10
-115.1799977836013
 20
36.90000246465206
 30
0.0
 11
-113.5999977409839
 21
36.90000246465206
 31
0.0
  0
LINE
  5
180
330
1F
100
AcDbEntity
  8
16
  6
Continuous
 62
     3
370
    25
100
AcDbLine
 10
-109.5999989211559
 20
36.90000246465206
 30
0.0
 11
-108.0199988785386
 21
36.90000246465206
 31
0.0
  0
LINE
  5
181
330
1F
100
AcDbEntity
  8
16
  6
Continuous
 62
     3
370
    25
100
AcDbLine
 10
-104.0200000587106
 20
36.90000246465206
 30
0.0
 11
-102.4400000160933
 21
36.90000246465206
 31
0.0
  0
LINE
  5
182
330
1F
100
AcDbEntity
  8
16
  6
Continuous
 62
     3
370
    25
100
AcDbLine
 10
-98.44000119626526
 20
36.90000246465206
 30
0.0
 11
-96.86000115364794
 21
36.90000246465206
 31
0.0
  0
LINE
  5
183
330
1F
100
AcDbEntity
  8
16
  6
Continuous
 62
     3
370
    25
100
AcDbLine
 10
-92.8599962303042
 20
36.90000246465206
 30
0.0
 11
-91.27999618768689
 21
36.90000246465206
 31
0.0
  0
LINE
  5
184
330
1F
100
AcDbEntity
  8
16
  6
Continuous
 62
     3
370
    25
100
AcDbLine
 10
-87.27999736785887
 20
36.90000246465206
 30
0.0
 11
-85.69999732524155
 21
36.90000246465206
 31
0.0
  0
LINE
  5
185
330
1F
100
AcDbEntity
  8
16
  6
Continuous
 62
     3
370
    25
100
AcDbLine
 10
-81.69999850541353
 20
36.90000246465206
 30
0.0
 11
-80.11999846279622
 21
36.90000246465206
 31
0.0
  0
LINE
  5
186
330
1F
100
AcDbEntity
  8
16
  6
Continuous
 62
     3
370
    25
100
AcDbLine
 10
-76.11999353945248
 20
36.90000246465206
 30
0.0
 11
-74.53999349683517
 21
36.90000246465206
 31
0.0
  0
LINE
  5
187
330
1F
100
AcDbEntity
  8
16
  6
Continuous
 62
     3
370
    25
100
AcDbLine
 10
-70.54000078052286
 20
36.90000246465206
 30
0.0
 11
-68.96000073790555
 21
36.90000246465206
 31
0.0
  0
LINE
  5
188
330
1F
100
AcDbEntity
  8
16
  6
Continuous
 62
     3
370
    25
100
AcDbLine
 10
-64.95999581456181
 20
36.90000246465206
 30
0.0
 11
-63.37999577194449
 21
36.90000246465206
 31
0.0
  0
LINE
  5
189
330
1F
100
AcDbEntity
  8
16
  6
Continuous
 62
     3
370
    25
100
AcDbLine
 10
-59.38000305563219
 20
36.90000246465206
 30
0.0
 11
-57.80000301301487
 21
36.90000246465206
 31
0.0
  0
LINE
  5
18A
330
1F
100
AcDbEntity
  8
16
  6
Continuous
 62
     3
370
    25
100
AcDbLine
 10
-53.79999808967113
 20
36.90000246465206
 30
0.0
 11
-52.21999804705381
 21
36.90000246465206
 31
0.0
  0
LINE
  5
18B
330
1F
100
AcDbEntity
  8
16
  6
Continuous
 62
     3
370
    25
100
AcDbLine
 10
-48.21999312371008
 20
36.90000246465206
 30
0.0
 11
-46.63999308109277
 21
36.90000246465206
 31
0.0
  0
LINE
  5
18C
330
1F
100
AcDbEntity
  8
16
  6
Continuous
 62
     3
370
    25
100
AcDbLine
 10
-137.4999993368983
 20
35.9000024497509
 30
0.0
 11
-135.919999294281
 21
35.9000024497509
 31
0.0
  0
LINE
  5
18D
330
1F
100
AcDbEntity
  8
16
  6
Continuous
 62
     3
370
    25
100
AcDbLine
 10
-131.920000474453
 20
35.9000024497509
 30
0.0
 11
-130.3400004318357
 21
35.9000024497509
 31
0.0
  0
LINE
  5
18E
330
1F
100
AcDbEntity
  8
16
  6
Continuous
 62
     3
370
    25
100
AcDbLine
 10
-126.3400016120076
 20
35.9000024497509
 30
0.0
 11
-124.7600015693903
 21
35.9000024497509
 31
0.0
  0
LINE
  5
18F
330
1F
100
AcDbEntity
  8
16
  6
Continuous
 62
     3
370
    25
100
AcDbLine
 10
-120.7599966460466
 20
35.9000024497509
 30
0.0
 11
-119.1799966034293
 21
35.9000024497509
 31
0.0
  0
LINE
  5
190
330
1F
100
AcDbEntity
  8
16
  6
Continuous
 62
     3
370
    25
100
AcDbLine
 10
-115.1799977836013
 20
35.9000024497509
 30
0.0
 11
-113.5999977409839
 21
35.9000024497509
 31
0.0
  0
LINE
  5
191
330
1F
100
AcDbEntity
  8
16
  6
Continuous
 62
     3
370
    25
100
AcDbLine
 10
-109.5999989211559
 20
35.9000024497509
 30
0.0
 11
-108.0199988785386
 21
35.9000024497509
 31
0.0
  0
LINE
  5
192
330
1F
100
AcDbEntity
  8
16
  6
Continuous
 62
     3
370
    25
100
AcDbLine
 10
-104.0200000587106
 20
35.9000024497509
 30
0.0
 11
-102.4400000160933
 21
35.9000024497509
 31
0.0
  0
LINE
  5
193
330
1F
100
AcDbEntity
  8
16
  6
Continuous
 62
     3
370
    25
100
AcDbLine
 10
-98.44000119626526
 20
35.9000024497509
 30
0.0
 11
-96.86000115364794
 21
35.9000024497509
 31
0.0
  0
LINE
  5
194
330
1F
100
AcDbEntity
  8
16
  6
Continuous
 62
     3
370
    25
100
AcDbLine
 10
-92.8599962303042
 20
35.9000024497509
 30
0.0
 11
-91.27999618768689
 21
35.9000024497509
 31
0.0
  0
LINE
  5
195
330
1F
100
AcDbEntity
  8
16
  6
Continuous
 62
     3
370
    25
100
AcDbLine
 10
-87.27999736785887
 20
35.9000024497509
 30
0.0
 11
-85.69999732524155
 21
35.9000024497509
 31
0.0
  0
LINE
  5
196
330
1F
100
AcDbEntity
  8
16
  6
Continuous
 62
     3
370
    25
100
AcDbLine
 10
-81.69999850541353
 20
35.9000024497509
 30
0.0
 11
-80.11999846279622
 21
35.9000024497509
 31
0.0
  0
LINE
  5
197
330
1F
100
AcDbEntity
  8
16
  6
Continuous
 62
     3
370
    25
100
AcDbLine
 10
-76.11999353945248
 20
35.9000024497509
 30
0.0
 11
-74.53999349683517
 21
35.9000024497509
 31
0.0
  0
LINE
  5
198
330
1F
100
AcDbEntity
  8
16
  6
Continuous
 62
     3
370
    25
100
AcDbLine
 10
-70.54000078052286
 20
35.9000024497509
 30
0.0
 11
-68.96000073790555
 21
35.9000024497509
 31
0.0
  0
LINE
  5
199
330
1F
100
AcDbEntity
  8
16
  6
Continuous
 62
     3
370
    25
100
AcDbLine
 10
-64.95999581456181
 20
35.9000024497509
 30
0.0
 11
-63.37999577194449
 21
35.9000024497509
 31
0.0
  0
LINE
  5
19A
330
1F
100
AcDbEntity
  8
16
  6
Continuous
 62
     3
370
    25
100
AcDbLine
 10
-59.38000305563219
 20
35.9000024497509
 30
0.0
 11
-57.80000301301487
 21
35.9000024497509
 31
0.0
  0
LINE
  5
19B
330
1F
100
AcDbEntity
  8
16
  6
Continuous
 62
     3
370
    25
100
AcDbLine
 10
-53.79999808967113
 20
35.9000024497509
 30
0.0
 11
-52.21999804705381
 21
35.9000024497509
 31
0.0
  0
LINE
  5
19C
330
1F
100
AcDbEntity
  8
16
  6
Continuous
 62
     3
370
    25
100
AcDbLine
 10
-48.21999312371008
 20
35.9000024497509
 30
0.0
 11
-46.63999308109277
 21
35.9000024497509
 31
0.0
  0
LINE
  5
19D
330
1F
100
AcDbEntity
  8
16
  6
Continuous
 62
     3
370
    25
100
AcDbLine
 10
-137.4999993368983
 20
16.90000216662884
 30
0.0
 11
-135.919999294281
 21
16.90000216662884
 31
0.0
  0
LINE
  5
19E
330
1F
100
AcDbEntity
  8
16
  6
Continuous
 62
     3
370
    25
100
AcDbLine
 10
-131.920000474453
 20
16.90000216662884
 30
0.0
 11
-130.3400004318357
 21
16.90000216662884
 31
0.0
  0
LINE
  5
19F
330
1F
100
AcDbEntity
  8
16
  6
Continuous
 62
     3
370
    25
100
AcDbLine
 10
-126.3400016120076
 20
16.90000216662884
 30
0.0
 11
-124.7600015693903
 21
16.90000216662884
 31
0.0
  0
LINE
  5
1A0
330
1F
100
AcDbEntity
  8
16
  6
Continuous
 62
     3
370
    25
100
AcDbLine
 10
-120.7599966460466
 20
16.90000216662884
 30
0.0
 11
-119.1799966034293
 21
16.90000216662884
 31
0.0
  0
LINE
  5
1A1
330
1F
100
AcDbEntity
  8
16
  6
Continuous
 62
     3
370
    25
100
AcDbLine
 10
-115.1799977836013
 20
16.90000216662884
 30
0.0
 11
-113.5999977409839
 21
16.90000216662884
 31
0.0
  0
LINE
  5
1A2
330
1F
100
AcDbEntity
  8
16
  6
Continuous
 62
     3
370
    25
100
AcDbLine
 10
-109.5999989211559
 20
16.90000216662884
 30
0.0
 11
-108.0199988785386
 21
16.90000216662884
 31
0.0
  0
LINE
  5
1A3
330
1F
100
AcDbEntity
  8
16
  6
Continuous
 62
     3
370
    25
100
AcDbLine
 10
-104.0200000587106
 20
16.90000216662884
 30
0.0
 11
-102.4400000160933
 21
16.90000216662884
 31
0.0
  0
LINE
  5
1A4
330
1F
100
AcDbEntity
  8
16
  6
Continuous
 62
     3
370
    25
100
AcDbLine
 10
-98.44000119626526
 20
16.90000216662884
 30
0.0
 11
-96.86000115364794
 21
16.90000216662884
 31
0.0
  0
LINE
  5
1A5
330
1F
100
AcDbEntity
  8
16
  6
Continuous
 62
     3
370
    25
100
AcDbLine
 10
-92.8599962303042
 20
16.90000216662884
 30
0.0
 11
-91.27999618768689
 21
16.90000216662884
 31
0.0
  0
LINE
  5
1A6
330
1F
100
AcDbEntity
  8
16
  6
Continuous
 62
     3
370
    25
100
AcDbLine
 10
-87.27999736785887
 20
16.90000216662884
 30
0.0
 11
-85.69999732524155
 21
16.90000216662884
 31
0.0
  0
LINE
  5
1A7
330
1F
100
AcDbEntity
  8
16
  6
Continuous
 62
     3
370
    25
100
AcDbLine
 10
-81.69999850541353
 20
16.90000216662884
 30
0.0
 11
-80.11999846279622
 21
16.90000216662884
 31
0.0
  0
LINE
  5
1A8
330
1F
100
AcDbEntity
  8
16
  6
Continuous
 62
     3
370
    25
100
AcDbLine
 10
-76.11999353945248
 20
16.90000216662884
 30
0.0
 11
-74.53999349683517
 21
16.90000216662884
 31
0.0
  0
LINE
  5
1A9
330
1F
100
AcDbEntity
  8
16
  6
Continuous
 62
     3
370
    25
100
AcDbLine
 10
-70.54000078052286
 20
16.90000216662884
 30
0.0
 11
-68.96000073790555
 21
16.90000216662884
 31
0.0
  0
LINE
  5
1AA
330
1F
100
AcDbEntity
  8
16
  6
Continuous
 62
     3
370
    25
100
AcDbLine
 10
-64.95999581456181
 20
16.90000216662884
 30
0.0
 11
-63.37999577194449
 21
16.90000216662884
 31
0.0
  0
LINE
  5
1AB
330
1F
100
AcDbEntity
  8
16
  6
Continuous
 62
     3
370
    25
100
AcDbLine
 10
-59.38000305563219
 20
16.90000216662884
 30
0.0
 11
-57.80000301301487
 21
16.90000216662884
 31
0.0
  0
LINE
  5
1AC
330
1F
100
AcDbEntity
  8
16
  6
Continuous
 62
     3
370
    25
100
AcDbLine
 10
-53.79999808967113
 20
16.90000216662884
 30
0.0
 11
-52.21999804705381
 21
16.90000216662884
 31
0.0
  0
LINE
  5
1AD
330
1F
100
AcDbEntity
  8
16
  6
Continuous
 62
     3
370
    25
100
AcDbLine
 10
-48.21999312371008
 20
16.90000216662884
 30
0.0
 11
-46.63999308109277
 21
16.90000216662884
 31
0.0
  0
LINE
  5
1AE
330
1F
100
AcDbEntity
  8
16
  6
Continuous
 62
     3
370
    25
100
AcDbLine
 10
-137.4999993368983
 20
15.90000215172768
 30
0.0
 11
-135.919999294281
 21
15.90000215172768
 31
0.0
  0
LINE
  5
1AF
330
1F
100
AcDbEntity
  8
16
  6
Continuous
 62
     3
370
    25
100
AcDbLine
 10
-131.920000474453
 20
15.90000215172768
 30
0.0
 11
-130.3400004318357
 21
15.90000215172768
 31
0.0
  0
LINE
  5
1B0
330
1F
100
AcDbEntity
  8
16
  6
Continuous
 62
     3
370
    25
100
AcDbLine
 10
-126.3400016120076
 20
15.90000215172768
 30
0.0
 11
-124.7600015693903
 21
15.90000215172768
 31
0.0
  0
LINE
  5
1B1
330
1F
100
AcDbEntity
  8
16
  6
Continuous
 62
     3
370
    25
100
AcDbLine
 10
-120.7599966460466
 20
15.90000215172768
 30
0.0
 11
-119.1799966034293
 21
15.90000215172768
 31
0.0
  0
LINE
  5
1B2
330
1F
100
AcDbEntity
  8
16
  6
Continuous
 62
     3
370
    25
100
AcDbLine
 10
-115.1799977836013
 20
15.90000215172768
 30
0.0
 11
-113.5999977409839
 21
15.90000215172768
 31
0.0
  0
LINE
  5
1B3
330
1F
100
AcDbEntity
  8
16
  6
Continuous
 62
     3
370
    25
100
AcDbLine
 10
-109.5999989211559
 20
15.90000215172768
 30
0.0
 11
-108.0199988785386
 21
15.90000215172768
 31
0.0
  0
LINE
  5
1B4
330
1F
100
AcDbEntity
  8
16
  6
Continuous
 62
     3
370
    25
100
AcDbLine
 10
-104.0200000587106
 20
15.90000215172768
 30
0.0
 11
-102.4400000160933
 21
15.90000215172768
 31
0.0
  0
LINE
  5
1B5
330
1F
100
AcDbEntity
  8
16
  6
Continuous
 62
     3
370
    25
100
AcDbLine
 10
-98.44000119626526
 20
15.90000215172768
 30
0.0
 11
-96.86000115364794
 21
15.90000215172768
 31
0.0
  0
LINE
  5
1B6
330
1F
100
AcDbEntity
  8
16
  6
Continuous
 62
     3
370
    25
100
AcDbLine
 10
-92.8599962303042
 20
15.90000215172768
 30
0.0
 11
-91.27999618768689
 21
15.90000215172768
 31
0.0
  0
LINE
  5
1B7
330
1F
100
AcDbEntity
  8
16
  6
Continuous
 62
     3
370
    25
100
AcDbLine
 10
-87.27999736785887
 20
15.90000215172768
 30
0.0
 11
-85.69999732524155
 21
15.90000215172768
 31
0.0
  0
LINE
  5
1B8
330
1F
100
AcDbEntity
  8
16
  6
Continuous
 62
     3
370
    25
100
AcDbLine
 10
-81.69999850541353
 20
15.90000215172768
 30
0.0
 11
-80.11999846279622
 21
15.90000215172768
 31
0.0
  0
LINE
  5
1B9
330
1F
100
AcDbEntity
  8
16
  6
Continuous
 62
     3
370
    25
100
AcDbLine
 10
-76.11999353945248
 20
15.90000215172768
 30
0.0
 11
-74.53999349683517
 21
15.90000215172768
 31
0.0
  0
LINE
  5
1BA
330
1F
100
AcDbEntity
  8
16
  6
Continuous
 62
     3
370
    25
100
AcDbLine
 10
-70.54000078052286
 20
15.90000215172768
 30
0.0
 11
-68.96000073790555
 21
15.90000215172768
 31
0.0
  0
LINE
  5
1BB
330
1F
100
AcDbEntity
  8
16
  6
Continuous
 62
     3
370
    25
100
AcDbLine
 10
-64.95999581456181
 20
15.90000215172768
 30
0.0
 11
-63.37999577194449
 21
15.90000215172768
 31
0.0
  0
LINE
  5
1BC
330
1F
100
AcDbEntity
  8
16
  6
Continuous
 62
     3
370
    25
100
AcDbLine
 10
-59.38000305563219
 20
15.90000215172768
 30
0.0
 11
-57.80000301301487
 21
15.90000215172768
 31
0.0
  0
LINE
  5
1BD
330
1F
100
AcDbEntity
  8
16
  6
Continuous
 62
     3
370
    25
100
AcDbLine
 10
-53.79999808967113
 20
15.90000215172768
 30
0.0
 11
-52.21999804705381
 21
15.90000215172768
 31
0.0
  0
LINE
  5
1BE
330
1F
100
AcDbEntity
  8
16
  6
Continuous
 62
     3
370
    25
100
AcDbLine
 10
-48.21999312371008
 20
15.90000215172768
 30
0.0
 11
-46.63999308109277
 21
15.90000215172768
 31
0.0
  0
LINE
  5
1BF
330
1F
100
AcDbEntity
  8
16
  6
Continuous
 62
     3
370
    25
100
AcDbLine
 10
-137.4999993368983
 20
-3.099998131394386
 30
0.0
 11
-135.919999294281
 21
-3.099998131394386
 31
0.0
  0
LINE
  5
1C0
330
1F
100
AcDbEntity
  8
16
  6
Continuous
 62
     3
370
    25
100
AcDbLine
 10
-131.920000474453
 20
-3.099998131394386
 30
0.0
 11
-130.3400004318357
 21
-3.099998131394386
 31
0.0
  0
LINE
  5
1C1
330
1F
100
AcDbEntity
  8
16
  6
Continuous
 62
     3
370
    25
100
AcDbLine
 10
-126.3400016120076
 20
-3.099998131394386
 30
0.0
 11
-124.7600015693903
 21
-3.099998131394386
 31
0.0
  0
LINE
  5
1C2
330
1F
100
AcDbEntity
  8
16
  6
Continuous
 62
     3
370
    25
100
AcDbLine
 10
-120.7599966460466
 20
-3.099998131394386
 30
0.0
 11
-119.1799966034293
 21
-3.099998131394386
 31
0.0
  0
LINE
  5
1C3
330
1F
100
AcDbEntity
  8
16
  6
Continuous
 62
     3
370
    25
100
AcDbLine
 10
-115.1799977836013
 20
-3.099998131394386
 30
0.0
 11
-113.5999977409839
 21
-3.099998131394386
 31
0.0
  0
LINE
  5
1C4
330
1F
100
AcDbEntity
  8
16
  6
Continuous
 62
     3
370
    25
100
AcDbLine
 10
-109.5999989211559
 20
-3.099998131394386
 30
0.0
 11
-108.0199988785386
 21
-3.099998131394386
 31
0.0
  0
LINE
  5
1C5
330
1F
100
AcDbEntity
  8
16
  6
Continuous
 62
     3
370
    25
100
AcDbLine
 10
-104.0200000587106
 20
-3.099998131394386
 30
0.0
 11
-102.4400000160933
 21
-3.099998131394386
 31
0.0
  0
LINE
  5
1C6
330
1F
100
AcDbEntity
  8
16
  6
Continuous
 62
     3
370
    25
100
AcDbLine
 10
-98.44000119626526
 20
-3.099998131394386
 30
0.0
 11
-96.86000115364794
 21
-3.099998131394386
 31
0.0
  0
LINE
  5
1C7
330
1F
100
AcDbEntity
  8
16
  6
Continuous
 62
     3
370
    25
100
AcDbLine
 10
-92.8599962303042
 20
-3.099998131394386
 30
0.0
 11
-91.27999618768689
 21
-3.099998131394386
 31
0.0
  0
LINE
  5
1C8
330
1F
100
AcDbEntity
  8
16
  6
Continuous
 62
     3
370
    25
100
AcDbLine
 10
-87.27999736785887
 20
-3.099998131394386
 30
0.0
 11
-85.69999732524155
 21
-3.099998131394386
 31
0.0
  0
LINE
  5
1C9
330
1F
100
AcDbEntity
  8
16
  6
Continuous
 62
     3
370
    25
100
AcDbLine
 10
-81.69999850541353
 20
-3.099998131394386
 30
0.0
 11
-80.11999846279622
 21
-3.099998131394386
 31
0.0
  0
LINE
  5
1CA
330
1F
100
AcDbEntity
  8
16
  6
Continuous
 62
     3
370
    25
100
AcDbLine
 10
-76.11999353945248
 20
-3.099998131394386
 30
0.0
 11
-74.53999349683517
 21
-3.099998131394386
 31
0.0
  0
LINE
  5
1CB
330
1F
100
AcDbEntity
  8
16
  6
Continuous
 62
     3
370
    25
100
AcDbLine
 10
-70.54000078052286
 20
-3.099998131394386
 30
0.0
 11
-68.96000073790555
 21
-3.099998131394386
 31
0.0
  0
LINE
  5
1CC
330
1F
100
AcDbEntity
  8
16
  6
Continuous
 62
     3
370
    25
100
AcDbLine
 10
-64.95999581456181
 20
-3.099998131394386
 30
0.0
 11
-63.37999577194449
 21
-3.099998131394386
 31
0.0
  0
LINE
  5
1CD
330
1F
100
AcDbEntity
  8
16
  6
Continuous
 62
     3
370
    25
100
AcDbLine
 10
-59.38000305563219
 20
-3.099998131394386
 30
0.0
 11
-57.80000301301487
 21
-3.099998131394386
 31
0.0
  0
LINE
  5
1CE
330
1F
100
AcDbEntity
  8
16
  6
Continuous
 62
     3
370
    25
100
AcDbLine
 10
-53.79999808967113
 20
-3.099998131394386
 30
0.0
 11
-52.21999804705381
 21
-3.099998131394386
 31
0.0
  0
LINE
  5
1CF
330
1F
100
AcDbEntity
  8
16
  6
Continuous
 62
     3
370
    25
100
AcDbLine
 10
-48.21999312371008
 20
-3.099998131394386
 30
0.0
 11
-46.63999308109277
 21
-3.099998131394386
 31
0.0
  0
LINE
  5
1D0
330
1F
100
AcDbEntity
  8
16
  6
Continuous
 62
     3
370
    25
100
AcDbLine
 10
-137.4999993368983
 20
-4.099998146295547
 30
0.0
 11
-135.919999294281
 21
-4.099998146295547
 31
0.0
  0
LINE
  5
1D1
330
1F
100
AcDbEntity
  8
16
  6
Continuous
 62
     3
370
    25
100
AcDbLine
 10
-131.920000474453
 20
-4.099998146295547
 30
0.0
 11
-130.3400004318357
 21
-4.099998146295547
 31
0.0
  0
LINE
  5
1D2
330
1F
100
AcDbEntity
  8
16
  6
Continuous
 62
     3
370
    25
100
AcDbLine
 10
-126.3400016120076
 20
-4.099998146295547
 30
0.0
 11
-124.7600015693903
 21
-4.099998146295547
 31
0.0
  0
LINE
  5
1D3
330
1F
100
AcDbEntity
  8
16
  6
Continuous
 62
     3
370
    25
100
AcDbLine
 10
-120.7599966460466
 20
-4.099998146295547
 30
0.0
 11
-119.1799966034293
 21
-4.099998146295547
 31
0.0
  0
LINE
  5
1D4
330
1F
100
AcDbEntity
  8
16
  6
Continuous
 62
     3
370
    25
100
AcDbLine
 10
-115.1799977836013
 20
-4.099998146295547
 30
0.0
 11
-113.5999977409839
 21
-4.099998146295547
 31
0.0
  0
LINE
  5
1D5
330
1F
100
AcDbEntity
  8
16
  6
Continuous
 62
     3
370
    25
100
AcDbLine
 10
-109.5999989211559
 20
-4.099998146295547
 30
0.0
 11
-108.0199988785386
 21
-4.099998146295547
 31
0.0
  0
LINE
  5
1D6
330
1F
100
AcDbEntity
  8
16
  6
Continuous
 62
     3
370
    25
100
AcDbLine
 10
-104.0200000587106
 20
-4.099998146295547
 30
0.0
 11
-102.4400000160933
 21
-4.099998146295547
 31
0.0
  0
LINE
  5
1D7
330
1F
100
AcDbEntity
  8
16
  6
Continuous
 62
     3
370
    25
100
AcDbLine
 10
-98.44000119626526
 20
-4.099998146295547
 30
0.0
 11
-96.86000115364794
 21
-4.099998146295547
 31
0.0
  0
LINE
  5
1D8
330
1F
100
AcDbEntity
  8
16
  6
Continuous
 62
     3
370
    25
100
AcDbLine
 10
-92.8599962303042
 20
-4.099998146295547
 30
0.0
 11
-91.27999618768689
 21
-4.099998146295547
 31
0.0
  0
LINE
  5
1D9
330
1F
100
AcDbEntity
  8
16
  6
Continuous
 62
     3
370
    25
100
AcDbLine
 10
-87.27999736785887
 20
-4.099998146295547
 30
0.0
 11
-85.69999732524155
 21
-4.099998146295547
 31
0.0
  0
LINE
  5
1DA
330
1F
100
AcDbEntity
  8
16
  6
Continuous
 62
     3
370
    25
100
AcDbLine
 10
-81.69999850541353
 20
-4.099998146295547
 30
0.0
 11
-80.11999846279622
 21
-4.099998146295547
 31
0.0
  0
LINE
  5
1DB
330
1F
100
AcDbEntity
  8
16
  6
Continuous
 62
     3
370
    25
100
AcDbLine
 10
-76.11999353945248
 20
-4.099998146295547
 30
0.0
 11
-74.53999349683517
 21
-4.099998146295547
 31
0.0
  0
LINE
  5
1DC
330
1F
100
AcDbEntity
  8
16
  6
Continuous
 62
     3
370
    25
100
AcDbLine
 10
-70.54000078052286
 20
-4.099998146295547
 30
0.0
 11
-68.96000073790555
 21
-4.099998146295547
 31
0.0
  0
LINE
  5
1DD
330
1F
100
AcDbEntity
  8
16
  6
Continuous
 62
     3
370
    25
100
AcDbLine
 10
-64.95999581456181
 20
-4.099998146295547
 30
0.0
 11
-63.37999577194449
 21
-4.099998146295547
 31
0.0
  0
LINE
  5
1DE
330
1F
100
AcDbEntity
  8
16
  6
Continuous
 62
     3
370
    25
100
AcDbLine
 10
-59.38000305563219
 20
-4.099998146295547
 30
0.0
 11
-57.80000301301487
 21
-4.099998146295547
 31
0.0
  0
LINE
  5
1DF
330
1F
100
AcDbEntity
  8
16
  6
Continuous
 62
     3
370
    25
100
AcDbLine
 10
-53.79999808967113
 20
-4.099998146295547
 30
0.0
 11
-52.21999804705381
 21
-4.099998146295547
 31
0.0
  0
LINE
  5
1E0
330
1F
100
AcDbEntity
  8
16
  6
Continuous
 62
     3
370
    25
100
AcDbLine
 10
-48.21999312371008
 20
-4.099998146295547
 30
0.0
 11
-46.63999308109277
 21
-4.099998146295547
 31
0.0
  0
LINE
  5
1E1
330
1F
100
AcDbEntity
  8
16
  6
Continuous
 62
     3
370
    25
100
AcDbLine
 10
-141.499999396503
 20
-18.6999983638525
 30
0.0
 11
-141.499999396503
 21
51.50000268220901
 31
0.0
  0
LINE
  5
1E2
330
1F
100
AcDbEntity
  8
16
  6
Continuous
 62
     3
370
    25
100
AcDbLine
 10
-141.499999396503
 20
-18.6999983638525
 30
0.0
 11
-137.4999993368983
 21
-18.6999983638525
 31
0.0
  0
LINE
  5
1E3
330
1F
100
AcDbEntity
  8
16
  6
Continuous
 62
     3
370
    25
100
AcDbLine
 10
-137.4999993368983
 20
-18.6999983638525
 30
0.0
 11
-137.4999993368983
 21
51.50000268220901
 31
0.0
  0
LINE
  5
1E4
330
1F
100
AcDbEntity
  8
16
  6
Continuous
 62
     3
370
    25
100
AcDbLine
 10
-141.499999396503
 20
51.50000268220901
 30
0.0
 11
-137.4999993368983
 21
51.50000268220901
 31
0.0
  0
LINE
  5
1E5
330
1F
100
AcDbEntity
  8
16
  6
Continuous
 62
     3
370
    25
100
AcDbLine
 10
-140.699999384582
 20
-18.6999983638525
 30
0.0
 11
-140.699999384582
 21
51.50000268220901
 31
0.0
  0
LINE
  5
1E6
330
1F
100
AcDbEntity
  8
16
  6
Continuous
 62
     3
370
    25
100
AcDbLine
 10
-138.2999993488193
 20
-18.6999983638525
 30
0.0
 11
-138.2999993488193
 21
51.50000268220901
 31
0.0
  0
LINE
  5
1E7
330
1F
100
AcDbEntity
  8
16
  6
Continuous
 62
     3
370
    25
100
AcDbLine
 10
-139.4999993667006
 20
-17.69999834895134
 30
0.0
 11
-139.4999993667006
 21
50.50000266730785
 31
0.0
  0
LINE
  5
1E8
330
1F
100
AcDbEntity
  8
16
  6
Continuous
 62
     3
370
    25
100
AcDbLine
 10
-135.9200005340576
 20
-18.6999983638525
 30
0.0
 11
-135.9200005340576
 21
51.50000268220901
 31
0.0
  0
LINE
  5
1E9
330
1F
100
AcDbEntity
  8
16
  6
Continuous
 62
     3
370
    25
100
AcDbLine
 10
-135.9200005340576
 20
-18.6999983638525
 30
0.0
 11
-131.920000474453
 21
-18.6999983638525
 31
0.0
  0
LINE
  5
1EA
330
1F
100
AcDbEntity
  8
16
  6
Continuous
 62
     3
370
    25
100
AcDbLine
 10
-131.920000474453
 20
-18.6999983638525
 30
0.0
 11
-131.920000474453
 21
51.50000268220901
 31
0.0
  0
LINE
  5
1EB
330
1F
100
AcDbEntity
  8
16
  6
Continuous
 62
     3
370
    25
100
AcDbLine
 10
-135.9200005340576
 20
51.50000268220901
 30
0.0
 11
-131.920000474453
 21
51.50000268220901
 31
0.0
  0
LINE
  5
1EC
330
1F
100
AcDbEntity
  8
16
  6
Continuous
 62
     3
370
    25
100
AcDbLine
 10
-135.1200005221367
 20
-18.6999983638525
 30
0.0
 11
-135.1200005221367
 21
51.50000268220901
 31
0.0
  0
LINE
  5
1ED
330
1F
100
AcDbEntity
  8
16
  6
Continuous
 62
     3
370
    25
100
AcDbLine
 10
-132.7200004863739
 20
-18.6999983638525
 30
0.0
 11
-132.7200004863739
 21
51.50000268220901
 31
0.0
  0
LINE
  5
1EE
330
1F
100
AcDbEntity
  8
16
  6
Continuous
 62
     3
370
    25
100
AcDbLine
 10
-133.9200005042553
 20
-17.69999834895134
 30
0.0
 11
-133.9200005042553
 21
50.50000266730785
 31
0.0
  0
LINE
  5
1EF
330
1F
100
AcDbEntity
  8
16
  6
Continuous
 62
     3
370
    25
100
AcDbLine
 10
-130.3400016716123
 20
-18.6999983638525
 30
0.0
 11
-130.3400016716123
 21
51.50000268220901
 31
0.0
  0
LINE
  5
1F0
330
1F
100
AcDbEntity
  8
16
  6
Continuous
 62
     3
370
    25
100
AcDbLine
 10
-130.3400016716123
 20
-18.6999983638525
 30
0.0
 11
-126.3400016120076
 21
-18.6999983638525
 31
0.0
  0
LINE
  5
1F1
330
1F
100
AcDbEntity
  8
16
  6
Continuous
 62
     3
370
    25
100
AcDbLine
 10
-126.3400016120076
 20
-18.6999983638525
 30
0.0
 11
-126.3400016120076
 21
51.50000268220901
 31
0.0
  0
LINE
  5
1F2
330
1F
100
AcDbEntity
  8
16
  6
Continuous
 62
     3
370
    25
100
AcDbLine
 10
-130.3400016716123
 20
51.50000268220901
 30
0.0
 11
-126.3400016120076
 21
51.50000268220901
 31
0.0
  0
LINE
  5
1F3
330
1F
100
AcDbEntity
  8
16
  6
Continuous
 62
     3
370
    25
100
AcDbLine
 10
-129.5400016596914
 20
-18.6999983638525
 30
0.0
 11
-129.5400016596914
 21
51.50000268220901
 31
0.0
  0
LINE
  5
1F4
330
1F
100
AcDbEntity
  8
16
  6
Continuous
 62
     3
370
    25
100
AcDbLine
 10
-127.1400016239286
 20
-18.6999983638525
 30
0.0
 11
-127.1400016239286
 21
51.50000268220901
 31
0.0
  0
LINE
  5
1F5
330
1F
100
AcDbEntity
  8
16
  6
Continuous
 62
     3
370
    25
100
AcDbLine
 10
-128.34000164181
 20
-17.69999834895134
 30
0.0
 11
-128.34000164181
 21
50.50000266730785
 31
0.0
  0
LINE
  5
1F6
330
1F
100
AcDbEntity
  8
16
  6
Continuous
 62
     3
370
    25
100
AcDbLine
 10
-124.7599967056512
 20
-18.6999983638525
 30
0.0
 11
-124.7599967056512
 21
51.50000268220901
 31
0.0
  0
LINE
  5
1F7
330
1F
100
AcDbEntity
  8
16
  6
Continuous
 62
     3
370
    25
100
AcDbLine
 10
-124.7599967056512
 20
-18.6999983638525
 30
0.0
 11
-120.7599966460466
 21
-18.6999983638525
 31
0.0
  0
LINE
  5
1F8
330
1F
100
AcDbEntity
  8
16
  6
Continuous
 62
     3
370
    25
100
AcDbLine
 10
-120.7599966460466
 20
-18.6999983638525
 30
0.0
 11
-120.7599966460466
 21
51.50000268220901
 31
0.0
  0
LINE
  5
1F9
330
1F
100
AcDbEntity
  8
16
  6
Continuous
 62
     3
370
    25
100
AcDbLine
 10
-124.7599967056512
 20
51.50000268220901
 30
0.0
 11
-120.7599966460466
 21
51.50000268220901
 31
0.0
  0
LINE
  5
1FA
330
1F
100
AcDbEntity
  8
16
  6
Continuous
 62
     3
370
    25
100
AcDbLine
 10
-123.9599966937303
 20
-18.6999983638525
 30
0.0
 11
-123.9599966937303
 21
51.50000268220901
 31
0.0
  0
LINE
  5
1FB
330
1F
100
AcDbEntity
  8
16
  6
Continuous
 62
     3
370
    25
100
AcDbLine
 10
-121.5599966579675
 20
-18.6999983638525
 30
0.0
 11
-121.5599966579675
 21
51.50000268220901
 31
0.0
  0
LINE
  5
1FC
330
1F
100
AcDbEntity
  8
16
  6
Continuous
 62
     3
370
    25
100
AcDbLine
 10
-122.7599966758489
 20
-17.69999834895134
 30
0.0
 11
-122.7599966758489
 21
50.50000266730785
 31
0.0
  0
LINE
  5
1FD
330
1F
100
AcDbEntity
  8
16
  6
Continuous
 62
     3
370
    25
100
AcDbLine
 10
-119.1799978432059
 20
-18.6999983638525
 30
0.0
 11
-119.1799978432059
 21
51.50000268220901
 31
0.0
  0
LINE
  5
1FE
330
1F
100
AcDbEntity
  8
16
  6
Continuous
 62
     3
370
    25
100
AcDbLine
 10
-119.1799978432059
 20
-18.6999983638525
 30
0.0
 11
-115.1799977836013
 21
-18.6999983638525
 31
0.0
  0
LINE
  5
1FF
330
1F
100
AcDbEntity
  8
16
  6
Continuous
 62
     3
370
    25
100
AcDbLine
 10
-115.1799977836013
 20
-18.6999983638525
 30
0.0
 11
-115.1799977836013
 21
51.50000268220901
 31
0.0
  0
LINE
  5
200
330
1F
100
AcDbEntity
  8
16
  6
Continuous
 62
     3
370
    25
100
AcDbLine
 10
-119.1799978432059
 20
51.50000268220901
 30
0.0
 11
-115.1799977836013
 21
51.50000268220901
 31
0.0
  0
LINE
  5
201
330
1F
100
AcDbEntity
  8
16
  6
Continuous
 62
     3
370
    25
100
AcDbLine
 10
-118.379997831285
 20
-18.6999983638525
 30
0.0
 11
-118.379997831285
 21
51.50000268220901
 31
0.0
  0
LINE
  5
202
330
1F
100
AcDbEntity
  8
16
  6
Continuous
 62
     3
370
    25
100
AcDbLine
 10
-115.9799977955222
 20
-18.6999983638525
 30
0.0
 11
-115.9799977955222
 21
51.50000268220901
 31
0.0
  0
LINE
  5
203
330
1F
100
AcDbEntity
  8
16
  6
Continuous
 62
     3
370
    25
100
AcDbLine
 10
-117.1799978134036
 20
-17.69999834895134
 30
0.0
 11
-117.1799978134036
 21
50.50000266730785
 31
0.0
  0
LINE
  5
204
330
1F
100
AcDbEntity
  8
16
  6
Continuous
 62
     3
370
    25
100
AcDbLine
 10
-113.5999989807606
 20
-18.6999983638525
 30
0.0
 11
-113.5999989807606
 21
51.50000268220901
 31
0.0
  0
LINE
  5
205
330
1F
100
AcDbEntity
  8
16
  6
Continuous
 62
     3
370
    25
100
AcDbLine
 10
-113.5999989807606
 20
-18.6999983638525
 30
0.0
 11
-109.5999989211559
 21
-18.6999983638525
 31
0.0
  0
LINE
  5
206
330
1F
100
AcDbEntity
  8
16
  6
Continuous
 62
     3
370
    25
100
AcDbLine
 10
-109.5999989211559
 20
-18.6999983638525
 30
0.0
 11
-109.5999989211559
 21
51.50000268220901
 31
0.0
  0
LINE
  5
207
330
1F
100
AcDbEntity
  8
16
  6
Continuous
 62
     3
370
    25
100
AcDbLine
 10
-113.5999989807606
 20
51.50000268220901
 30
0.0
 11
-109.5999989211559
 21
51.50000268220901
 31
0.0
  0
LINE
  5
208
330
1F
100
AcDbEntity
  8
16
  6
Continuous
 62
     3
370
    25
100
AcDbLine
 10
-112.7999989688396
 20
-18.6999983638525
 30
0.0
 11
-112.7999989688396
 21
51.50000268220901
 31
0.0
  0
LINE
  5
209
330
1F
100
AcDbEntity
  8
16
  6
Continuous
 62
     3
370
    25
100
AcDbLine
 10
-110.3999989330769
 20
-18.6999983638525
 30
0.0
 11
-110.3999989330769
 21
51.50000268220901
 31
0.0
  0
LINE
  5
20A
330
1F
100
AcDbEntity
  8
16
  6
Continuous
 62
     3
370
    25
100
AcDbLine
 10
-111.5999989509583
 20
-17.69999834895134
 30
0.0
 11
-111.5999989509583
 21
50.50000266730785
 31
0.0
  0
LINE
  5
20B
330
1F
100
AcDbEntity
  8
16
  6
Continuous
 62
     3
370
    25
100
AcDbLine
 10
-108.0200001183152
 20
-18.6999983638525
 30
0.0
 11
-108.0200001183152
 21
51.50000268220901
 31
0.0
  0
LINE
  5
20C
330
1F
100
AcDbEntity
  8
16
  6
Continuous
 62
     3
370
    25
100
AcDbLine
 10
-108.0200001183152
 20
-18.6999983638525
 30
0.0
 11
-104.0200000587106
 21
-18.6999983638525
 31
0.0
  0
LINE
  5
20D
330
1F
100
AcDbEntity
  8
16
  6
Continuous
 62
     3
370
    25
100
AcDbLine
 10
-104.0200000587106
 20
-18.6999983638525
 30
0.0
 11
-104.0200000587106
 21
51.50000268220901
 31
0.0
  0
LINE
  5
20E
330
1F
100
AcDbEntity
  8
16
  6
Continuous
 62
     3
370
    25
100
AcDbLine
 10
-108.0200001183152
 20
51.50000268220901
 30
0.0
 11
-104.0200000587106
 21
51.50000268220901
 31
0.0
  0
LINE
  5
20F
330
1F
100
AcDbEntity
  8
16
  6
Continuous
 62
     3
370
    25
100
AcDbLine
 10
-107.2200001063943
 20
-18.6999983638525
 30
0.0
 11
-107.2200001063943
 21
51.50000268220901
 31
0.0
  0
LINE
  5
210
330
1F
100
AcDbEntity
  8
16
  6
Continuous
 62
     3
370
    25
100
AcDbLine
 10
-104.8200000706315
 20
-18.6999983638525
 30
0.0
 11
-104.8200000706315
 21
51.50000268220901
 31
0.0
  0
LINE
  5
211
330
1F
100
AcDbEntity
  8
16
  6
Continuous
 62
     3
370
    25
100
AcDbLine
 10
-106.0200000885129
 20
-17.69999834895134
 30
0.0
 11
-106.0200000885129
 21
50.50000266730785
 31
0.0
  0
LINE
  5
212
330
1F
100
AcDbEntity
  8
16
  6
Continuous
 62
     3
370
    25
100
AcDbLine
 10
-102.4400012558699
 20
-18.6999983638525
 30
0.0
 11
-102.4400012558699
 21
51.50000268220901
 31
0.0
  0
LINE
  5
213
330
1F
100
AcDbEntity
  8
16
  6
Continuous
 62
     3
370
    25
100
AcDbLine
 10
-102.4400012558699
 20
-18.6999983638525
 30
0.0
 11
-98.44000119626526
 21
-18.6999983638525
 31
0.0
  0
LINE
  5
214
330
1F
100
AcDbEntity
  8
16
  6
Continuous
 62
     3
370
    25
100
AcDbLine
 10
-98.44000119626526
 20
-18.6999983638525
 30
0.0
 11
-98.44000119626526
 21
51.50000268220901
 31
0.0
  0
LINE
  5
215
330
1F
100
AcDbEntity
  8
16
  6
Continuous
 62
     3
370
    25
100
AcDbLine
 10
-102.4400012558699
 20
51.50000268220901
 30
0.0
 11
-98.44000119626526
 21
51.50000268220901
 31
0.0
  0
LINE
  5
216
330
1F
100
AcDbEntity
  8
16
  6
Continuous
 62
     3
370
    25
100
AcDbLine
 10
-101.640001243949
 20
-18.6999983638525
 30
0.0
 11
-101.640001243949
 21
51.50000268220901
 31
0.0
  0
LINE
  5
217
330
1F
100
AcDbEntity
  8
16
  6
Continuous
 62
     3
370
    25
100
AcDbLine
 10
-99.24000120818619
 20
-18.6999983638525
 30
0.0
 11
-99.24000120818619
 21
51.50000268220901
 31
0.0
  0
LINE
  5
218
330
1F
100
AcDbEntity
  8
16
  6
Continuous
 62
     3
370
    25
100
AcDbLine
 10
-100.4400012260676
 20
-17.69999834895134
 30
0.0
 11
-100.4400012260676
 21
50.50000266730785
 31
0.0
  0
LINE
  5
219
330
1F
100
AcDbEntity
  8
16
  6
Continuous
 62
     3
370
    25
100
AcDbLine
 10
-96.85999628990885
 20
-18.6999983638525
 30
0.0
 11
-96.85999628990885
 21
51.50000268220901
 31
0.0
  0
LINE
  5
21A
330
1F
100
AcDbEntity
  8
16
  6
Continuous
 62
     3
370
    25
100
AcDbLine
 10
-96.85999628990885
 20
-18.6999983638525
 30
0.0
 11
-92.8599962303042
 21
-18.6999983638525
 31
0.0
  0
LINE
  5
21B
330
1F
100
AcDbEntity
  8
16
  6
Continuous
 62
     3
370
    25
100
AcDbLine
 10
-92.8599962303042
 20
-18.6999983638525
 30
0.0
 11
-92.8599962303042
 21
51.50000268220901
 31
0.0
  0
LINE
  5
21C
330
1F
100
AcDbEntity
  8
16
  6
Continuous
 62
     3
370
    25
100
AcDbLine
 10
-96.85999628990885
 20
51.50000268220901
 30
0.0
 11
-92.8599962303042
 21
51.50000268220901
 31
0.0
  0
LINE
  5
21D
330
1F
100
AcDbEntity
  8
16
  6
Continuous
 62
     3
370
    25
100
AcDbLine
 10
-96.05999627798792
 20
-18.6999983638525
 30
0.0
 11
-96.05999627798792
 21
51.50000268220901
 31
0.0
  0
LINE
  5
21E
330
1F
100
AcDbEntity
  8
16
  6
Continuous
 62
     3
370
    25
100
AcDbLine
 10
-93.65999624222513
 20
-18.6999983638525
 30
0.0
 11
-93.65999624222513
 21
51.50000268220901
 31
0.0
  0
LINE
  5
21F
330
1F
100
AcDbEntity
  8
16
  6
Continuous
 62
     3
370
    25
100
AcDbLine
 10
-94.85999626010653
 20
-17.69999834895134
 30
0.0
 11
-94.85999626010653
 21
50.50000266730785
 31
0.0
  0
LINE
  5
220
330
1F
100
AcDbEntity
  8
16
  6
Continuous
 62
     3
370
    25
100
AcDbLine
 10
-91.27999742746351
 20
-18.6999983638525
 30
0.0
 11
-91.27999742746351
 21
51.50000268220901
 31
0.0
  0
LINE
  5
221
330
1F
100
AcDbEntity
  8
16
  6
Continuous
 62
     3
370
    25
100
AcDbLine
 10
-91.27999742746351
 20
-18.6999983638525
 30
0.0
 11
-87.27999736785887
 21
-18.6999983638525
 31
0.0
  0
LINE
  5
222
330
1F
100
AcDbEntity
  8
16
  6
Continuous
 62
     3
370
    25
100
AcDbLine
 10
-87.27999736785887
 20
-18.6999983638525
 30
0.0
 11
-87.27999736785887
 21
51.50000268220901
 31
0.0
  0
LINE
  5
223
330
1F
100
AcDbEntity
  8
16
  6
Continuous
 62
     3
370
    25
100
AcDbLine
 10
-91.27999742746351
 20
51.50000268220901
 30
0.0
 11
-87.27999736785887
 21
51.50000268220901
 31
0.0
  0
LINE
  5
224
330
1F
100
AcDbEntity
  8
16
  6
Continuous
 62
     3
370
    25
100
AcDbLine
 10
-90.47999741554258
 20
-18.6999983638525
 30
0.0
 11
-90.47999741554258
 21
51.50000268220901
 31
0.0
  0
LINE
  5
225
330
1F
100
AcDbEntity
  8
16
  6
Continuous
 62
     3
370
    25
100
AcDbLine
 10
-88.0799973797798
 20
-18.6999983638525
 30
0.0
 11
-88.0799973797798
 21
51.50000268220901
 31
0.0
  0
LINE
  5
226
330
1F
100
AcDbEntity
  8
16
  6
Continuous
 62
     3
370
    25
100
AcDbLine
 10
-89.27999739766119
 20
-17.69999834895134
 30
0.0
 11
-89.27999739766119
 21
50.50000266730785
 31
0.0
  0
LINE
  5
227
330
1F
100
AcDbEntity
  8
16
  6
Continuous
 62
     3
370
    25
100
AcDbLine
 10
-85.69999856501818
 20
-18.6999983638525
 30
0.0
 11
-85.69999856501818
 21
51.50000268220901
 31
0.0
  0
LINE
  5
228
330
1F
100
AcDbEntity
  8
16
  6
Continuous
 62
     3
370
    25
100
AcDbLine
 10
-85.69999856501818
 20
-18.6999983638525
 30
0.0
 11
-81.69999850541353
 21
-18.6999983638525
 31
0.0
  0
LINE
  5
229
330
1F
100
AcDbEntity
  8
16
  6
Continuous
 62
     3
370
    25
100
AcDbLine
 10
-81.69999850541353
 20
-18.6999983638525
 30
0.0
 11
-81.69999850541353
 21
51.50000268220901
 31
0.0
  0
LINE
  5
22A
330
1F
100
AcDbEntity
  8
16
  6
Continuous
 62
     3
370
    25
100
AcDbLine
 10
-85.69999856501818
 20
51.50000268220901
 30
0.0
 11
-81.69999850541353
 21
51.50000268220901
 31
0.0
  0
LINE
  5
22B
330
1F
100
AcDbEntity
  8
16
  6
Continuous
 62
     3
370
    25
100
AcDbLine
 10
-84.89999855309725
 20
-18.6999983638525
 30
0.0
 11
-84.89999855309725
 21
51.50000268220901
 31
0.0
  0
LINE
  5
22C
330
1F
100
AcDbEntity
  8
16
  6
Continuous
 62
     3
370
    25
100
AcDbLine
 10
-82.49999851733446
 20
-18.6999983638525
 30
0.0
 11
-82.49999851733446
 21
51.50000268220901
 31
0.0
  0
LINE
  5
22D
330
1F
100
AcDbEntity
  8
16
  6
Continuous
 62
     3
370
    25
100
AcDbLine
 10
-83.69999853521585
 20
-17.69999834895134
 30
0.0
 11
-83.69999853521585
 21
50.50000266730785
 31
0.0
  0
LINE
  5
22E
330
1F
100
AcDbEntity
  8
16
  6
Continuous
 62
     3
370
    25
100
AcDbLine
 10
-80.11999970257284
 20
-18.6999983638525
 30
0.0
 11
-80.11999970257284
 21
51.50000268220901
 31
0.0
  0
LINE
  5
22F
330
1F
100
AcDbEntity
  8
16
  6
Continuous
 62
     3
370
    25
100
AcDbLine
 10
-80.11999970257284
 20
-18.6999983638525
 30
0.0
 11
-76.1199996429682
 21
-18.6999983638525
 31
0.0
  0
LINE
  5
230
330
1F
100
AcDbEntity
  8
16
  6
Continuous
 62
     3
370
    25
100
AcDbLine
 10
-76.1199996429682
 20
-18.6999983638525
 30
0.0
 11
-76.1199996429682
 21
51.50000268220901
 31
0.0
  0
LINE
  5
231
330
1F
100
AcDbEntity
  8
16
  6
Continuous
 62
     3
370
    25
100
AcDbLine
 10
-80.11999970257284
 20
51.50000268220901
 30
0.0
 11
-76.1199996429682
 21
51.50000268220901
 31
0.0
  0
LINE
  5
232
330
1F
100
AcDbEntity
  8
16
  6
Continuous
 62
     3
370
    25
100
AcDbLine
 10
-79.31999969065191
 20
-18.6999983638525
 30
0.0
 11
-79.31999969065191
 21
51.50000268220901
 31
0.0
  0
LINE
  5
233
330
1F
100
AcDbEntity
  8
16
  6
Continuous
 62
     3
370
    25
100
AcDbLine
 10
-76.91999965488912
 20
-18.6999983638525
 30
0.0
 11
-76.91999965488912
 21
51.50000268220901
 31
0.0
  0
LINE
  5
234
330
1F
100
AcDbEntity
  8
16
  6
Continuous
 62
     3
370
    25
100
AcDbLine
 10
-78.11999967277052
 20
-17.69999834895134
 30
0.0
 11
-78.11999967277052
 21
50.50000266730785
 31
0.0
  0
LINE
  5
235
330
1F
100
AcDbEntity
  8
16
  6
Continuous
 62
     3
370
    25
100
AcDbLine
 10
-74.5400008401275
 20
-18.6999983638525
 30
0.0
 11
-74.5400008401275
 21
51.50000268220901
 31
0.0
  0
LINE
  5
236
330
1F
100
AcDbEntity
  8
16
  6
Continuous
 62
     3
370
    25
100
AcDbLine
 10
-74.5400008401275
 20
-18.6999983638525
 30
0.0
 11
-70.54000078052286
 21
-18.6999983638525
 31
0.0
  0
LINE
  5
237
330
1F
100
AcDbEntity
  8
16
  6
Continuous
 62
     3
370
    25
100
AcDbLine
 10
-70.54000078052286
 20
-18.6999983638525
 30
0.0
 11
-70.54000078052286
 21
51.50000268220901
 31
0.0
  0
LINE
  5
238
330
1F
100
AcDbEntity
  8
16
  6
Continuous
 62
     3
370
    25
100
AcDbLine
 10
-74.5400008401275
 20
51.50000268220901
 30
0.0
 11
-70.54000078052286
 21
51.50000268220901
 31
0.0
  0
LINE
  5
239
330
1F
100
AcDbEntity
  8
16
  6
Continuous
 62
     3
370
    25
100
AcDbLine
 10
-73.74000082820658
 20
-18.6999983638525
 30
0.0
 11
-73.74000082820658
 21
51.50000268220901
 31
0.0
  0
LINE
  5
23A
330
1F
100
AcDbEntity
  8
16
  6
Continuous
 62
     3
370
    25
100
AcDbLine
 10
-71.34000079244379
 20
-18.6999983638525
 30
0.0
 11
-71.34000079244379
 21
51.50000268220901
 31
0.0
  0
LINE
  5
23B
330
1F
100
AcDbEntity
  8
16
  6
Continuous
 62
     3
370
    25
100
AcDbLine
 10
-72.54000081032518
 20
-17.69999834895134
 30
0.0
 11
-72.54000081032518
 21
50.50000266730785
 31
0.0
  0
LINE
  5
23C
330
1F
100
AcDbEntity
  8
16
  6
Continuous
 62
     3
370
    25
100
AcDbLine
 10
-68.95999587416645
 20
-18.6999983638525
 30
0.0
 11
-68.95999587416645
 21
51.50000268220901
 31
0.0
  0
LINE
  5
23D
330
1F
100
AcDbEntity
  8
16
  6
Continuous
 62
     3
370
    25
100
AcDbLine
 10
-68.95999587416645
 20
-18.6999983638525
 30
0.0
 11
-64.95999581456181
 21
-18.6999983638525
 31
0.0
  0
LINE
  5
23E
330
1F
100
AcDbEntity
  8
16
  6
Continuous
 62
     3
370
    25
100
AcDbLine
 10
-64.95999581456181
 20
-18.6999983638525
 30
0.0
 11
-64.95999581456181
 21
51.50000268220901
 31
0.0
  0
LINE
  5
23F
330
1F
100
AcDbEntity
  8
16
  6
Continuous
 62
     3
370
    25
100
AcDbLine
 10
-68.95999587416645
 20
51.50000268220901
 30
0.0
 11
-64.95999581456181
 21
51.50000268220901
 31
0.0
  0
LINE
  5
240
330
1F
100
AcDbEntity
  8
16
  6
Continuous
 62
     3
370
    25
100
AcDbLine
 10
-68.15999586224552
 20
-18.6999983638525
 30
0.0
 11
-68.15999586224552
 21
51.50000268220901
 31
0.0
  0
LINE
  5
241
330
1F
100
AcDbEntity
  8
16
  6
Continuous
 62
     3
370
    25
100
AcDbLine
 10
-65.75999582648274
 20
-18.6999983638525
 30
0.0
 11
-65.75999582648274
 21
51.50000268220901
 31
0.0
  0
LINE
  5
242
330
1F
100
AcDbEntity
  8
16
  6
Continuous
 62
     3
370
    25
100
AcDbLine
 10
-66.95999584436413
 20
-17.69999834895134
 30
0.0
 11
-66.95999584436413
 21
50.50000266730785
 31
0.0
  0
LINE
  5
243
330
1F
100
AcDbEntity
  8
16
  6
Continuous
 62
     3
370
    25
100
AcDbLine
 10
-63.38000311523683
 20
-18.6999983638525
 30
0.0
 11
-63.38000311523683
 21
51.50000268220901
 31
0.0
  0
LINE
  5
244
330
1F
100
AcDbEntity
  8
16
  6
Continuous
 62
     3
370
    25
100
AcDbLine
 10
-63.38000311523683
 20
-18.6999983638525
 30
0.0
 11
-59.38000305563219
 21
-18.6999983638525
 31
0.0
  0
LINE
  5
245
330
1F
100
AcDbEntity
  8
16
  6
Continuous
 62
     3
370
    25
100
AcDbLine
 10
-59.38000305563219
 20
-18.6999983638525
 30
0.0
 11
-59.38000305563219
 21
51.50000268220901
 31
0.0
  0
LINE
  5
246
330
1F
100
AcDbEntity
  8
16
  6
Continuous
 62
     3
370
    25
100
AcDbLine
 10
-63.38000311523683
 20
51.50000268220901
 30
0.0
 11
-59.38000305563219
 21
51.50000268220901
 31
0.0
  0
LINE
  5
247
330
1F
100
AcDbEntity
  8
16
  6
Continuous
 62
     3
370
    25
100
AcDbLine
 10
-62.5800031033159
 20
-18.6999983638525
 30
0.0
 11
-62.5800031033159
 21
51.50000268220901
 31
0.0
  0
LINE
  5
248
330
1F
100
AcDbEntity
  8
16
  6
Continuous
 62
     3
370
    25
100
AcDbLine
 10
-60.18000306755313
 20
-18.6999983638525
 30
0.0
 11
-60.18000306755313
 21
51.50000268220901
 31
0.0
  0
LINE
  5
249
330
1F
100
AcDbEntity
  8
16
  6
Continuous
 62
     3
370
    25
100
AcDbLine
 10
-61.38000308543451
 20
-17.69999834895134
 30
0.0
 11
-61.38000308543451
 21
50.50000266730785
 31
0.0
  0
LINE
  5
24A
330
1F
100
AcDbEntity
  8
16
  6
Continuous
 62
     3
370
    25
100
AcDbLine
 10
-57.79999814927578
 20
-18.6999983638525
 30
0.0
 11
-57.79999814927578
 21
51.50000268220901
 31
0.0
  0
LINE
  5
24B
330
1F
100
AcDbEntity
  8
16
  6
Continuous
 62
     3
370
    25
100
AcDbLine
 10
-57.79999814927578
 20
-18.6999983638525
 30
0.0
 11
-53.79999808967113
 21
-18.6999983638525
 31
0.0
  0
LINE
  5
24C
330
1F
100
AcDbEntity
  8
16
  6
Continuous
 62
     3
370
    25
100
AcDbLine
 10
-53.79999808967113
 20
-18.6999983638525
 30
0.0
 11
-53.79999808967113
 21
51.50000268220901
 31
0.0
  0
LINE
  5
24D
330
1F
100
AcDbEntity
  8
16
  6
Continuous
 62
     3
370
    25
100
AcDbLine
 10
-57.79999814927578
 20
51.50000268220901
 30
0.0
 11
-53.79999808967113
 21
51.50000268220901
 31
0.0
  0
LINE
  5
24E
330
1F
100
AcDbEntity
  8
16
  6
Continuous
 62
     3
370
    25
100
AcDbLine
 10
-56.99999813735485
 20
-18.6999983638525
 30
0.0
 11
-56.99999813735485
 21
51.50000268220901
 31
0.0
  0
LINE
  5
24F
330
1F
100
AcDbEntity
  8
16
  6
Continuous
 62
     3
370
    25
100
AcDbLine
 10
-54.59999810159206
 20
-18.6999983638525
 30
0.0
 11
-54.59999810159206
 21
51.50000268220901
 31
0.0
  0
LINE
  5
250
330
1F
100
AcDbEntity
  8
16
  6
Continuous
 62
     3
370
    25
100
AcDbLine
 10
-55.79999811947346
 20
-17.69999834895134
 30
0.0
 11
-55.79999811947346
 21
50.50000266730785
 31
0.0
  0
LINE
  5
251
330
1F
100
AcDbEntity
  8
16
  6
Continuous
 62
     3
370
    25
100
AcDbLine
 10
-52.21999318331473
 20
-18.6999983638525
 30
0.0
 11
-52.21999318331473
 21
51.50000268220901
 31
0.0
  0
LINE
  5
252
330
1F
100
AcDbEntity
  8
16
  6
Continuous
 62
     3
370
    25
100
AcDbLine
 10
-52.21999318331473
 20
-18.6999983638525
 30
0.0
 11
-48.21999312371008
 21
-18.6999983638525
 31
0.0
  0
LINE
  5
253
330
1F
100
AcDbEntity
  8
16
  6
Continuous
 62
     3
370
    25
100
AcDbLine
 10
-48.21999312371008
 20
-18.6999983638525
 30
0.0
 11
-48.21999312371008
 21
51.50000268220901
 31
0.0
  0
LINE
  5
254
330
1F
100
AcDbEntity
  8
16
  6
Continuous
 62
     3
370
    25
100
AcDbLine
 10
-52.21999318331473
 20
51.50000268220901
 30
0.0
 11
-48.21999312371008
 21
51.50000268220901
 31
0.0
  0
LINE
  5
255
330
1F
100
AcDbEntity
  8
16
  6
Continuous
 62
     3
370
    25
100
AcDbLine
 10
-51.4199931713938
 20
-18.6999983638525
 30
0.0
 11
-51.4199931713938
 21
51.50000268220901
 31
0.0
  0
LINE
  5
256
330
1F
100
AcDbEntity
  8
16
  6
Continuous
 62
     3
370
    25
100
AcDbLine
 10
-49.01999313563101
 20
-18.6999983638525
 30
0.0
 11
-49.01999313563101
 21
51.50000268220901
 31
0.0
  0
LINE
  5
257
330
1F
100
AcDbEntity
  8
16
  6
Continuous
 62
     3
370
    25
100
AcDbLine
 10
-50.21999315351241
 20
-17.69999834895134
 30
0.0
 11
-50.21999315351241
 21
50.50000266730785
 31
0.0
  0
LINE
  5
258
330
1F
100
AcDbEntity
  8
16
  6
Continuous
 62
     3
370
    25
100
AcDbLine
 10
-46.69999798387289
 20
-18.6999983638525
 30
0.0
 11
-46.69999798387289
 21
51.50000268220901
 31
0.0
  0
LINE
  5
259
330
1F
100
AcDbEntity
  8
16
  6
Continuous
 62
     3
370
    25
100
AcDbLine
 10
-46.69999798387289
 20
-18.6999983638525
 30
0.0
 11
-42.69999792426825
 21
-18.6999983638525
 31
0.0
  0
LINE
  5
25A
330
1F
100
AcDbEntity
  8
16
  6
Continuous
 62
     3
370
    25
100
AcDbLine
 10
-42.69999792426825
 20
-18.6999983638525
 30
0.0
 11
-42.69999792426825
 21
51.50000268220901
 31
0.0
  0
LINE
  5
25B
330
1F
100
AcDbEntity
  8
16
  6
Continuous
 62
     3
370
    25
100
AcDbLine
 10
-46.69999798387289
 20
51.50000268220901
 30
0.0
 11
-42.69999792426825
 21
51.50000268220901
 31
0.0
  0
LINE
  5
25C
330
1F
100
AcDbEntity
  8
16
  6
Continuous
 62
     3
370
    25
100
AcDbLine
 10
-45.89999797195196
 20
-18.6999983638525
 30
0.0
 11
-45.89999797195196
 21
51.50000268220901
 31
0.0
  0
LINE
  5
25D
330
1F
100
AcDbEntity
  8
16
  6
Continuous
 62
     3
370
    25
100
AcDbLine
 10
-43.49999793618917
 20
-18.6999983638525
 30
0.0
 11
-43.49999793618917
 21
51.50000268220901
 31
0.0
  0
LINE
  5
25E
330
1F
100
AcDbEntity
  8
16
  6
Continuous
 62
     3
370
    25
100
AcDbLine
 10
-44.69999795407057
 20
-17.69999834895134
 30
0.0
 11
-44.69999795407057
 21
50.50000266730785
 31
0.0
  0
LINE
  5
25F
330
1F
100
AcDbEntity
  8
16
  6
Continuous
 62
     3
370
    25
100
AcDbLine
 10
-137.4999993368983
 20
43.50000256299973
 30
0.0
 11
-135.919999294281
 21
43.50000256299973
 31
0.0
  0
LINE
  5
260
330
1F
100
AcDbEntity
  8
16
  6
Continuous
 62
     3
370
    25
100
AcDbLine
 10
-131.920000474453
 20
43.50000256299973
 30
0.0
 11
-130.3400004318357
 21
43.50000256299973
 31
0.0
  0
LINE
  5
261
330
1F
100
AcDbEntity
  8
16
  6
Continuous
 62
     3
370
    25
100
AcDbLine
 10
-126.3400016120076
 20
43.50000256299973
 30
0.0
 11
-124.7600015693903
 21
43.50000256299973
 31
0.0
  0
LINE
  5
262
330
1F
100
AcDbEntity
  8
16
  6
Continuous
 62
     3
370
    25
100
AcDbLine
 10
-120.7599966460466
 20
43.50000256299973
 30
0.0
 11
-119.1799966034293
 21
43.50000256299973
 31
0.0
  0
LINE
  5
263
330
1F
100
AcDbEntity
  8
16
  6
Continuous
 62
     3
370
    25
100
AcDbLine
 10
-115.1799977836013
 20
43.50000256299973
 30
0.0
 11
-113.5999977409839
 21
43.50000256299973
 31
0.0
  0
LINE
  5
264
330
1F
100
AcDbEntity
  8
16
  6
Continuous
 62
     3
370
    25
100
AcDbLine
 10
-109.5999989211559
 20
43.50000256299973
 30
0.0
 11
-108.0199988785386
 21
43.50000256299973
 31
0.0
  0
LINE
  5
265
330
1F
100
AcDbEntity
  8
16
  6
Continuous
 62
     3
370
    25
100
AcDbLine
 10
-104.0200000587106
 20
43.50000256299973
 30
0.0
 11
-102.4400000160933
 21
43.50000256299973
 31
0.0
  0
LINE
  5
266
330
1F
100
AcDbEntity
  8
16
  6
Continuous
 62
     3
370
    25
100
AcDbLine
 10
-98.44000119626526
 20
43.50000256299973
 30
0.0
 11
-96.86000115364794
 21
43.50000256299973
 31
0.0
  0
LINE
  5
267
330
1F
100
AcDbEntity
  8
16
  6
Continuous
 62
     3
370
    25
100
AcDbLine
 10
-92.8599962303042
 20
43.50000256299973
 30
0.0
 11
-91.27999618768689
 21
43.50000256299973
 31
0.0
  0
LINE
  5
268
330
1F
100
AcDbEntity
  8
16
  6
Continuous
 62
     3
370
    25
100
AcDbLine
 10
-87.27999736785887
 20
43.50000256299973
 30
0.0
 11
-85.69999732524155
 21
43.50000256299973
 31
0.0
  0
LINE
  5
269
330
1F
100
AcDbEntity
  8
16
  6
Continuous
 62
     3
370
    25
100
AcDbLine
 10
-81.69999850541353
 20
43.50000256299973
 30
0.0
 11
-80.11999846279622
 21
43.50000256299973
 31
0.0
  0
LINE
  5
26A
330
1F
100
AcDbEntity
  8
16
  6
Continuous
 62
     3
370
    25
100
AcDbLine
 10
-76.11999353945248
 20
43.50000256299973
 30
0.0
 11
-74.53999349683517
 21
43.50000256299973
 31
0.0
  0
LINE
  5
26B
330
1F
100
AcDbEntity
  8
16
  6
Continuous
 62
     3
370
    25
100
AcDbLine
 10
-70.54000078052286
 20
43.50000256299973
 30
0.0
 11
-68.96000073790555
 21
43.50000256299973
 31
0.0
  0
LINE
  5
26C
330
1F
100
AcDbEntity
  8
16
  6
Continuous
 62
     3
370
    25
100
AcDbLine
 10
-64.95999581456181
 20
43.50000256299973
 30
0.0
 11
-63.37999577194449
 21
43.50000256299973
 31
0.0
  0
LINE
  5
26D
330
1F
100
AcDbEntity
  8
16
  6
Continuous
 62
     3
370
    25
100
AcDbLine
 10
-59.38000305563219
 20
43.50000256299973
 30
0.0
 11
-57.80000301301487
 21
43.50000256299973
 31
0.0
  0
LINE
  5
26E
330
1F
100
AcDbEntity
  8
16
  6
Continuous
 62
     3
370
    25
100
AcDbLine
 10
-53.79999808967113
 20
43.50000256299973
 30
0.0
 11
-52.21999804705381
 21
43.50000256299973
 31
0.0
  0
LINE
  5
26F
330
1F
100
AcDbEntity
  8
16
  6
Continuous
 62
     3
370
    25
100
AcDbLine
 10
-48.21999312371008
 20
43.50000256299973
 30
0.0
 11
-46.63999308109277
 21
43.50000256299973
 31
0.0
  0
LINE
  5
270
330
1F
100
AcDbEntity
  8
16
  6
Continuous
 62
     3
370
    25
100
AcDbLine
 10
-137.4999993368983
 20
-10.69999824464321
 30
0.0
 11
-135.919999294281
 21
-10.69999824464321
 31
0.0
  0
LINE
  5
271
330
1F
100
AcDbEntity
  8
16
  6
Continuous
 62
     3
370
    25
100
AcDbLine
 10
-131.920000474453
 20
-10.69999824464321
 30
0.0
 11
-130.3400004318357
 21
-10.69999824464321
 31
0.0
  0
LINE
  5
272
330
1F
100
AcDbEntity
  8
16
  6
Continuous
 62
     3
370
    25
100
AcDbLine
 10
-126.3400016120076
 20
-10.69999824464321
 30
0.0
 11
-124.7600015693903
 21
-10.69999824464321
 31
0.0
  0
LINE
  5
273
330
1F
100
AcDbEntity
  8
16
  6
Continuous
 62
     3
370
    25
100
AcDbLine
 10
-120.7599966460466
 20
-10.69999824464321
 30
0.0
 11
-119.1799966034293
 21
-10.69999824464321
 31
0.0
  0
LINE
  5
274
330
1F
100
AcDbEntity
  8
16
  6
Continuous
 62
     3
370
    25
100
AcDbLine
 10
-115.1799977836013
 20
-10.69999824464321
 30
0.0
 11
-113.5999977409839
 21
-10.69999824464321
 31
0.0
  0
LINE
  5
275
330
1F
100
AcDbEntity
  8
16
  6
Continuous
 62
     3
370
    25
100
AcDbLine
 10
-109.5999989211559
 20
-10.69999824464321
 30
0.0
 11
-108.0199988785386
 21
-10.69999824464321
 31
0.0
  0
LINE
  5
276
330
1F
100
AcDbEntity
  8
16
  6
Continuous
 62
     3
370
    25
100
AcDbLine
 10
-104.0200000587106
 20
-10.69999824464321
 30
0.0
 11
-102.4400000160933
 21
-10.69999824464321
 31
0.0
  0
LINE
  5
277
330
1F
100
AcDbEntity
  8
16
  6
Continuous
 62
     3
370
    25
100
AcDbLine
 10
-98.44000119626526
 20
-10.69999824464321
 30
0.0
 11
-96.86000115364794
 21
-10.69999824464321
 31
0.0
  0
LINE
  5
278
330
1F
100
AcDbEntity
  8
16
  6
Continuous
 62
     3
370
    25
100
AcDbLine
 10
-92.8599962303042
 20
-10.69999824464321
 30
0.0
 11
-91.27999618768689
 21
-10.69999824464321
 31
0.0
  0
LINE
  5
279
330
1F
100
AcDbEntity
  8
16
  6
Continuous
 62
     3
370
    25
100
AcDbLine
 10
-87.27999736785887
 20
-10.69999824464321
 30
0.0
 11
-85.69999732524155
 21
-10.69999824464321
 31
0.0
  0
LINE
  5
27A
330
1F
100
AcDbEntity
  8
16
  6
Continuous
 62
     3
370
    25
100
AcDbLine
 10
-81.69999850541353
 20
-10.69999824464321
 30
0.0
 11
-80.11999846279622
 21
-10.69999824464321
 31
0.0
  0
LINE
  5
27B
330
1F
100
AcDbEntity
  8
16
  6
Continuous
 62
     3
370
    25
100
AcDbLine
 10
-76.11999353945248
 20
-10.69999824464321
 30
0.0
 11
-74.53999349683517
 21
-10.69999824464321
 31
0.0
  0
LINE
  5
27C
330
1F
100
AcDbEntity
  8
16
  6
Continuous
 62
     3
370
    25
100
AcDbLine
 10
-70.54000078052286
 20
-10.69999824464321
 30
0.0
 11
-68.96000073790555
 21
-10.69999824464321
 31
0.0
  0
LINE
  5
27D
330
1F
100
AcDbEntity
  8
16
  6
Continuous
 62
     3
370
    25
100
AcDbLine
 10
-64.95999581456181
 20
-10.69999824464321
 30
0.0
 11
-63.37999577194449
 21
-10.69999824464321
 31
0.0
  0
LINE
  5
27E
330
1F
100
AcDbEntity
  8
16
  6
Continuous
 62
     3
370
    25
100
AcDbLine
 10
-59.38000305563219
 20
-10.69999824464321
 30
0.0
 11
-57.80000301301487
 21
-10.69999824464321
 31
0.0
  0
LINE
  5
27F
330
1F
100
AcDbEntity
  8
16
  6
Continuous
 62
     3
370
    25
100
AcDbLine
 10
-53.79999808967113
 20
-10.69999824464321
 30
0.0
 11
-52.21999804705381
 21
-10.69999824464321
 31
0.0
  0
LINE
  5
280
330
1F
100
AcDbEntity
  8
16
  6
Continuous
 62
     3
370
    25
100
AcDbLine
 10
-48.21999312371008
 20
-10.69999824464321
 30
0.0
 11
-46.63999308109277
 21
-10.69999824464321
 31
0.0
  0
LINE
  5
281
330
1F
100
AcDbEntity
  8
16
  6
Continuous
 62
     3
370
    25
100
AcDbLine
 10
-140.7040037874328
 20
-64.02253268217855
 30
0.0
 11
-140.7040037874328
 21
-63.97653268065864
 31
0.0
  0
ARC
  5
282
330
1F
100
AcDbEntity
  8
16
  6
Continuous
 62
     3
370
    25
100
AcDbCircle
 10
-140.9937277856513
 20
-63.98918230096905
 30
0.0
 40
0.2900000138580801
100
AcDbArc
 50
2.500000000000006
 51
85.55000000000018
  0
ARC
  5
283
330
1F
100
AcDbEntity
  8
16
  6
Continuous
 62
     3
370
    25
100
AcDbCircle
 10
-138.010396108728
 20
-63.9891820418832
 30
0.0
 40
0.2900000138580801
100
AcDbArc
 50
94.45000000000022
 51
177.5000000000004
  0
LINE
  5
284
330
1F
100
AcDbEntity
  8
16
  6
Continuous
 62
     3
370
    25
100
AcDbLine
 10
-138.3001200986787
 20
-63.97653223221214
 30
0.0
 11
-138.3001200986787
 21
-64.02253223373206
 31
0.0
  0
LINE
  5
285
330
1F
100
AcDbEntity
  8
16
  6
Continuous
 62
     3
370
    25
100
AcDbLine
 10
-135.1240049249875
 20
-64.02253268217855
 30
0.0
 11
-135.1240049249875
 21
-63.97653268065864
 31
0.0
  0
ARC
  5
286
330
1F
100
AcDbEntity
  8
16
  6
Continuous
 62
     3
370
    25
100
AcDbCircle
 10
-135.4137289232059
 20
-63.98918230096905
 30
0.0
 40
0.2900000138580801
100
AcDbArc
 50
2.500000000000006
 51
85.55000000000018
  0
ARC
  5
287
330
1F
100
AcDbEntity
  8
16
  6
Continuous
 62
     3
370
    25
100
AcDbCircle
 10
-132.4303972462826
 20
-63.9891820418832
 30
0.0
 40
0.2900000138580801
100
AcDbArc
 50
94.45000000000022
 51
177.5000000000004
  0
LINE
  5
288
330
1F
100
AcDbEntity
  8
16
  6
Continuous
 62
     3
370
    25
100
AcDbLine
 10
-132.7201212362334
 20
-63.97653223221214
 30
0.0
 11
-132.7201212362334
 21
-64.02253223373206
 31
0.0
  0
LINE
  5
289
330
1F
100
AcDbEntity
  8
16
  6
Continuous
 62
     3
370
    25
100
AcDbLine
 10
-129.5440060625421
 20
-64.02253268217855
 30
0.0
 11
-129.5440060625421
 21
-63.97653268065864
 31
0.0
  0
ARC
  5
28A
330
1F
100
AcDbEntity
  8
16
  6
Continuous
 62
     3
370
    25
100
AcDbCircle
 10
-129.8337300607606
 20
-63.98918230096905
 30
0.0
 40
0.2900000138580801
100
AcDbArc
 50
2.500000000000006
 51
85.55000000000018
  0
ARC
  5
28B
330
1F
100
AcDbEntity
  8
16
  6
Continuous
 62
     3
370
    25
100
AcDbCircle
 10
-126.8503983838373
 20
-63.9891820418832
 30
0.0
 40
0.2900000138580801
100
AcDbArc
 50
94.45000000000022
 51
177.5000000000004
  0
LINE
  5
28C
330
1F
100
AcDbEntity
  8
16
  6
Continuous
 62
     3
370
    25
100
AcDbLine
 10
-127.140122373788
 20
-63.97653223221214
 30
0.0
 11
-127.140122373788
 21
-64.02253223373206
 31
0.0
  0
LINE
  5
28D
330
1F
100
AcDbEntity
  8
16
  6
Continuous
 62
     3
370
    25
100
AcDbLine
 10
-123.9640010965811
 20
-64.02253268217855
 30
0.0
 11
-123.9640010965811
 21
-63.97653268065864
 31
0.0
  0
ARC
  5
28E
330
1F
100
AcDbEntity
  8
16
  6
Continuous
 62
     3
370
    25
100
AcDbCircle
 10
-124.2537250947995
 20
-63.98918230096905
 30
0.0
 40
0.2900000138580801
100
AcDbArc
 50
2.500000000000006
 51
85.55000000000018
  0
ARC
  5
28F
330
1F
100
AcDbEntity
  8
16
  6
Continuous
 62
     3
370
    25
100
AcDbCircle
 10
-121.2703934178762
 20
-63.9891820418832
 30
0.0
 40
0.2900000138580801
100
AcDbArc
 50
94.45000000000022
 51
177.5000000000004
  0
LINE
  5
290
330
1F
100
AcDbEntity
  8
16
  6
Continuous
 62
     3
370
    25
100
AcDbLine
 10
-121.560117407827
 20
-63.97653223221214
 30
0.0
 11
-121.560117407827
 21
-64.02253223373206
 31
0.0
  0
LINE
  5
291
330
1F
100
AcDbEntity
  8
16
  6
Continuous
 62
     3
370
    25
100
AcDbLine
 10
-118.3840022341357
 20
-64.02253268217855
 30
0.0
 11
-118.3840022341357
 21
-63.97653268065864
 31
0.0
  0
ARC
  5
292
330
1F
100
AcDbEntity
  8
16
  6
Continuous
 62
     3
370
    25
100
AcDbCircle
 10
-118.6737262323542
 20
-63.98918230096905
 30
0.0
 40
0.2900000138580801
100
AcDbArc
 50
2.500000000000006
 51
85.55000000000018
  0
ARC
  5
293
330
1F
100
AcDbEntity
  8
16
  6
Continuous
 62
     3
370
    25
100
AcDbCircle
 10
-115.6903945554309
 20
-63.9891820418832
 30
0.0
 40
0.2900000138580801
100
AcDbArc
 50
94.45000000000022
 51
177.5000000000004
  0
LINE
  5
294
330
1F
100
AcDbEntity
  8
16
  6
Continuous
 62
     3
370
    25
100
AcDbLine
 10
-115.9801185453816
 20
-63.97653223221214
 30
0.0
 11
-115.9801185453816
 21
-64.02253223373206
 31
0.0
  0
LINE
  5
295
330
1F
100
AcDbEntity
  8
16
  6
Continuous
 62
     3
370
    25
100
AcDbLine
 10
-112.8040033716904
 20
-64.02253268217855
 30
0.0
 11
-112.8040033716904
 21
-63.97653268065864
 31
0.0
  0
ARC
  5
296
330
1F
100
AcDbEntity
  8
16
  6
Continuous
 62
     3
370
    25
100
AcDbCircle
 10
-113.0937273699089
 20
-63.98918230096905
 30
0.0
 40
0.2900000138580801
100
AcDbArc
 50
2.500000000000006
 51
85.55000000000018
  0
ARC
  5
297
330
1F
100
AcDbEntity
  8
16
  6
Continuous
 62
     3
370
    25
100
AcDbCircle
 10
-110.1103956929856
 20
-63.9891820418832
 30
0.0
 40
0.2900000138580801
100
AcDbArc
 50
94.45000000000022
 51
177.5000000000004
  0
LINE
  5
298
330
1F
100
AcDbEntity
  8
16
  6
Continuous
 62
     3
370
    25
100
AcDbLine
 10
-110.4001196829363
 20
-63.97653223221214
 30
0.0
 11
-110.4001196829363
 21
-64.02253223373206
 31
0.0
  0
LINE
  5
299
330
1F
100
AcDbEntity
  8
16
  6
Continuous
 62
     3
370
    25
100
AcDbLine
 10
-107.2240045092451
 20
-64.02253268217855
 30
0.0
 11
-107.2240045092451
 21
-63.97653268065864
 31
0.0
  0
ARC
  5
29A
330
1F
100
AcDbEntity
  8
16
  6
Continuous
 62
     3
370
    25
100
AcDbCircle
 10
-107.5137285074635
 20
-63.98918230096905
 30
0.0
 40
0.2900000138580801
100
AcDbArc
 50
2.500000000000006
 51
85.55000000000018
  0
ARC
  5
29B
330
1F
100
AcDbEntity
  8
16
  6
Continuous
 62
     3
370
    25
100
AcDbCircle
 10
-104.5303968305402
 20
-63.9891820418832
 30
0.0
 40
0.2900000138580801
100
AcDbArc
 50
94.45000000000022
 51
177.5000000000004
  0
LINE
  5
29C
330
1F
100
AcDbEntity
  8
16
  6
Continuous
 62
     3
370
    25
100
AcDbLine
 10
-104.820120820491
 20
-63.97653223221214
 30
0.0
 11
-104.820120820491
 21
-64.02253223373206
 31
0.0
  0
LINE
  5
29D
330
1F
100
AcDbEntity
  8
16
  6
Continuous
 62
     3
370
    25
100
AcDbLine
 10
-101.6440056467997
 20
-64.02253268217855
 30
0.0
 11
-101.6440056467997
 21
-63.97653268065864
 31
0.0
  0
ARC
  5
29E
330
1F
100
AcDbEntity
  8
16
  6
Continuous
 62
     3
370
    25
100
AcDbCircle
 10
-101.9337296450182
 20
-63.98918230096905
 30
0.0
 40
0.2900000138580801
100
AcDbArc
 50
2.500000000000006
 51
85.55000000000018
  0
ARC
  5
29F
330
1F
100
AcDbEntity
  8
16
  6
Continuous
 62
     3
370
    25
100
AcDbCircle
 10
-98.95039796809489
 20
-63.9891820418832
 30
0.0
 40
0.2900000138580801
100
AcDbArc
 50
94.45000000000022
 51
177.5000000000004
  0
LINE
  5
2A0
330
1F
100
AcDbEntity
  8
16
  6
Continuous
 62
     3
370
    25
100
AcDbLine
 10
-99.24012195804562
 20
-63.97653223221214
 30
0.0
 11
-99.24012195804562
 21
-64.02253223373206
 31
0.0
  0
LINE
  5
2A1
330
1F
100
AcDbEntity
  8
16
  6
Continuous
 62
     3
370
    25
100
AcDbLine
 10
-96.06400068083867
 20
-64.02253268217855
 30
0.0
 11
-96.06400068083867
 21
-63.97653268065864
 31
0.0
  0
ARC
  5
2A2
330
1F
100
AcDbEntity
  8
16
  6
Continuous
 62
     3
370
    25
100
AcDbCircle
 10
-96.35372467905714
 20
-63.98918230096905
 30
0.0
 40
0.2900000138580801
100
AcDbArc
 50
2.500000000000006
 51
85.55000000000018
  0
ARC
  5
2A3
330
1F
100
AcDbEntity
  8
16
  6
Continuous
 62
     3
370
    25
100
AcDbCircle
 10
-93.37039300213384
 20
-63.9891820418832
 30
0.0
 40
0.2900000138580801
100
AcDbArc
 50
94.45000000000022
 51
177.5000000000004
  0
LINE
  5
2A4
330
1F
100
AcDbEntity
  8
16
  6
Continuous
 62
     3
370
    25
100
AcDbLine
 10
-93.66011699208457
 20
-63.97653223221214
 30
0.0
 11
-93.66011699208457
 21
-64.02253223373206
 31
0.0
  0
LINE
  5
2A5
330
1F
100
AcDbEntity
  8
16
  6
Continuous
 62
     3
370
    25
100
AcDbLine
 10
-90.48400181839337
 20
-64.02253268217855
 30
0.0
 11
-90.48400181839337
 21
-63.97653268065864
 31
0.0
  0
ARC
  5
2A6
330
1F
100
AcDbEntity
  8
16
  6
Continuous
 62
     3
370
    25
100
AcDbCircle
 10
-90.77372581661183
 20
-63.98918230096905
 30
0.0
 40
0.2900000138580801
100
AcDbArc
 50
2.500000000000006
 51
85.55000000000018
  0
ARC
  5
2A7
330
1F
100
AcDbEntity
  8
16
  6
Continuous
 62
     3
370
    25
100
AcDbCircle
 10
-87.7903941396885
 20
-63.9891820418832
 30
0.0
 40
0.2900000138580801
100
AcDbArc
 50
94.45000000000022
 51
177.5000000000004
  0
LINE
  5
2A8
330
1F
100
AcDbEntity
  8
16
  6
Continuous
 62
     3
370
    25
100
AcDbLine
 10
-88.08011812963923
 20
-63.97653223221214
 30
0.0
 11
-88.08011812963923
 21
-64.02253223373206
 31
0.0
  0
LINE
  5
2A9
330
1F
100
AcDbEntity
  8
16
  6
Continuous
 62
     3
370
    25
100
AcDbLine
 10
-84.90400295594803
 20
-64.02253268217855
 30
0.0
 11
-84.90400295594803
 21
-63.97653268065864
 31
0.0
  0
ARC
  5
2AA
330
1F
100
AcDbEntity
  8
16
  6
Continuous
 62
     3
370
    25
100
AcDbCircle
 10
-85.19372695416646
 20
-63.98918230096905
 30
0.0
 40
0.2900000138580801
100
AcDbArc
 50
2.500000000000006
 51
85.55000000000018
  0
ARC
  5
2AB
330
1F
100
AcDbEntity
  8
16
  6
Continuous
 62
     3
370
    25
100
AcDbCircle
 10
-82.21039527724317
 20
-63.9891820418832
 30
0.0
 40
0.2900000138580801
100
AcDbArc
 50
94.45000000000022
 51
177.5000000000004
  0
LINE
  5
2AC
330
1F
100
AcDbEntity
  8
16
  6
Continuous
 62
     3
370
    25
100
AcDbLine
 10
-82.5001192671939
 20
-63.97653223221214
 30
0.0
 11
-82.5001192671939
 21
-64.02253223373206
 31
0.0
  0
LINE
  5
2AD
330
1F
100
AcDbEntity
  8
16
  6
Continuous
 62
     3
370
    25
100
AcDbLine
 10
-79.3240040935027
 20
-64.02253268217855
 30
0.0
 11
-79.3240040935027
 21
-63.97653268065864
 31
0.0
  0
ARC
  5
2AE
330
1F
100
AcDbEntity
  8
16
  6
Continuous
 62
     3
370
    25
100
AcDbCircle
 10
-79.61372809172113
 20
-63.98918230096905
 30
0.0
 40
0.2900000138580801
100
AcDbArc
 50
2.500000000000006
 51
85.55000000000018
  0
ARC
  5
2AF
330
1F
100
AcDbEntity
  8
16
  6
Continuous
 62
     3
370
    25
100
AcDbCircle
 10
-76.63039641479783
 20
-63.9891820418832
 30
0.0
 40
0.2900000138580801
100
AcDbArc
 50
94.45000000000022
 51
177.5000000000004
  0
LINE
  5
2B0
330
1F
100
AcDbEntity
  8
16
  6
Continuous
 62
     3
370
    25
100
AcDbLine
 10
-76.92012040474856
 20
-63.97653223221214
 30
0.0
 11
-76.92012040474856
 21
-64.02253223373206
 31
0.0
  0
LINE
  5
2B1
330
1F
100
AcDbEntity
  8
16
  6
Continuous
 62
     3
370
    25
100
AcDbLine
 10
-73.74400523105736
 20
-64.02253268217855
 30
0.0
 11
-73.74400523105736
 21
-63.97653268065864
 31
0.0
  0
ARC
  5
2B2
330
1F
100
AcDbEntity
  8
16
  6
Continuous
 62
     3
370
    25
100
AcDbCircle
 10
-74.0337292292758
 20
-63.98918230096905
 30
0.0
 40
0.2900000138580801
100
AcDbArc
 50
2.500000000000006
 51
85.55000000000018
  0
ARC
  5
2B3
330
1F
100
AcDbEntity
  8
16
  6
Continuous
 62
     3
370
    25
100
AcDbCircle
 10
-71.05039755235249
 20
-63.9891820418832
 30
0.0
 40
0.2900000138580801
100
AcDbArc
 50
94.45000000000022
 51
177.5000000000004
  0
LINE
  5
2B4
330
1F
100
AcDbEntity
  8
16
  6
Continuous
 62
     3
370
    25
100
AcDbLine
 10
-71.34012154230324
 20
-63.97653223221214
 30
0.0
 11
-71.34012154230324
 21
-64.02253223373206
 31
0.0
  0
LINE
  5
2B5
330
1F
100
AcDbEntity
  8
16
  6
Continuous
 62
     3
370
    25
100
AcDbLine
 10
-68.1640002650963
 20
-64.02253268217855
 30
0.0
 11
-68.1640002650963
 21
-63.97653268065864
 31
0.0
  0
ARC
  5
2B6
330
1F
100
AcDbEntity
  8
16
  6
Continuous
 62
     3
370
    25
100
AcDbCircle
 10
-68.45372426331474
 20
-63.98918230096905
 30
0.0
 40
0.2900000138580801
100
AcDbArc
 50
2.500000000000006
 51
85.55000000000018
  0
ARC
  5
2B7
330
1F
100
AcDbEntity
  8
16
  6
Continuous
 62
     3
370
    25
100
AcDbCircle
 10
-65.47039258639144
 20
-63.9891820418832
 30
0.0
 40
0.2900000138580801
100
AcDbArc
 50
94.45000000000022
 51
177.5000000000004
  0
LINE
  5
2B8
330
1F
100
AcDbEntity
  8
16
  6
Continuous
 62
     3
370
    25
100
AcDbLine
 10
-65.76011657634217
 20
-63.97653223221214
 30
0.0
 11
-65.76011657634217
 21
-64.02253223373206
 31
0.0
  0
LINE
  5
2B9
330
1F
100
AcDbEntity
  8
16
  6
Continuous
 62
     3
370
    25
100
AcDbLine
 10
-62.58400750616668
 20
-64.02253268217855
 30
0.0
 11
-62.58400750616668
 21
-63.97653268065864
 31
0.0
  0
ARC
  5
2BA
330
1F
100
AcDbEntity
  8
16
  6
Continuous
 62
     3
370
    25
100
AcDbCircle
 10
-62.87373150438512
 20
-63.98918230096905
 30
0.0
 40
0.2900000138580801
100
AcDbArc
 50
2.500000000000006
 51
85.55000000000018
  0
ARC
  5
2BB
330
1F
100
AcDbEntity
  8
16
  6
Continuous
 62
     3
370
    25
100
AcDbCircle
 10
-59.89039982746182
 20
-63.9891820418832
 30
0.0
 40
0.2900000138580801
100
AcDbArc
 50
94.45000000000022
 51
177.5000000000004
  0
LINE
  5
2BC
330
1F
100
AcDbEntity
  8
16
  6
Continuous
 62
     3
370
    25
100
AcDbLine
 10
-60.18012381741255
 20
-63.97653223221214
 30
0.0
 11
-60.18012381741255
 21
-64.02253223373206
 31
0.0
  0
LINE
  5
2BD
330
1F
100
AcDbEntity
  8
16
  6
Continuous
 62
     3
370
    25
100
AcDbLine
 10
-57.00400254020562
 20
-64.02253268217855
 30
0.0
 11
-57.00400254020562
 21
-63.97653268065864
 31
0.0
  0
ARC
  5
2BE
330
1F
100
AcDbEntity
  8
16
  6
Continuous
 62
     3
370
    25
100
AcDbCircle
 10
-57.29372653842407
 20
-63.98918230096905
 30
0.0
 40
0.2900000138580801
100
AcDbArc
 50
2.500000000000006
 51
85.55000000000018
  0
ARC
  5
2BF
330
1F
100
AcDbEntity
  8
16
  6
Continuous
 62
     3
370
    25
100
AcDbCircle
 10
-54.31039486150077
 20
-63.9891820418832
 30
0.0
 40
0.2900000138580801
100
AcDbArc
 50
94.45000000000022
 51
177.5000000000004
  0
LINE
  5
2C0
330
1F
100
AcDbEntity
  8
16
  6
Continuous
 62
     3
370
    25
100
AcDbLine
 10
-54.6001188514515
 20
-63.97653223221214
 30
0.0
 11
-54.6001188514515
 21
-64.02253223373206
 31
0.0
  0
LINE
  5
2C1
330
1F
100
AcDbEntity
  8
16
  6
Continuous
 62
     3
370
    25
100
AcDbLine
 10
-51.42399757424457
 20
-64.02253268217855
 30
0.0
 11
-51.42399757424457
 21
-63.97653268065864
 31
0.0
  0
ARC
  5
2C2
330
1F
100
AcDbEntity
  8
16
  6
Continuous
 62
     3
370
    25
100
AcDbCircle
 10
-51.71372157246302
 20
-63.98918230096905
 30
0.0
 40
0.2900000138580801
100
AcDbArc
 50
2.500000000000006
 51
85.55000000000018
  0
ARC
  5
2C3
330
1F
100
AcDbEntity
  8
16
  6
Continuous
 62
     3
370
    25
100
AcDbCircle
 10
-48.73038989553973
 20
-63.9891820418832
 30
0.0
 40
0.2900000138580801
100
AcDbArc
 50
94.45000000000022
 51
177.5000000000004
  0
LINE
  5
2C4
330
1F
100
AcDbEntity
  8
16
  6
Continuous
 62
     3
370
    25
100
AcDbLine
 10
-49.02011388549045
 20
-63.97653223221214
 30
0.0
 11
-49.02011388549045
 21
-64.02253223373206
 31
0.0
  0
LINE
  5
2C5
330
1F
100
AcDbEntity
  8
16
  6
Continuous
 62
     3
370
    25
100
AcDbLine
 10
-45.90400237480273
 20
-64.02253268217855
 30
0.0
 11
-45.90400237480273
 21
-63.97653268065864
 31
0.0
  0
ARC
  5
2C6
330
1F
100
AcDbEntity
  8
16
  6
Continuous
 62
     3
370
    25
100
AcDbCircle
 10
-46.1937263730212
 20
-63.98918230096905
 30
0.0
 40
0.2900000138580801
100
AcDbArc
 50
2.500000000000006
 51
85.55000000000018
  0
ARC
  5
2C7
330
1F
100
AcDbEntity
  8
16
  6
Continuous
 62
     3
370
    25
100
AcDbCircle
 10
-43.21039469609788
 20
-63.9891820418832
 30
0.0
 40
0.2900000138580801
100
AcDbArc
 50
94.45000000000022
 51
177.5000000000004
  0
LINE
  5
2C8
330
1F
100
AcDbEntity
  8
16
  6
Continuous
 62
     3
370
    25
100
AcDbLine
 10
-43.50011868604862
 20
-63.97653223221214
 30
0.0
 11
-43.50011868604862
 21
-64.02253223373206
 31
0.0
  0
LINE
  5
2C9
330
1F
100
AcDbEntity
  8
16
  6
Continuous
 62
     3
370
    25
100
AcDbLine
 10
-141.499999396503
 20
-63.69999903440475
 30
0.0
 11
-42.69999792426825
 21
-63.69999903440475
 31
0.0
  0
LINE
  5
2CA
330
1F
100
AcDbEntity
  8
16
  6
Continuous
 62
     3
370
    25
100
AcDbLine
 10
2.300002746284008
 20
51.50000268220901
 30
0.0
 11
7.300002820789814
 21
51.50000268220901
 31
0.0
  0
LINE
  5
2CB
330
1F
100
AcDbEntity
  8
16
  6
Continuous
 62
     3
370
    25
100
AcDbLine
 10
7.300002820789814
 20
51.50000268220901
 30
0.0
 11
7.300002820789814
 21
52.40000269562006
 31
0.0
  0
LINE
  5
2CC
330
1F
100
AcDbEntity
  8
16
  6
Continuous
 62
     3
370
    25
100
AcDbLine
 10
7.300002820789814
 20
52.40000269562006
 30
0.0
 11
2.300002746284008
 21
52.40000269562006
 31
0.0
  0
LINE
  5
2CD
330
1F
100
AcDbEntity
  8
16
  6
Continuous
 62
     3
370
    25
100
AcDbLine
 10
2.300002746284008
 20
52.40000269562006
 30
0.0
 11
2.300002746284008
 21
51.50000268220901
 31
0.0
  0
LINE
  5
2CE
330
1F
100
AcDbEntity
  8
16
  6
Continuous
 62
     3
370
    25
100
AcDbLine
 10
2.300002746284008
 20
-18.6999983638525
 30
0.0
 11
7.300002820789814
 21
-18.6999983638525
 31
0.0
  0
LINE
  5
2CF
330
1F
100
AcDbEntity
  8
16
  6
Continuous
 62
     3
370
    25
100
AcDbLine
 10
7.300002820789814
 20
-18.6999983638525
 30
0.0
 11
7.300002820789814
 21
-19.59999837726355
 31
0.0
  0
LINE
  5
2D0
330
1F
100
AcDbEntity
  8
16
  6
Continuous
 62
     3
370
    25
100
AcDbLine
 10
7.300002820789814
 20
-19.59999837726355
 30
0.0
 11
2.300002746284008
 21
-19.59999837726355
 31
0.0
  0
LINE
  5
2D1
330
1F
100
AcDbEntity
  8
16
  6
Continuous
 62
     3
370
    25
100
AcDbLine
 10
2.300002746284008
 20
-19.59999837726355
 30
0.0
 11
2.300002746284008
 21
-18.6999983638525
 31
0.0
  0
ARC
  5
2D2
330
1F
100
AcDbEntity
  8
16
  6
Continuous
 62
     3
370
    25
100
AcDbCircle
 10
5.900002799928188
 20
36.40000245720148
 30
0.0
 40
0.800000011920929
100
AcDbArc
 50
46.60000000000011
 51
133.4000000000003
  0
ARC
  5
2D3
330
1F
100
AcDbEntity
  8
16
  6
Continuous
 62
     3
370
    25
100
AcDbCircle
 10
5.900002799928188
 20
36.40000245720148
 30
0.0
 40
0.800000011920929
100
AcDbArc
 50
226.6000000000004
 51
313.4000000000007
  0
LINE
  5
2D4
330
1F
100
AcDbEntity
  8
16
  6
Continuous
 62
     3
370
    25
100
AcDbLine
 10
6.300002805888653
 20
37.00000246614218
 30
0.0
 11
5.500002793967724
 21
37.00000246614218
 31
0.0
  0
ARC
  5
2D5
330
1F
100
AcDbEntity
  8
16
  6
Continuous
 62
     3
370
    25
100
AcDbCircle
 10
5.500002597890784
 20
36.40000245720151
 30
0.0
 40
0.6000000089406967
100
AcDbArc
 50
90.0000000000002
 51
270.0000000000006
  0
LINE
  5
2D6
330
1F
100
AcDbEntity
  8
16
  6
Continuous
 62
     3
370
    25
100
AcDbLine
 10
5.500002009659962
 20
35.8000024482611
 30
0.0
 11
6.300002021580891
 21
35.8000024482611
 31
0.0
  0
ARC
  5
2D7
330
1F
100
AcDbEntity
  8
16
  6
Continuous
 62
     3
370
    25
100
AcDbCircle
 10
6.300002609811713
 20
36.40000245720151
 30
0.0
 40
0.6000000089406967
100
AcDbArc
 50
270.0000000000006
 51
90.00000000000102
  0
LINE
  5
2D8
330
1F
100
AcDbEntity
  8
16
  6
Continuous
 62
     3
370
    25
100
AcDbLine
 10
4.30000277608633
 20
36.40000245720148
 30
0.0
 11
7.500002823770046
 21
36.40000245720148
 31
0.0
  0
LINE
  5
2D9
330
1F
100
AcDbEntity
  8
16
  6
Continuous
 62
     3
370
    25
100
AcDbLine
 10
5.900002799928188
 20
37.60000247508288
 30
0.0
 11
5.900002799928188
 21
35.20000243932009
 31
0.0
  0
ARC
  5
2DA
330
1F
100
AcDbEntity
  8
16
  6
Continuous
 62
     3
370
    25
100
AcDbCircle
 10
5.900002799928188
 20
16.40000215917826
 30
0.0
 40
0.800000011920929
100
AcDbArc
 50
46.60000000000011
 51
133.4000000000003
  0
ARC
  5
2DB
330
1F
100
AcDbEntity
  8
16
  6
Continuous
 62
     3
370
    25
100
AcDbCircle
 10
5.900002799928188
 20
16.40000215917826
 30
0.0
 40
0.800000011920929
100
AcDbArc
 50
226.6000000000004
 51
313.4000000000007
  0
LINE
  5
2DC
330
1F
100
AcDbEntity
  8
16
  6
Continuous
 62
     3
370
    25
100
AcDbLine
 10
6.300002805888653
 20
17.00000216811895
 30
0.0
 11
5.500002793967724
 21
17.00000216811895
 31
0.0
  0
ARC
  5
2DD
330
1F
100
AcDbEntity
  8
16
  6
Continuous
 62
     3
370
    25
100
AcDbCircle
 10
5.500002597890784
 20
16.40000215917829
 30
0.0
 40
0.6000000089406967
100
AcDbArc
 50
90.0000000000002
 51
270.0000000000006
  0
LINE
  5
2DE
330
1F
100
AcDbEntity
  8
16
  6
Continuous
 62
     3
370
    25
100
AcDbLine
 10
5.500002009659962
 20
15.80000215023788
 30
0.0
 11
6.300002021580891
 21
15.80000215023788
 31
0.0
  0
ARC
  5
2DF
330
1F
100
AcDbEntity
  8
16
  6
Continuous
 62
     3
370
    25
100
AcDbCircle
 10
6.300002609811713
 20
16.40000215917829
 30
0.0
 40
0.6000000089406967
100
AcDbArc
 50
270.0000000000006
 51
90.00000000000102
  0
LINE
  5
2E0
330
1F
100
AcDbEntity
  8
16
  6
Continuous
 62
     3
370
    25
100
AcDbLine
 10
4.30000277608633
 20
16.40000215917826
 30
0.0
 11
7.500002823770046
 21
16.40000215917826
 31
0.0
  0
LINE
  5
2E1
330
1F
100
AcDbEntity
  8
16
  6
Continuous
 62
     3
370
    25
100
AcDbLine
 10
5.900002799928188
 20
17.60000217705965
 30
0.0
 11
5.900002799928188
 21
15.20000214129686
 31
0.0
  0
ARC
  5
2E2
330
1F
100
AcDbEntity
  8
16
  6
Continuous
 62
     3
370
    25
100
AcDbCircle
 10
5.900002799928188
 20
-3.599998138844967
 30
0.0
 40
0.800000011920929
100
AcDbArc
 50
46.60000000000011
 51
133.4000000000003
  0
ARC
  5
2E3
330
1F
100
AcDbEntity
  8
16
  6
Continuous
 62
     3
370
    25
100
AcDbCircle
 10
5.900002799928188
 20
-3.599998138844967
 30
0.0
 40
0.800000011920929
100
AcDbArc
 50
226.6000000000004
 51
313.4000000000007
  0
LINE
  5
2E4
330
1F
100
AcDbEntity
  8
16
  6
Continuous
 62
     3
370
    25
100
AcDbLine
 10
6.300002805888653
 20
-2.99999812990427
 30
0.0
 11
5.500002793967724
 21
-2.99999812990427
 31
0.0
  0
ARC
  5
2E5
330
1F
100
AcDbEntity
  8
16
  6
Continuous
 62
     3
370
    25
100
AcDbCircle
 10
5.500002597890784
 20
-3.599998138844935
 30
0.0
 40
0.6000000089406967
100
AcDbArc
 50
90.0000000000002
 51
270.0000000000006
  0
LINE
  5
2E6
330
1F
100
AcDbEntity
  8
16
  6
Continuous
 62
     3
370
    25
100
AcDbLine
 10
5.500002009659962
 20
-4.199998147785344
 30
0.0
 11
6.300002021580891
 21
-4.199998147785344
 31
0.0
  0
ARC
  5
2E7
330
1F
100
AcDbEntity
  8
16
  6
Continuous
 62
     3
370
    25
100
AcDbCircle
 10
6.300002609811713
 20
-3.599998138844935
 30
0.0
 40
0.6000000089406967
100
AcDbArc
 50
270.0000000000006
 51
90.00000000000102
  0
LINE
  5
2E8
330
1F
100
AcDbEntity
  8
16
  6
Continuous
 62
     3
370
    25
100
AcDbLine
 10
4.30000277608633
 20
-3.599998138844967
 30
0.0
 11
7.500002823770046
 21
-3.599998138844967
 31
0.0
  0
LINE
  5
2E9
330
1F
100
AcDbEntity
  8
16
  6
Continuous
 62
     3
370
    25
100
AcDbLine
 10
5.900002799928188
 20
-2.399998120963573
 30
0.0
 11
5.900002799928188
 21
-4.79999815672636
 31
0.0
  0
LINE
  5
2EA
330
1F
100
AcDbEntity
  8
16
  6
Continuous
 62
     3
370
    25
100
AcDbLine
 10
2.300002746284008
 20
51.50000268220901
 30
0.0
 11
2.300002746284008
 21
-18.6999983638525
 31
0.0
  0
LINE
  5
2EB
330
1F
100
AcDbEntity
  8
16
  6
Continuous
 62
     3
370
    25
100
AcDbLine
 10
2.300002746284008
 20
-18.6999983638525
 30
0.0
 11
7.300002820789814
 21
-18.6999983638525
 31
0.0
  0
LINE
  5
2EC
330
1F
100
AcDbEntity
  8
16
  6
Continuous
 62
     3
370
    25
100
AcDbLine
 10
7.300002820789814
 20
-18.6999983638525
 30
0.0
 11
7.300002820789814
 21
51.50000268220901
 31
0.0
  0
LINE
  5
2ED
330
1F
100
AcDbEntity
  8
16
  6
Continuous
 62
     3
370
    25
100
AcDbLine
 10
7.300002820789814
 20
51.50000268220901
 30
0.0
 11
2.300002746284008
 21
51.50000268220901
 31
0.0
  0
LINE
  5
2EE
330
1F
100
AcDbEntity
  8
16
  6
Continuous
 62
     3
370
    25
100
AcDbLine
 10
2.700002752244473
 20
51.50000268220901
 30
0.0
 11
2.700002752244473
 21
-18.6999983638525
 31
0.0
  0
LINE
  5
2EF
330
1F
100
AcDbEntity
  8
16
  6
Continuous
 62
     3
370
    25
100
AcDbLine
 10
4.100002773106098
 20
-18.6999983638525
 30
0.0
 11
4.100002773106098
 21
51.50000268220901
 31
0.0
  0
LINE
  5
2F0
330
1F
100
AcDbEntity
  8
16
  6
Continuous
 62
     3
370
    25
100
AcDbLine
 10
7.300002820789814
 20
50.90000267326832
 30
0.0
 11
20.30000301450491
 21
50.90000267326832
 31
0.0
  0
LINE
  5
2F1
330
1F
100
AcDbEntity
  8
16
  6
Continuous
 62
     3
370
    25
100
AcDbLine
 10
20.30000301450491
 20
50.90000267326832
 30
0.0
 11
20.30000301450491
 21
42.90000255405903
 31
0.0
  0
LINE
  5
2F2
330
1F
100
AcDbEntity
  8
16
  6
Continuous
 62
     3
370
    25
100
AcDbLine
 10
20.30000301450491
 20
42.90000255405903
 30
0.0
 11
7.300002820789814
 21
42.90000255405903
 31
0.0
  0
LINE
  5
2F3
330
1F
100
AcDbEntity
  8
16
  6
Continuous
 62
     3
370
    25
100
AcDbLine
 10
7.300002820789814
 20
42.90000255405903
 30
0.0
 11
7.300002820789814
 21
50.90000267326832
 31
0.0
  0
LINE
  5
2F4
330
1F
100
AcDbEntity
  8
16
  6
Continuous
 62
     3
370
    25
100
AcDbLine
 10
7.900002829730511
 20
50.30000266432762
 30
0.0
 11
19.70000300556421
 21
50.30000266432762
 31
0.0
  0
LINE
  5
2F5
330
1F
100
AcDbEntity
  8
16
  6
Continuous
 62
     3
370
    25
100
AcDbLine
 10
19.70000300556421
 20
50.30000266432762
 30
0.0
 11
19.70000300556421
 21
43.50000256299973
 31
0.0
  0
LINE
  5
2F6
330
1F
100
AcDbEntity
  8
16
  6
Continuous
 62
     3
370
    25
100
AcDbLine
 10
19.70000300556421
 20
43.50000256299973
 30
0.0
 11
7.900002829730511
 21
43.50000256299973
 31
0.0
  0
LINE
  5
2F7
330
1F
100
AcDbEntity
  8
16
  6
Continuous
 62
     3
370
    25
100
AcDbLine
 10
7.900002829730511
 20
43.50000256299973
 30
0.0
 11
7.900002829730511
 21
50.30000266432762
 31
0.0
  0
LINE
  5
2F8
330
1F
100
AcDbEntity
  8
16
  6
Continuous
 62
     3
370
    25
100
AcDbLine
 10
7.300002820789814
 20
-18.0999983549118
 30
0.0
 11
20.30000301450491
 21
-18.0999983549118
 31
0.0
  0
LINE
  5
2F9
330
1F
100
AcDbEntity
  8
16
  6
Continuous
 62
     3
370
    25
100
AcDbLine
 10
20.30000301450491
 20
-18.0999983549118
 30
0.0
 11
20.30000301450491
 21
-10.09999823570251
 31
0.0
  0
LINE
  5
2FA
330
1F
100
AcDbEntity
  8
16
  6
Continuous
 62
     3
370
    25
100
AcDbLine
 10
20.30000301450491
 20
-10.09999823570251
 30
0.0
 11
7.300002820789814
 21
-10.09999823570251
 31
0.0
  0
LINE
  5
2FB
330
1F
100
AcDbEntity
  8
16
  6
Continuous
 62
     3
370
    25
100
AcDbLine
 10
7.300002820789814
 20
-10.09999823570251
 30
0.0
 11
7.300002820789814
 21
-18.0999983549118
 31
0.0
  0
LINE
  5
2FC
330
1F
100
AcDbEntity
  8
16
  6
Continuous
 62
     3
370
    25
100
AcDbLine
 10
7.900002829730511
 20
-17.49999834597111
 30
0.0
 11
19.70000300556421
 21
-17.49999834597111
 31
0.0
  0
LINE
  5
2FD
330
1F
100
AcDbEntity
  8
16
  6
Continuous
 62
     3
370
    25
100
AcDbLine
 10
19.70000300556421
 20
-17.49999834597111
 30
0.0
 11
19.70000300556421
 21
-10.69999824464321
 31
0.0
  0
LINE
  5
2FE
330
1F
100
AcDbEntity
  8
16
  6
Continuous
 62
     3
370
    25
100
AcDbLine
 10
19.70000300556421
 20
-10.69999824464321
 30
0.0
 11
7.900002829730511
 21
-10.69999824464321
 31
0.0
  0
LINE
  5
2FF
330
1F
100
AcDbEntity
  8
16
  6
Continuous
 62
     3
370
    25
100
AcDbLine
 10
7.900002829730511
 20
-10.69999824464321
 30
0.0
 11
7.900002829730511
 21
-17.49999834597111
 31
0.0
  0
LINE
  5
300
330
1F
100
AcDbEntity
  8
16
  6
Continuous
 62
     3
370
    25
100
AcDbLine
 10
-139.4999993667006
 20
-68.24199891898036
 30
0.0
 11
-139.4999993667006
 21
-65.42799893808365
 31
0.0
  0
ARC
  5
301
330
1F
100
AcDbEntity
  8
16
  6
Continuous
 62
     3
370
    25
100
AcDbCircle
 10
-140.417997940402
 20
-65.48865047402299
 30
0.0
 40
0.9199999946355817
100
AcDbArc
 50
3.779999923706063
 51
73.70000000000016
  0
LINE
  5
302
330
1F
100
AcDbEntity
  8
16
  6
Continuous
 62
     3
370
    25
100
AcDbLine
 10
-140.1597843333964
 20
-64.6056296796548
 30
0.0
 11
-141.0237843806033
 21
-64.30162967893953
 31
0.0
  0
ARC
  5
303
330
1F
100
AcDbEntity
  8
16
  6
Continuous
 62
     3
370
    25
100
AcDbCircle
 10
-140.9589472422768
 20
-64.24327355517283
 30
0.0
 40
0.088000000834465
100
AcDbArc
 50
111.909997558594
 51
222.330004882813
  0
LINE
  5
304
330
1F
100
AcDbEntity
  8
16
  6
Continuous
 62
     3
370
    25
100
AcDbLine
 10
-140.9920038031684
 20
-64.16253268188053
 30
0.0
 11
-140.7040037874328
 21
-64.02253268217855
 31
0.0
  0
ARC
  5
305
330
1F
100
AcDbEntity
  8
16
  6
Continuous
 62
     3
370
    25
100
AcDbCircle
 10
-140.9619912157481
 20
-64.23997755460768
 30
0.0
 40
0.5400000175833704
100
AcDbArc
 50
90.97999877929706
 51
246.6800048828131
  0
LINE
  5
306
330
1F
100
AcDbEntity
  8
16
  6
Continuous
 62
     3
370
    25
100
AcDbLine
 10
-141.1757593060502
 20
-64.73586385463885
 30
0.0
 11
-140.2017593144247
 21
-65.07786386736444
 31
0.0
  0
ARC
  5
307
330
1F
100
AcDbEntity
  8
16
  6
Continuous
 62
     3
370
    25
100
AcDbCircle
 10
-140.3217592971393
 20
-65.41786388196759
 30
0.0
 40
0.3599999958276747
100
AcDbArc
 50
0.0
 51
70.57999877929703
  0
LINE
  5
308
330
1F
100
AcDbEntity
  8
16
  6
Continuous
 62
     3
370
    25
100
AcDbLine
 10
-139.9620626621228
 20
-65.41834553815573
 30
0.0
 11
-139.9620626621228
 21
-68.56234563841075
 31
0.0
  0
ARC
  5
309
330
1F
100
AcDbEntity
  8
16
  6
Continuous
 62
     3
370
    25
100
AcDbCircle
 10
-139.8220626624209
 20
-68.56234572991332
 30
0.0
 40
0.1399999997019767
100
AcDbArc
 50
180.0000000000004
 51
270.0000000000006
  0
LINE
  5
30A
330
1F
100
AcDbEntity
  8
16
  6
Continuous
 62
     3
370
    25
100
AcDbLine
 10
-139.8220627996747
 20
-68.70234572961522
 30
0.0
 11
-139.1820627806012
 21
-68.70234572961522
 31
0.0
  0
ARC
  5
30B
330
1F
100
AcDbEntity
  8
16
  6
Continuous
 62
     3
370
    25
100
AcDbCircle
 10
-139.1820626433474
 20
-68.56234572991332
 30
0.0
 40
0.1399999997019767
100
AcDbArc
 50
270.0000000000006
 51
0.0000000000008142
  0
LINE
  5
30C
330
1F
100
AcDbEntity
  8
16
  6
Continuous
 62
     3
370
    25
100
AcDbLine
 10
-139.0420626436455
 20
-68.56234591291845
 30
0.0
 11
-139.0420626436455
 21
-65.41834581266345
 31
0.0
  0
ARC
  5
30D
330
1F
100
AcDbEntity
  8
16
  6
Continuous
 62
     3
370
    25
100
AcDbCircle
 10
-138.6823662667024
 20
-65.41786424745854
 30
0.0
 40
0.3599999958276747
100
AcDbArc
 50
109.4199951171877
 51
180.0000000000004
  0
LINE
  5
30E
330
1F
100
AcDbEntity
  8
16
  6
Continuous
 62
     3
370
    25
100
AcDbLine
 10
-138.802366249417
 20
-65.07786399756309
 30
0.0
 11
-137.8283662577914
 21
-64.7358639848375
 31
0.0
  0
ARC
  5
30F
330
1F
100
AcDbEntity
  8
16
  6
Continuous
 62
     3
370
    25
100
AcDbCircle
 10
-138.0421333757745
 20
-64.23997726565733
 30
0.0
 40
0.5400000175833704
100
AcDbArc
 50
293.3199951171881
 51
89.02001953125101
  0
LINE
  5
310
330
1F
100
AcDbEntity
  8
16
  6
Continuous
 62
     3
370
    25
100
AcDbLine
 10
-138.3001200986787
 20
-64.02253223373206
 30
0.0
 11
-138.0121200829431
 21
-64.16253223343404
 31
0.0
  0
ARC
  5
311
330
1F
100
AcDbEntity
  8
16
  6
Continuous
 62
     3
370
    25
100
AcDbCircle
 10
-138.0451765276411
 20
-64.24327297916555
 30
0.0
 40
0.088000000834465
100
AcDbArc
 50
317.6699951171883
 51
68.08999023437599
  0
LINE
  5
312
330
1F
100
AcDbEntity
  8
16
  6
Continuous
 62
     3
370
    25
100
AcDbLine
 10
-137.9803392118354
 20
-64.30162917431454
 30
0.0
 11
-138.8443392590423
 21
-64.60562917502979
 31
0.0
  0
ARC
  5
313
330
1F
100
AcDbEntity
  8
16
  6
Continuous
 62
     3
370
    25
100
AcDbCircle
 10
-138.5861262291702
 20
-65.48865013816358
 30
0.0
 40
0.9199999946355817
100
AcDbArc
 50
106.3000000000002
 51
176.2199951171879
  0
LINE
  5
314
330
1F
100
AcDbEntity
  8
16
  6
Continuous
 62
     3
370
    25
100
AcDbLine
 10
-133.9200005042553
 20
-68.24199891898036
 30
0.0
 11
-133.9200005042553
 21
-65.42799893808365
 31
0.0
  0
ARC
  5
315
330
1F
100
AcDbEntity
  8
16
  6
Continuous
 62
     3
370
    25
100
AcDbCircle
 10
-134.8379990779566
 20
-65.48865047402299
 30
0.0
 40
0.9199999946355817
100
AcDbArc
 50
3.779999923706063
 51
73.70000000000016
  0
LINE
  5
316
330
1F
100
AcDbEntity
  8
16
  6
Continuous
 62
     3
370
    25
100
AcDbLine
 10
-134.5797854709511
 20
-64.6056296796548
 30
0.0
 11
-135.4437855181579
 21
-64.30162967893953
 31
0.0
  0
ARC
  5
317
330
1F
100
AcDbEntity
  8
16
  6
Continuous
 62
     3
370
    25
100
AcDbCircle
 10
-135.3789483798314
 20
-64.24327355517283
 30
0.0
 40
0.088000000834465
100
AcDbArc
 50
111.909997558594
 51
222.330004882813
  0
LINE
  5
318
330
1F
100
AcDbEntity
  8
16
  6
Continuous
 62
     3
370
    25
100
AcDbLine
 10
-135.4120049407231
 20
-64.16253268188053
 30
0.0
 11
-135.1240049249875
 21
-64.02253268217855
 31
0.0
  0
ARC
  5
319
330
1F
100
AcDbEntity
  8
16
  6
Continuous
 62
     3
370
    25
100
AcDbCircle
 10
-135.3819923533028
 20
-64.23997755460768
 30
0.0
 40
0.5400000175833704
100
AcDbArc
 50
90.97999877929706
 51
246.6800048828131
  0
LINE
  5
31A
330
1F
100
AcDbEntity
  8
16
  6
Continuous
 62
     3
370
    25
100
AcDbLine
 10
-135.5957604436049
 20
-64.73586385463885
 30
0.0
 11
-134.6217604519794
 21
-65.07786386736444
 31
0.0
  0
ARC
  5
31B
330
1F
100
AcDbEntity
  8
16
  6
Continuous
 62
     3
370
    25
100
AcDbCircle
 10
-134.741760434694
 20
-65.41786388196759
 30
0.0
 40
0.3599999958276747
100
AcDbArc
 50
0.0
 51
70.57999877929703
  0
LINE
  5
31C
330
1F
100
AcDbEntity
  8
16
  6
Continuous
 62
     3
370
    25
100
AcDbLine
 10
-134.3820637996775
 20
-65.41834553815573
 30
0.0
 11
-134.3820637996775
 21
-68.56234563841075
 31
0.0
  0
ARC
  5
31D
330
1F
100
AcDbEntity
  8
16
  6
Continuous
 62
     3
370
    25
100
AcDbCircle
 10
-134.2420637999755
 20
-68.56234572991332
 30
0.0
 40
0.1399999997019767
100
AcDbArc
 50
180.0000000000004
 51
270.0000000000006
  0
LINE
  5
31E
330
1F
100
AcDbEntity
  8
16
  6
Continuous
 62
     3
370
    25
100
AcDbLine
 10
-134.2420639372294
 20
-68.70234572961522
 30
0.0
 11
-133.6020639181559
 21
-68.70234572961522
 31
0.0
  0
ARC
  5
31F
330
1F
100
AcDbEntity
  8
16
  6
Continuous
 62
     3
370
    25
100
AcDbCircle
 10
-133.602063780902
 20
-68.56234572991332
 30
0.0
 40
0.1399999997019767
100
AcDbArc
 50
270.0000000000006
 51
0.0000000000008142
  0
LINE
  5
320
330
1F
100
AcDbEntity
  8
16
  6
Continuous
 62
     3
370
    25
100
AcDbLine
 10
-133.4620637812002
 20
-68.56234591291845
 30
0.0
 11
-133.4620637812002
 21
-65.41834581266345
 31
0.0
  0
ARC
  5
321
330
1F
100
AcDbEntity
  8
16
  6
Continuous
 62
     3
370
    25
100
AcDbCircle
 10
-133.1023674042571
 20
-65.41786424745854
 30
0.0
 40
0.3599999958276747
100
AcDbArc
 50
109.4199951171877
 51
180.0000000000004
  0
LINE
  5
322
330
1F
100
AcDbEntity
  8
16
  6
Continuous
 62
     3
370
    25
100
AcDbLine
 10
-133.2223673869717
 20
-65.07786399756309
 30
0.0
 11
-132.2483673953461
 21
-64.7358639848375
 31
0.0
  0
ARC
  5
323
330
1F
100
AcDbEntity
  8
16
  6
Continuous
 62
     3
370
    25
100
AcDbCircle
 10
-132.4621345133292
 20
-64.23997726565733
 30
0.0
 40
0.5400000175833704
100
AcDbArc
 50
293.3199951171881
 51
89.02001953125101
  0
LINE
  5
324
330
1F
100
AcDbEntity
  8
16
  6
Continuous
 62
     3
370
    25
100
AcDbLine
 10
-132.7201212362334
 20
-64.02253223373206
 30
0.0
 11
-132.4321212204977
 21
-64.16253223343404
 31
0.0
  0
ARC
  5
325
330
1F
100
AcDbEntity
  8
16
  6
Continuous
 62
     3
370
    25
100
AcDbCircle
 10
-132.4651776651958
 20
-64.24327297916555
 30
0.0
 40
0.088000000834465
100
AcDbArc
 50
317.6699951171883
 51
68.08999023437599
  0
LINE
  5
326
330
1F
100
AcDbEntity
  8
16
  6
Continuous
 62
     3
370
    25
100
AcDbLine
 10
-132.4003403493901
 20
-64.30162917431454
 30
0.0
 11
-133.264340396597
 21
-64.60562917502979
 31
0.0
  0
ARC
  5
327
330
1F
100
AcDbEntity
  8
16
  6
Continuous
 62
     3
370
    25
100
AcDbCircle
 10
-133.0061273667248
 20
-65.48865013816358
 30
0.0
 40
0.9199999946355817
100
AcDbArc
 50
106.3000000000002
 51
176.2199951171879
  0
LINE
  5
328
330
1F
100
AcDbEntity
  8
16
  6
Continuous
 62
     3
370
    25
100
AcDbLine
 10
-128.34000164181
 20
-68.24199891898036
 30
0.0
 11
-128.34000164181
 21
-65.42799893808365
 31
0.0
  0
ARC
  5
329
330
1F
100
AcDbEntity
  8
16
  6
Continuous
 62
     3
370
    25
100
AcDbCircle
 10
-129.2580002155113
 20
-65.48865047402299
 30
0.0
 40
0.9199999946355817
100
AcDbArc
 50
3.779999923706063
 51
73.70000000000016
  0
LINE
  5
32A
330
1F
100
AcDbEntity
  8
16
  6
Continuous
 62
     3
370
    25
100
AcDbLine
 10
-128.9997866085057
 20
-64.6056296796548
 30
0.0
 11
-129.8637866557126
 21
-64.30162967893953
 31
0.0
  0
ARC
  5
32B
330
1F
100
AcDbEntity
  8
16
  6
Continuous
 62
     3
370
    25
100
AcDbCircle
 10
-129.7989495173861
 20
-64.24327355517283
 30
0.0
 40
0.088000000834465
100
AcDbArc
 50
111.909997558594
 51
222.330004882813
  0
LINE
  5
32C
330
1F
100
AcDbEntity
  8
16
  6
Continuous
 62
     3
370
    25
100
AcDbLine
 10
-129.8320060782778
 20
-64.16253268188053
 30
0.0
 11
-129.5440060625421
 21
-64.02253268217855
 31
0.0
  0
ARC
  5
32D
330
1F
100
AcDbEntity
  8
16
  6
Continuous
 62
     3
370
    25
100
AcDbCircle
 10
-129.8019934908574
 20
-64.23997755460768
 30
0.0
 40
0.5400000175833704
100
AcDbArc
 50
90.97999877929706
 51
246.6800048828131
  0
LINE
  5
32E
330
1F
100
AcDbEntity
  8
16
  6
Continuous
 62
     3
370
    25
100
AcDbLine
 10
-130.0157615811596
 20
-64.73586385463885
 30
0.0
 11
-129.041761589534
 21
-65.07786386736444
 31
0.0
  0
ARC
  5
32F
330
1F
100
AcDbEntity
  8
16
  6
Continuous
 62
     3
370
    25
100
AcDbCircle
 10
-129.1617615722487
 20
-65.41786388196759
 30
0.0
 40
0.3599999958276747
100
AcDbArc
 50
0.0
 51
70.57999877929703
  0
LINE
  5
330
330
1F
100
AcDbEntity
  8
16
  6
Continuous
 62
     3
370
    25
100
AcDbLine
 10
-128.8020649372321
 20
-65.41834553815573
 30
0.0
 11
-128.8020649372321
 21
-68.56234563841075
 31
0.0
  0
ARC
  5
331
330
1F
100
AcDbEntity
  8
16
  6
Continuous
 62
     3
370
    25
100
AcDbCircle
 10
-128.6620649375302
 20
-68.56234572991332
 30
0.0
 40
0.1399999997019767
100
AcDbArc
 50
180.0000000000004
 51
270.0000000000006
  0
LINE
  5
332
330
1F
100
AcDbEntity
  8
16
  6
Continuous
 62
     3
370
    25
100
AcDbLine
 10
-128.662065074784
 20
-68.70234572961522
 30
0.0
 11
-128.0220650557106
 21
-68.70234572961522
 31
0.0
  0
ARC
  5
333
330
1F
100
AcDbEntity
  8
16
  6
Continuous
 62
     3
370
    25
100
AcDbCircle
 10
-128.0220649184567
 20
-68.56234572991332
 30
0.0
 40
0.1399999997019767
100
AcDbArc
 50
270.0000000000006
 51
0.0000000000008142
  0
LINE
  5
334
330
1F
100
AcDbEntity
  8
16
  6
Continuous
 62
     3
370
    25
100
AcDbLine
 10
-127.8820649187548
 20
-68.56234591291845
 30
0.0
 11
-127.8820649187548
 21
-65.41834581266345
 31
0.0
  0
ARC
  5
335
330
1F
100
AcDbEntity
  8
16
  6
Continuous
 62
     3
370
    25
100
AcDbCircle
 10
-127.5223685418117
 20
-65.41786424745854
 30
0.0
 40
0.3599999958276747
100
AcDbArc
 50
109.4199951171877
 51
180.0000000000004
  0
LINE
  5
336
330
1F
100
AcDbEntity
  8
16
  6
Continuous
 62
     3
370
    25
100
AcDbLine
 10
-127.6423685245263
 20
-65.07786399756309
 30
0.0
 11
-126.6683685329008
 21
-64.7358639848375
 31
0.0
  0
ARC
  5
337
330
1F
100
AcDbEntity
  8
16
  6
Continuous
 62
     3
370
    25
100
AcDbCircle
 10
-126.8821356508838
 20
-64.23997726565733
 30
0.0
 40
0.5400000175833704
100
AcDbArc
 50
293.3199951171881
 51
89.02001953125101
  0
LINE
  5
338
330
1F
100
AcDbEntity
  8
16
  6
Continuous
 62
     3
370
    25
100
AcDbLine
 10
-127.140122373788
 20
-64.02253223373206
 30
0.0
 11
-126.8521223580524
 21
-64.16253223343404
 31
0.0
  0
ARC
  5
339
330
1F
100
AcDbEntity
  8
16
  6
Continuous
 62
     3
370
    25
100
AcDbCircle
 10
-126.8851788027504
 20
-64.24327297916555
 30
0.0
 40
0.088000000834465
100
AcDbArc
 50
317.6699951171883
 51
68.08999023437599
  0
LINE
  5
33A
330
1F
100
AcDbEntity
  8
16
  6
Continuous
 62
     3
370
    25
100
AcDbLine
 10
-126.8203414869448
 20
-64.30162917431454
 30
0.0
 11
-127.6843415341516
 21
-64.60562917502979
 31
0.0
  0
ARC
  5
33B
330
1F
100
AcDbEntity
  8
16
  6
Continuous
 62
     3
370
    25
100
AcDbCircle
 10
-127.4261285042795
 20
-65.48865013816358
 30
0.0
 40
0.9199999946355817
100
AcDbArc
 50
106.3000000000002
 51
176.2199951171879
  0
LINE
  5
33C
330
1F
100
AcDbEntity
  8
16
  6
Continuous
 62
     3
370
    25
100
AcDbLine
 10
-122.7599966758489
 20
-68.24199891898036
 30
0.0
 11
-122.7599966758489
 21
-65.42799893808365
 31
0.0
  0
ARC
  5
33D
330
1F
100
AcDbEntity
  8
16
  6
Continuous
 62
     3
370
    25
100
AcDbCircle
 10
-123.6779952495503
 20
-65.48865047402299
 30
0.0
 40
0.9199999946355817
100
AcDbArc
 50
3.779999923706063
 51
73.70000000000016
  0
LINE
  5
33E
330
1F
100
AcDbEntity
  8
16
  6
Continuous
 62
     3
370
    25
100
AcDbLine
 10
-123.4197816425447
 20
-64.6056296796548
 30
0.0
 11
-124.2837816897516
 21
-64.30162967893953
 31
0.0
  0
ARC
  5
33F
330
1F
100
AcDbEntity
  8
16
  6
Continuous
 62
     3
370
    25
100
AcDbCircle
 10
-124.2189445514251
 20
-64.24327355517283
 30
0.0
 40
0.088000000834465
100
AcDbArc
 50
111.909997558594
 51
222.330004882813
  0
LINE
  5
340
330
1F
100
AcDbEntity
  8
16
  6
Continuous
 62
     3
370
    25
100
AcDbLine
 10
-124.2520011123167
 20
-64.16253268188053
 30
0.0
 11
-123.9640010965811
 21
-64.02253268217855
 31
0.0
  0
ARC
  5
341
330
1F
100
AcDbEntity
  8
16
  6
Continuous
 62
     3
370
    25
100
AcDbCircle
 10
-124.2219885248964
 20
-64.23997755460768
 30
0.0
 40
0.5400000175833704
100
AcDbArc
 50
90.97999877929706
 51
246.6800048828131
  0
LINE
  5
342
330
1F
100
AcDbEntity
  8
16
  6
Continuous
 62
     3
370
    25
100
AcDbLine
 10
-124.4357566151985
 20
-64.73586385463885
 30
0.0
 11
-123.461756623573
 21
-65.07786386736444
 31
0.0
  0
ARC
  5
343
330
1F
100
AcDbEntity
  8
16
  6
Continuous
 62
     3
370
    25
100
AcDbCircle
 10
-123.5817566062876
 20
-65.41786388196759
 30
0.0
 40
0.3599999958276747
100
AcDbArc
 50
0.0
 51
70.57999877929703
  0
LINE
  5
344
330
1F
100
AcDbEntity
  8
16
  6
Continuous
 62
     3
370
    25
100
AcDbLine
 10
-123.2220599712711
 20
-65.41834553815573
 30
0.0
 11
-123.2220599712711
 21
-68.56234563841075
 31
0.0
  0
ARC
  5
345
330
1F
100
AcDbEntity
  8
16
  6
Continuous
 62
     3
370
    25
100
AcDbCircle
 10
-123.0820599715691
 20
-68.56234572991332
 30
0.0
 40
0.1399999997019767
100
AcDbArc
 50
180.0000000000004
 51
270.0000000000006
  0
LINE
  5
346
330
1F
100
AcDbEntity
  8
16
  6
Continuous
 62
     3
370
    25
100
AcDbLine
 10
-123.082060108823
 20
-68.70234572961522
 30
0.0
 11
-122.4420600897495
 21
-68.70234572961522
 31
0.0
  0
ARC
  5
347
330
1F
100
AcDbEntity
  8
16
  6
Continuous
 62
     3
370
    25
100
AcDbCircle
 10
-122.4420599524957
 20
-68.56234572991332
 30
0.0
 40
0.1399999997019767
100
AcDbArc
 50
270.0000000000006
 51
0.0000000000008142
  0
LINE
  5
348
330
1F
100
AcDbEntity
  8
16
  6
Continuous
 62
     3
370
    25
100
AcDbLine
 10
-122.3020599527938
 20
-68.56234591291845
 30
0.0
 11
-122.3020599527938
 21
-65.41834581266345
 31
0.0
  0
ARC
  5
349
330
1F
100
AcDbEntity
  8
16
  6
Continuous
 62
     3
370
    25
100
AcDbCircle
 10
-121.9423635758507
 20
-65.41786424745854
 30
0.0
 40
0.3599999958276747
100
AcDbArc
 50
109.4199951171877
 51
180.0000000000004
  0
LINE
  5
34A
330
1F
100
AcDbEntity
  8
16
  6
Continuous
 62
     3
370
    25
100
AcDbLine
 10
-122.0623635585653
 20
-65.07786399756309
 30
0.0
 11
-121.0883635669397
 21
-64.7358639848375
 31
0.0
  0
ARC
  5
34B
330
1F
100
AcDbEntity
  8
16
  6
Continuous
 62
     3
370
    25
100
AcDbCircle
 10
-121.3021306849228
 20
-64.23997726565733
 30
0.0
 40
0.5400000175833704
100
AcDbArc
 50
293.3199951171881
 51
89.02001953125101
  0
LINE
  5
34C
330
1F
100
AcDbEntity
  8
16
  6
Continuous
 62
     3
370
    25
100
AcDbLine
 10
-121.560117407827
 20
-64.02253223373206
 30
0.0
 11
-121.2721173920913
 21
-64.16253223343404
 31
0.0
  0
ARC
  5
34D
330
1F
100
AcDbEntity
  8
16
  6
Continuous
 62
     3
370
    25
100
AcDbCircle
 10
-121.3051738367894
 20
-64.24327297916555
 30
0.0
 40
0.088000000834465
100
AcDbArc
 50
317.6699951171883
 51
68.08999023437599
  0
LINE
  5
34E
330
1F
100
AcDbEntity
  8
16
  6
Continuous
 62
     3
370
    25
100
AcDbLine
 10
-121.2403365209837
 20
-64.30162917431454
 30
0.0
 11
-122.1043365681906
 21
-64.60562917502979
 31
0.0
  0
ARC
  5
34F
330
1F
100
AcDbEntity
  8
16
  6
Continuous
 62
     3
370
    25
100
AcDbCircle
 10
-121.8461235383184
 20
-65.48865013816358
 30
0.0
 40
0.9199999946355817
100
AcDbArc
 50
106.3000000000002
 51
176.2199951171879
  0
LINE
  5
350
330
1F
100
AcDbEntity
  8
16
  6
Continuous
 62
     3
370
    25
100
AcDbLine
 10
-117.1799978134036
 20
-68.24199891898036
 30
0.0
 11
-117.1799978134036
 21
-65.42799893808365
 31
0.0
  0
ARC
  5
351
330
1F
100
AcDbEntity
  8
16
  6
Continuous
 62
     3
370
    25
100
AcDbCircle
 10
-118.0979963871049
 20
-65.48865047402299
 30
0.0
 40
0.9199999946355817
100
AcDbArc
 50
3.779999923706063
 51
73.70000000000016
  0
LINE
  5
352
330
1F
100
AcDbEntity
  8
16
  6
Continuous
 62
     3
370
    25
100
AcDbLine
 10
-117.8397827800993
 20
-64.6056296796548
 30
0.0
 11
-118.7037828273062
 21
-64.30162967893953
 31
0.0
  0
ARC
  5
353
330
1F
100
AcDbEntity
  8
16
  6
Continuous
 62
     3
370
    25
100
AcDbCircle
 10
-118.6389456889797
 20
-64.24327355517283
 30
0.0
 40
0.088000000834465
100
AcDbArc
 50
111.909997558594
 51
222.330004882813
  0
LINE
  5
354
330
1F
100
AcDbEntity
  8
16
  6
Continuous
 62
     3
370
    25
100
AcDbLine
 10
-118.6720022498714
 20
-64.16253268188053
 30
0.0
 11
-118.3840022341357
 21
-64.02253268217855
 31
0.0
  0
ARC
  5
355
330
1F
100
AcDbEntity
  8
16
  6
Continuous
 62
     3
370
    25
100
AcDbCircle
 10
-118.6419896624511
 20
-64.23997755460768
 30
0.0
 40
0.5400000175833704
100
AcDbArc
 50
90.97999877929706
 51
246.6800048828131
  0
LINE
  5
356
330
1F
100
AcDbEntity
  8
16
  6
Continuous
 62
     3
370
    25
100
AcDbLine
 10
-118.8557577527532
 20
-64.73586385463885
 30
0.0
 11
-117.8817577611276
 21
-65.07786386736444
 31
0.0
  0
ARC
  5
357
330
1F
100
AcDbEntity
  8
16
  6
Continuous
 62
     3
370
    25
100
AcDbCircle
 10
-118.0017577438423
 20
-65.41786388196759
 30
0.0
 40
0.3599999958276747
100
AcDbArc
 50
0.0
 51
70.57999877929703
  0
LINE
  5
358
330
1F
100
AcDbEntity
  8
16
  6
Continuous
 62
     3
370
    25
100
AcDbLine
 10
-117.6420611088257
 20
-65.41834553815573
 30
0.0
 11
-117.6420611088257
 21
-68.56234563841075
 31
0.0
  0
ARC
  5
359
330
1F
100
AcDbEntity
  8
16
  6
Continuous
 62
     3
370
    25
100
AcDbCircle
 10
-117.5020611091238
 20
-68.56234572991332
 30
0.0
 40
0.1399999997019767
100
AcDbArc
 50
180.0000000000004
 51
270.0000000000006
  0
LINE
  5
35A
330
1F
100
AcDbEntity
  8
16
  6
Continuous
 62
     3
370
    25
100
AcDbLine
 10
-117.5020612463777
 20
-68.70234572961522
 30
0.0
 11
-116.8620612273042
 21
-68.70234572961522
 31
0.0
  0
ARC
  5
35B
330
1F
100
AcDbEntity
  8
16
  6
Continuous
 62
     3
370
    25
100
AcDbCircle
 10
-116.8620610900503
 20
-68.56234572991332
 30
0.0
 40
0.1399999997019767
100
AcDbArc
 50
270.0000000000006
 51
0.0000000000008142
  0
LINE
  5
35C
330
1F
100
AcDbEntity
  8
16
  6
Continuous
 62
     3
370
    25
100
AcDbLine
 10
-116.7220610903485
 20
-68.56234591291845
 30
0.0
 11
-116.7220610903485
 21
-65.41834581266345
 31
0.0
  0
ARC
  5
35D
330
1F
100
AcDbEntity
  8
16
  6
Continuous
 62
     3
370
    25
100
AcDbCircle
 10
-116.3623647134054
 20
-65.41786424745854
 30
0.0
 40
0.3599999958276747
100
AcDbArc
 50
109.4199951171877
 51
180.0000000000004
  0
LINE
  5
35E
330
1F
100
AcDbEntity
  8
16
  6
Continuous
 62
     3
370
    25
100
AcDbLine
 10
-116.4823646961199
 20
-65.07786399756309
 30
0.0
 11
-115.5083647044944
 21
-64.7358639848375
 31
0.0
  0
ARC
  5
35F
330
1F
100
AcDbEntity
  8
16
  6
Continuous
 62
     3
370
    25
100
AcDbCircle
 10
-115.7221318224774
 20
-64.23997726565733
 30
0.0
 40
0.5400000175833704
100
AcDbArc
 50
293.3199951171881
 51
89.02001953125101
  0
LINE
  5
360
330
1F
100
AcDbEntity
  8
16
  6
Continuous
 62
     3
370
    25
100
AcDbLine
 10
-115.9801185453816
 20
-64.02253223373206
 30
0.0
 11
-115.692118529646
 21
-64.16253223343404
 31
0.0
  0
ARC
  5
361
330
1F
100
AcDbEntity
  8
16
  6
Continuous
 62
     3
370
    25
100
AcDbCircle
 10
-115.7251749743441
 20
-64.24327297916555
 30
0.0
 40
0.088000000834465
100
AcDbArc
 50
317.6699951171883
 51
68.08999023437599
  0
LINE
  5
362
330
1F
100
AcDbEntity
  8
16
  6
Continuous
 62
     3
370
    25
100
AcDbLine
 10
-115.6603376585384
 20
-64.30162917431454
 30
0.0
 11
-116.5243377057452
 21
-64.60562917502979
 31
0.0
  0
ARC
  5
363
330
1F
100
AcDbEntity
  8
16
  6
Continuous
 62
     3
370
    25
100
AcDbCircle
 10
-116.2661246758731
 20
-65.48865013816358
 30
0.0
 40
0.9199999946355817
100
AcDbArc
 50
106.3000000000002
 51
176.2199951171879
  0
LINE
  5
364
330
1F
100
AcDbEntity
  8
16
  6
Continuous
 62
     3
370
    25
100
AcDbLine
 10
-111.5999989509583
 20
-68.24199891898036
 30
0.0
 11
-111.5999989509583
 21
-65.42799893808365
 31
0.0
  0
ARC
  5
365
330
1F
100
AcDbEntity
  8
16
  6
Continuous
 62
     3
370
    25
100
AcDbCircle
 10
-112.5179975246596
 20
-65.48865047402299
 30
0.0
 40
0.9199999946355817
100
AcDbArc
 50
3.779999923706063
 51
73.70000000000016
  0
LINE
  5
366
330
1F
100
AcDbEntity
  8
16
  6
Continuous
 62
     3
370
    25
100
AcDbLine
 10
-112.259783917654
 20
-64.6056296796548
 30
0.0
 11
-113.1237839648609
 21
-64.30162967893953
 31
0.0
  0
ARC
  5
367
330
1F
100
AcDbEntity
  8
16
  6
Continuous
 62
     3
370
    25
100
AcDbCircle
 10
-113.0589468265344
 20
-64.24327355517283
 30
0.0
 40
0.088000000834465
100
AcDbArc
 50
111.909997558594
 51
222.330004882813
  0
LINE
  5
368
330
1F
100
AcDbEntity
  8
16
  6
Continuous
 62
     3
370
    25
100
AcDbLine
 10
-113.092003387426
 20
-64.16253268188053
 30
0.0
 11
-112.8040033716904
 21
-64.02253268217855
 31
0.0
  0
ARC
  5
369
330
1F
100
AcDbEntity
  8
16
  6
Continuous
 62
     3
370
    25
100
AcDbCircle
 10
-113.0619908000057
 20
-64.23997755460768
 30
0.0
 40
0.5400000175833704
100
AcDbArc
 50
90.97999877929706
 51
246.6800048828131
  0
LINE
  5
36A
330
1F
100
AcDbEntity
  8
16
  6
Continuous
 62
     3
370
    25
100
AcDbLine
 10
-113.2757588903078
 20
-64.73586385463885
 30
0.0
 11
-112.3017588986823
 21
-65.07786386736444
 31
0.0
  0
ARC
  5
36B
330
1F
100
AcDbEntity
  8
16
  6
Continuous
 62
     3
370
    25
100
AcDbCircle
 10
-112.421758881397
 20
-65.41786388196759
 30
0.0
 40
0.3599999958276747
100
AcDbArc
 50
0.0
 51
70.57999877929703
  0
LINE
  5
36C
330
1F
100
AcDbEntity
  8
16
  6
Continuous
 62
     3
370
    25
100
AcDbLine
 10
-112.0620622463804
 20
-65.41834553815573
 30
0.0
 11
-112.0620622463804
 21
-68.56234563841075
 31
0.0
  0
ARC
  5
36D
330
1F
100
AcDbEntity
  8
16
  6
Continuous
 62
     3
370
    25
100
AcDbCircle
 10
-111.9220622466785
 20
-68.56234572991332
 30
0.0
 40
0.1399999997019767
100
AcDbArc
 50
180.0000000000004
 51
270.0000000000006
  0
LINE
  5
36E
330
1F
100
AcDbEntity
  8
16
  6
Continuous
 62
     3
370
    25
100
AcDbLine
 10
-111.9220623839323
 20
-68.70234572961522
 30
0.0
 11
-111.2820623648588
 21
-68.70234572961522
 31
0.0
  0
ARC
  5
36F
330
1F
100
AcDbEntity
  8
16
  6
Continuous
 62
     3
370
    25
100
AcDbCircle
 10
-111.282062227605
 20
-68.56234572991332
 30
0.0
 40
0.1399999997019767
100
AcDbArc
 50
270.0000000000006
 51
0.0000000000008142
  0
LINE
  5
370
330
1F
100
AcDbEntity
  8
16
  6
Continuous
 62
     3
370
    25
100
AcDbLine
 10
-111.1420622279031
 20
-68.56234591291845
 30
0.0
 11
-111.1420622279031
 21
-65.41834581266345
 31
0.0
  0
ARC
  5
371
330
1F
100
AcDbEntity
  8
16
  6
Continuous
 62
     3
370
    25
100
AcDbCircle
 10
-110.78236585096
 20
-65.41786424745854
 30
0.0
 40
0.3599999958276747
100
AcDbArc
 50
109.4199951171877
 51
180.0000000000004
  0
LINE
  5
372
330
1F
100
AcDbEntity
  8
16
  6
Continuous
 62
     3
370
    25
100
AcDbLine
 10
-110.9023658336746
 20
-65.07786399756309
 30
0.0
 11
-109.928365842049
 21
-64.7358639848375
 31
0.0
  0
ARC
  5
373
330
1F
100
AcDbEntity
  8
16
  6
Continuous
 62
     3
370
    25
100
AcDbCircle
 10
-110.1421329600321
 20
-64.23997726565733
 30
0.0
 40
0.5400000175833704
100
AcDbArc
 50
293.3199951171881
 51
89.02001953125101
  0
LINE
  5
374
330
1F
100
AcDbEntity
  8
16
  6
Continuous
 62
     3
370
    25
100
AcDbLine
 10
-110.4001196829363
 20
-64.02253223373206
 30
0.0
 11
-110.1121196672007
 21
-64.16253223343404
 31
0.0
  0
ARC
  5
375
330
1F
100
AcDbEntity
  8
16
  6
Continuous
 62
     3
370
    25
100
AcDbCircle
 10
-110.1451761118987
 20
-64.24327297916555
 30
0.0
 40
0.088000000834465
100
AcDbArc
 50
317.6699951171883
 51
68.08999023437599
  0
LINE
  5
376
330
1F
100
AcDbEntity
  8
16
  6
Continuous
 62
     3
370
    25
100
AcDbLine
 10
-110.080338796093
 20
-64.30162917431454
 30
0.0
 11
-110.9443388432999
 21
-64.60562917502979
 31
0.0
  0
ARC
  5
377
330
1F
100
AcDbEntity
  8
16
  6
Continuous
 62
     3
370
    25
100
AcDbCircle
 10
-110.6861258134278
 20
-65.48865013816358
 30
0.0
 40
0.9199999946355817
100
AcDbArc
 50
106.3000000000002
 51
176.2199951171879
  0
LINE
  5
378
330
1F
100
AcDbEntity
  8
16
  6
Continuous
 62
     3
370
    25
100
AcDbLine
 10
-106.0200000885129
 20
-68.24199891898036
 30
0.0
 11
-106.0200000885129
 21
-65.42799893808365
 31
0.0
  0
ARC
  5
379
330
1F
100
AcDbEntity
  8
16
  6
Continuous
 62
     3
370
    25
100
AcDbCircle
 10
-106.9379986622142
 20
-65.48865047402299
 30
0.0
 40
0.9199999946355817
100
AcDbArc
 50
3.779999923706063
 51
73.70000000000016
  0
LINE
  5
37A
330
1F
100
AcDbEntity
  8
16
  6
Continuous
 62
     3
370
    25
100
AcDbLine
 10
-106.6797850552087
 20
-64.6056296796548
 30
0.0
 11
-107.5437851024155
 21
-64.30162967893953
 31
0.0
  0
ARC
  5
37B
330
1F
100
AcDbEntity
  8
16
  6
Continuous
 62
     3
370
    25
100
AcDbCircle
 10
-107.478947964089
 20
-64.24327355517283
 30
0.0
 40
0.088000000834465
100
AcDbArc
 50
111.909997558594
 51
222.330004882813
  0
LINE
  5
37C
330
1F
100
AcDbEntity
  8
16
  6
Continuous
 62
     3
370
    25
100
AcDbLine
 10
-107.5120045249807
 20
-64.16253268188053
 30
0.0
 11
-107.2240045092451
 21
-64.02253268217855
 31
0.0
  0
ARC
  5
37D
330
1F
100
AcDbEntity
  8
16
  6
Continuous
 62
     3
370
    25
100
AcDbCircle
 10
-107.4819919375604
 20
-64.23997755460768
 30
0.0
 40
0.5400000175833704
100
AcDbArc
 50
90.97999877929706
 51
246.6800048828131
  0
LINE
  5
37E
330
1F
100
AcDbEntity
  8
16
  6
Continuous
 62
     3
370
    25
100
AcDbLine
 10
-107.6957600278625
 20
-64.73586385463885
 30
0.0
 11
-106.721760036237
 21
-65.07786386736444
 31
0.0
  0
ARC
  5
37F
330
1F
100
AcDbEntity
  8
16
  6
Continuous
 62
     3
370
    25
100
AcDbCircle
 10
-106.8417600189516
 20
-65.41786388196759
 30
0.0
 40
0.3599999958276747
100
AcDbArc
 50
0.0
 51
70.57999877929703
  0
LINE
  5
380
330
1F
100
AcDbEntity
  8
16
  6
Continuous
 62
     3
370
    25
100
AcDbLine
 10
-106.4820633839351
 20
-65.41834553815573
 30
0.0
 11
-106.4820633839351
 21
-68.56234563841075
 31
0.0
  0
ARC
  5
381
330
1F
100
AcDbEntity
  8
16
  6
Continuous
 62
     3
370
    25
100
AcDbCircle
 10
-106.3420633842331
 20
-68.56234572991332
 30
0.0
 40
0.1399999997019767
100
AcDbArc
 50
180.0000000000004
 51
270.0000000000006
  0
LINE
  5
382
330
1F
100
AcDbEntity
  8
16
  6
Continuous
 62
     3
370
    25
100
AcDbLine
 10
-106.342063521487
 20
-68.70234572961522
 30
0.0
 11
-105.7020635024135
 21
-68.70234572961522
 31
0.0
  0
ARC
  5
383
330
1F
100
AcDbEntity
  8
16
  6
Continuous
 62
     3
370
    25
100
AcDbCircle
 10
-105.7020633651596
 20
-68.56234572991332
 30
0.0
 40
0.1399999997019767
100
AcDbArc
 50
270.0000000000006
 51
0.0000000000008142
  0
LINE
  5
384
330
1F
100
AcDbEntity
  8
16
  6
Continuous
 62
     3
370
    25
100
AcDbLine
 10
-105.5620633654578
 20
-68.56234591291845
 30
0.0
 11
-105.5620633654578
 21
-65.41834581266345
 31
0.0
  0
ARC
  5
385
330
1F
100
AcDbEntity
  8
16
  6
Continuous
 62
     3
370
    25
100
AcDbCircle
 10
-105.2023669885147
 20
-65.41786424745854
 30
0.0
 40
0.3599999958276747
100
AcDbArc
 50
109.4199951171877
 51
180.0000000000004
  0
LINE
  5
386
330
1F
100
AcDbEntity
  8
16
  6
Continuous
 62
     3
370
    25
100
AcDbLine
 10
-105.3223669712293
 20
-65.07786399756309
 30
0.0
 11
-104.3483669796037
 21
-64.7358639848375
 31
0.0
  0
ARC
  5
387
330
1F
100
AcDbEntity
  8
16
  6
Continuous
 62
     3
370
    25
100
AcDbCircle
 10
-104.5621340975868
 20
-64.23997726565733
 30
0.0
 40
0.5400000175833704
100
AcDbArc
 50
293.3199951171881
 51
89.02001953125101
  0
LINE
  5
388
330
1F
100
AcDbEntity
  8
16
  6
Continuous
 62
     3
370
    25
100
AcDbLine
 10
-104.820120820491
 20
-64.02253223373206
 30
0.0
 11
-104.5321208047553
 21
-64.16253223343404
 31
0.0
  0
ARC
  5
389
330
1F
100
AcDbEntity
  8
16
  6
Continuous
 62
     3
370
    25
100
AcDbCircle
 10
-104.5651772494534
 20
-64.24327297916555
 30
0.0
 40
0.088000000834465
100
AcDbArc
 50
317.6699951171883
 51
68.08999023437599
  0
LINE
  5
38A
330
1F
100
AcDbEntity
  8
16
  6
Continuous
 62
     3
370
    25
100
AcDbLine
 10
-104.5003399336477
 20
-64.30162917431454
 30
0.0
 11
-105.3643399808546
 21
-64.60562917502979
 31
0.0
  0
ARC
  5
38B
330
1F
100
AcDbEntity
  8
16
  6
Continuous
 62
     3
370
    25
100
AcDbCircle
 10
-105.1061269509824
 20
-65.48865013816358
 30
0.0
 40
0.9199999946355817
100
AcDbArc
 50
106.3000000000002
 51
176.2199951171879
  0
LINE
  5
38C
330
1F
100
AcDbEntity
  8
16
  6
Continuous
 62
     3
370
    25
100
AcDbLine
 10
-100.4400012260676
 20
-68.24199891898036
 30
0.0
 11
-100.4400012260676
 21
-65.42799893808365
 31
0.0
  0
ARC
  5
38D
330
1F
100
AcDbEntity
  8
16
  6
Continuous
 62
     3
370
    25
100
AcDbCircle
 10
-101.3579997997689
 20
-65.48865047402299
 30
0.0
 40
0.9199999946355817
100
AcDbArc
 50
3.779999923706063
 51
73.70000000000016
  0
LINE
  5
38E
330
1F
100
AcDbEntity
  8
16
  6
Continuous
 62
     3
370
    25
100
AcDbLine
 10
-101.0997861927633
 20
-64.6056296796548
 30
0.0
 11
-101.9637862399702
 21
-64.30162967893953
 31
0.0
  0
ARC
  5
38F
330
1F
100
AcDbEntity
  8
16
  6
Continuous
 62
     3
370
    25
100
AcDbCircle
 10
-101.8989491016437
 20
-64.24327355517283
 30
0.0
 40
0.088000000834465
100
AcDbArc
 50
111.909997558594
 51
222.330004882813
  0
LINE
  5
390
330
1F
100
AcDbEntity
  8
16
  6
Continuous
 62
     3
370
    25
100
AcDbLine
 10
-101.9320056625354
 20
-64.16253268188053
 30
0.0
 11
-101.6440056467997
 21
-64.02253268217855
 31
0.0
  0
ARC
  5
391
330
1F
100
AcDbEntity
  8
16
  6
Continuous
 62
     3
370
    25
100
AcDbCircle
 10
-101.901993075115
 20
-64.23997755460768
 30
0.0
 40
0.5400000175833704
100
AcDbArc
 50
90.97999877929706
 51
246.6800048828131
  0
LINE
  5
392
330
1F
100
AcDbEntity
  8
16
  6
Continuous
 62
     3
370
    25
100
AcDbLine
 10
-102.1157611654172
 20
-64.73586385463885
 30
0.0
 11
-101.1417611737916
 21
-65.07786386736444
 31
0.0
  0
ARC
  5
393
330
1F
100
AcDbEntity
  8
16
  6
Continuous
 62
     3
370
    25
100
AcDbCircle
 10
-101.2617611565063
 20
-65.41786388196759
 30
0.0
 40
0.3599999958276747
100
AcDbArc
 50
0.0
 51
70.57999877929703
  0
LINE
  5
394
330
1F
100
AcDbEntity
  8
16
  6
Continuous
 62
     3
370
    25
100
AcDbLine
 10
-100.9020645214897
 20
-65.41834553815573
 30
0.0
 11
-100.9020645214897
 21
-68.56234563841075
 31
0.0
  0
ARC
  5
395
330
1F
100
AcDbEntity
  8
16
  6
Continuous
 62
     3
370
    25
100
AcDbCircle
 10
-100.7620645217878
 20
-68.56234572991332
 30
0.0
 40
0.1399999997019767
100
AcDbArc
 50
180.0000000000004
 51
270.0000000000006
  0
LINE
  5
396
330
1F
100
AcDbEntity
  8
16
  6
Continuous
 62
     3
370
    25
100
AcDbLine
 10
-100.7620646590416
 20
-68.70234572961522
 30
0.0
 11
-100.1220646399682
 21
-68.70234572961522
 31
0.0
  0
ARC
  5
397
330
1F
100
AcDbEntity
  8
16
  6
Continuous
 62
     3
370
    25
100
AcDbCircle
 10
-100.1220645027143
 20
-68.56234572991332
 30
0.0
 40
0.1399999997019767
100
AcDbArc
 50
270.0000000000006
 51
0.0000000000008142
  0
LINE
  5
398
330
1F
100
AcDbEntity
  8
16
  6
Continuous
 62
     3
370
    25
100
AcDbLine
 10
-99.98206450301245
 20
-68.56234591291845
 30
0.0
 11
-99.98206450301245
 21
-65.41834581266345
 31
0.0
  0
ARC
  5
399
330
1F
100
AcDbEntity
  8
16
  6
Continuous
 62
     3
370
    25
100
AcDbCircle
 10
-99.62236812606935
 20
-65.41786424745854
 30
0.0
 40
0.3599999958276747
100
AcDbArc
 50
109.4199951171877
 51
180.0000000000004
  0
LINE
  5
39A
330
1F
100
AcDbEntity
  8
16
  6
Continuous
 62
     3
370
    25
100
AcDbLine
 10
-99.74236810878394
 20
-65.07786399756309
 30
0.0
 11
-98.76836811715839
 21
-64.7358639848375
 31
0.0
  0
ARC
  5
39B
330
1F
100
AcDbEntity
  8
16
  6
Continuous
 62
     3
370
    25
100
AcDbCircle
 10
-98.98213523514141
 20
-64.23997726565733
 30
0.0
 40
0.5400000175833704
100
AcDbArc
 50
293.3199951171881
 51
89.02001953125101
  0
LINE
  5
39C
330
1F
100
AcDbEntity
  8
16
  6
Continuous
 62
     3
370
    25
100
AcDbLine
 10
-99.24012195804562
 20
-64.02253223373206
 30
0.0
 11
-98.95212194231
 21
-64.16253223343404
 31
0.0
  0
ARC
  5
39D
330
1F
100
AcDbEntity
  8
16
  6
Continuous
 62
     3
370
    25
100
AcDbCircle
 10
-98.98517838700805
 20
-64.24327297916555
 30
0.0
 40
0.088000000834465
100
AcDbArc
 50
317.6699951171883
 51
68.08999023437599
  0
LINE
  5
39E
330
1F
100
AcDbEntity
  8
16
  6
Continuous
 62
     3
370
    25
100
AcDbLine
 10
-98.92034107120236
 20
-64.30162917431454
 30
0.0
 11
-99.78434111840923
 21
-64.60562917502979
 31
0.0
  0
ARC
  5
39F
330
1F
100
AcDbEntity
  8
16
  6
Continuous
 62
     3
370
    25
100
AcDbCircle
 10
-99.5261280885371
 20
-65.48865013816358
 30
0.0
 40
0.9199999946355817
100
AcDbArc
 50
106.3000000000002
 51
176.2199951171879
  0
LINE
  5
3A0
330
1F
100
AcDbEntity
  8
16
  6
Continuous
 62
     3
370
    25
100
AcDbLine
 10
-94.85999626010653
 20
-68.24199891898036
 30
0.0
 11
-94.85999626010653
 21
-65.42799893808365
 31
0.0
  0
ARC
  5
3A1
330
1F
100
AcDbEntity
  8
16
  6
Continuous
 62
     3
370
    25
100
AcDbCircle
 10
-95.77799483380785
 20
-65.48865047402299
 30
0.0
 40
0.9199999946355817
100
AcDbArc
 50
3.779999923706063
 51
73.70000000000016
  0
LINE
  5
3A2
330
1F
100
AcDbEntity
  8
16
  6
Continuous
 62
     3
370
    25
100
AcDbLine
 10
-95.51978122680228
 20
-64.6056296796548
 30
0.0
 11
-96.38378127400915
 21
-64.30162967893953
 31
0.0
  0
ARC
  5
3A3
330
1F
100
AcDbEntity
  8
16
  6
Continuous
 62
     3
370
    25
100
AcDbCircle
 10
-96.31894413568267
 20
-64.24327355517283
 30
0.0
 40
0.088000000834465
100
AcDbArc
 50
111.909997558594
 51
222.330004882813
  0
LINE
  5
3A4
330
1F
100
AcDbEntity
  8
16
  6
Continuous
 62
     3
370
    25
100
AcDbLine
 10
-96.35200069657431
 20
-64.16253268188053
 30
0.0
 11
-96.06400068083867
 21
-64.02253268217855
 31
0.0
  0
ARC
  5
3A5
330
1F
100
AcDbEntity
  8
16
  6
Continuous
 62
     3
370
    25
100
AcDbCircle
 10
-96.321988109154
 20
-64.23997755460768
 30
0.0
 40
0.5400000175833704
100
AcDbArc
 50
90.97999877929706
 51
246.6800048828131
  0
LINE
  5
3A6
330
1F
100
AcDbEntity
  8
16
  6
Continuous
 62
     3
370
    25
100
AcDbLine
 10
-96.53575619945612
 20
-64.73586385463885
 30
0.0
 11
-95.56175620783057
 21
-65.07786386736444
 31
0.0
  0
ARC
  5
3A7
330
1F
100
AcDbEntity
  8
16
  6
Continuous
 62
     3
370
    25
100
AcDbCircle
 10
-95.68175619054523
 20
-65.41786388196759
 30
0.0
 40
0.3599999958276747
100
AcDbArc
 50
0.0
 51
70.57999877929703
  0
LINE
  5
3A8
330
1F
100
AcDbEntity
  8
16
  6
Continuous
 62
     3
370
    25
100
AcDbLine
 10
-95.32205955552868
 20
-65.41834553815573
 30
0.0
 11
-95.32205955552868
 21
-68.56234563841075
 31
0.0
  0
ARC
  5
3A9
330
1F
100
AcDbEntity
  8
16
  6
Continuous
 62
     3
370
    25
100
AcDbCircle
 10
-95.18205955582675
 20
-68.56234572991332
 30
0.0
 40
0.1399999997019767
100
AcDbArc
 50
180.0000000000004
 51
270.0000000000006
  0
LINE
  5
3AA
330
1F
100
AcDbEntity
  8
16
  6
Continuous
 62
     3
370
    25
100
AcDbLine
 10
-95.18205969308059
 20
-68.70234572961522
 30
0.0
 11
-94.5420596740071
 21
-68.70234572961522
 31
0.0
  0
ARC
  5
3AB
330
1F
100
AcDbEntity
  8
16
  6
Continuous
 62
     3
370
    25
100
AcDbCircle
 10
-94.54205953675326
 20
-68.56234572991332
 30
0.0
 40
0.1399999997019767
100
AcDbArc
 50
270.0000000000006
 51
0.0000000000008142
  0
LINE
  5
3AC
330
1F
100
AcDbEntity
  8
16
  6
Continuous
 62
     3
370
    25
100
AcDbLine
 10
-94.4020595370514
 20
-68.56234591291845
 30
0.0
 11
-94.4020595370514
 21
-65.41834581266345
 31
0.0
  0
ARC
  5
3AD
330
1F
100
AcDbEntity
  8
16
  6
Continuous
 62
     3
370
    25
100
AcDbCircle
 10
-94.0423631601083
 20
-65.41786424745854
 30
0.0
 40
0.3599999958276747
100
AcDbArc
 50
109.4199951171877
 51
180.0000000000004
  0
LINE
  5
3AE
330
1F
100
AcDbEntity
  8
16
  6
Continuous
 62
     3
370
    25
100
AcDbLine
 10
-94.16236314282287
 20
-65.07786399756309
 30
0.0
 11
-93.18836315119734
 21
-64.7358639848375
 31
0.0
  0
ARC
  5
3AF
330
1F
100
AcDbEntity
  8
16
  6
Continuous
 62
     3
370
    25
100
AcDbCircle
 10
-93.40213026918038
 20
-64.23997726565733
 30
0.0
 40
0.5400000175833704
100
AcDbArc
 50
293.3199951171881
 51
89.02001953125101
  0
LINE
  5
3B0
330
1F
100
AcDbEntity
  8
16
  6
Continuous
 62
     3
370
    25
100
AcDbLine
 10
-93.66011699208457
 20
-64.02253223373206
 30
0.0
 11
-93.37211697634893
 21
-64.16253223343404
 31
0.0
  0
ARC
  5
3B1
330
1F
100
AcDbEntity
  8
16
  6
Continuous
 62
     3
370
    25
100
AcDbCircle
 10
-93.405173421047
 20
-64.24327297916555
 30
0.0
 40
0.088000000834465
100
AcDbArc
 50
317.6699951171883
 51
68.08999023437599
  0
LINE
  5
3B2
330
1F
100
AcDbEntity
  8
16
  6
Continuous
 62
     3
370
    25
100
AcDbLine
 10
-93.3403361052413
 20
-64.30162917431454
 30
0.0
 11
-94.20433615244818
 21
-64.60562917502979
 31
0.0
  0
ARC
  5
3B3
330
1F
100
AcDbEntity
  8
16
  6
Continuous
 62
     3
370
    25
100
AcDbCircle
 10
-93.94612312257605
 20
-65.48865013816358
 30
0.0
 40
0.9199999946355817
100
AcDbArc
 50
106.3000000000002
 51
176.2199951171879
  0
LINE
  5
3B4
330
1F
100
AcDbEntity
  8
16
  6
Continuous
 62
     3
370
    25
100
AcDbLine
 10
-89.27999739766119
 20
-68.24199891898036
 30
0.0
 11
-89.27999739766119
 21
-65.42799893808365
 31
0.0
  0
ARC
  5
3B5
330
1F
100
AcDbEntity
  8
16
  6
Continuous
 62
     3
370
    25
100
AcDbCircle
 10
-90.19799597136252
 20
-65.48865047402299
 30
0.0
 40
0.9199999946355817
100
AcDbArc
 50
3.779999923706063
 51
73.70000000000016
  0
LINE
  5
3B6
330
1F
100
AcDbEntity
  8
16
  6
Continuous
 62
     3
370
    25
100
AcDbLine
 10
-89.93978236435694
 20
-64.6056296796548
 30
0.0
 11
-90.80378241156382
 21
-64.30162967893953
 31
0.0
  0
ARC
  5
3B7
330
1F
100
AcDbEntity
  8
16
  6
Continuous
 62
     3
370
    25
100
AcDbCircle
 10
-90.73894527323733
 20
-64.24327355517283
 30
0.0
 40
0.088000000834465
100
AcDbArc
 50
111.909997558594
 51
222.330004882813
  0
LINE
  5
3B8
330
1F
100
AcDbEntity
  8
16
  6
Continuous
 62
     3
370
    25
100
AcDbLine
 10
-90.77200183412897
 20
-64.16253268188053
 30
0.0
 11
-90.48400181839337
 21
-64.02253268217855
 31
0.0
  0
ARC
  5
3B9
330
1F
100
AcDbEntity
  8
16
  6
Continuous
 62
     3
370
    25
100
AcDbCircle
 10
-90.74198924670867
 20
-64.23997755460768
 30
0.0
 40
0.5400000175833704
100
AcDbArc
 50
90.97999877929706
 51
246.6800048828131
  0
LINE
  5
3BA
330
1F
100
AcDbEntity
  8
16
  6
Continuous
 62
     3
370
    25
100
AcDbLine
 10
-90.95575733701081
 20
-64.73586385463885
 30
0.0
 11
-89.98175734538523
 21
-65.07786386736444
 31
0.0
  0
ARC
  5
3BB
330
1F
100
AcDbEntity
  8
16
  6
Continuous
 62
     3
370
    25
100
AcDbCircle
 10
-90.1017573280999
 20
-65.41786388196759
 30
0.0
 40
0.3599999958276747
100
AcDbArc
 50
0.0
 51
70.57999877929703
  0
LINE
  5
3BC
330
1F
100
AcDbEntity
  8
16
  6
Continuous
 62
     3
370
    25
100
AcDbLine
 10
-89.74206069308335
 20
-65.41834553815573
 30
0.0
 11
-89.74206069308335
 21
-68.56234563841075
 31
0.0
  0
ARC
  5
3BD
330
1F
100
AcDbEntity
  8
16
  6
Continuous
 62
     3
370
    25
100
AcDbCircle
 10
-89.60206069338142
 20
-68.56234572991332
 30
0.0
 40
0.1399999997019767
100
AcDbArc
 50
180.0000000000004
 51
270.0000000000006
  0
LINE
  5
3BE
330
1F
100
AcDbEntity
  8
16
  6
Continuous
 62
     3
370
    25
100
AcDbLine
 10
-89.60206083063527
 20
-68.70234572961522
 30
0.0
 11
-88.96206081156177
 21
-68.70234572961522
 31
0.0
  0
ARC
  5
3BF
330
1F
100
AcDbEntity
  8
16
  6
Continuous
 62
     3
370
    25
100
AcDbCircle
 10
-88.9620606743079
 20
-68.56234572991332
 30
0.0
 40
0.1399999997019767
100
AcDbArc
 50
270.0000000000006
 51
0.0000000000008142
  0
LINE
  5
3C0
330
1F
100
AcDbEntity
  8
16
  6
Continuous
 62
     3
370
    25
100
AcDbLine
 10
-88.82206067460606
 20
-68.56234591291845
 30
0.0
 11
-88.82206067460606
 21
-65.41834581266345
 31
0.0
  0
ARC
  5
3C1
330
1F
100
AcDbEntity
  8
16
  6
Continuous
 62
     3
370
    25
100
AcDbCircle
 10
-88.46236429766296
 20
-65.41786424745854
 30
0.0
 40
0.3599999958276747
100
AcDbArc
 50
109.4199951171877
 51
180.0000000000004
  0
LINE
  5
3C2
330
1F
100
AcDbEntity
  8
16
  6
Continuous
 62
     3
370
    25
100
AcDbLine
 10
-88.58236428037755
 20
-65.07786399756309
 30
0.0
 11
-87.608364288752
 21
-64.7358639848375
 31
0.0
  0
ARC
  5
3C3
330
1F
100
AcDbEntity
  8
16
  6
Continuous
 62
     3
370
    25
100
AcDbCircle
 10
-87.82213140673504
 20
-64.23997726565733
 30
0.0
 40
0.5400000175833704
100
AcDbArc
 50
293.3199951171881
 51
89.02001953125101
  0
LINE
  5
3C4
330
1F
100
AcDbEntity
  8
16
  6
Continuous
 62
     3
370
    25
100
AcDbLine
 10
-88.08011812963923
 20
-64.02253223373206
 30
0.0
 11
-87.79211811390361
 21
-64.16253223343404
 31
0.0
  0
ARC
  5
3C5
330
1F
100
AcDbEntity
  8
16
  6
Continuous
 62
     3
370
    25
100
AcDbCircle
 10
-87.82517455860166
 20
-64.24327297916555
 30
0.0
 40
0.088000000834465
100
AcDbArc
 50
317.6699951171883
 51
68.08999023437599
  0
LINE
  5
3C6
330
1F
100
AcDbEntity
  8
16
  6
Continuous
 62
     3
370
    25
100
AcDbLine
 10
-87.76033724279597
 20
-64.30162917431454
 30
0.0
 11
-88.62433729000284
 21
-64.60562917502979
 31
0.0
  0
ARC
  5
3C7
330
1F
100
AcDbEntity
  8
16
  6
Continuous
 62
     3
370
    25
100
AcDbCircle
 10
-88.36612426013072
 20
-65.48865013816358
 30
0.0
 40
0.9199999946355817
100
AcDbArc
 50
106.3000000000002
 51
176.2199951171879
  0
LINE
  5
3C8
330
1F
100
AcDbEntity
  8
16
  6
Continuous
 62
     3
370
    25
100
AcDbLine
 10
-83.69999853521585
 20
-68.24199891898036
 30
0.0
 11
-83.69999853521585
 21
-65.42799893808365
 31
0.0
  0
ARC
  5
3C9
330
1F
100
AcDbEntity
  8
16
  6
Continuous
 62
     3
370
    25
100
AcDbCircle
 10
-84.61799710891718
 20
-65.48865047402299
 30
0.0
 40
0.9199999946355817
100
AcDbArc
 50
3.779999923706063
 51
73.70000000000016
  0
LINE
  5
3CA
330
1F
100
AcDbEntity
  8
16
  6
Continuous
 62
     3
370
    25
100
AcDbLine
 10
-84.3597835019116
 20
-64.6056296796548
 30
0.0
 11
-85.22378354911848
 21
-64.30162967893953
 31
0.0
  0
ARC
  5
3CB
330
1F
100
AcDbEntity
  8
16
  6
Continuous
 62
     3
370
    25
100
AcDbCircle
 10
-85.158946410792
 20
-64.24327355517283
 30
0.0
 40
0.088000000834465
100
AcDbArc
 50
111.909997558594
 51
222.330004882813
  0
LINE
  5
3CC
330
1F
100
AcDbEntity
  8
16
  6
Continuous
 62
     3
370
    25
100
AcDbLine
 10
-85.19200297168364
 20
-64.16253268188053
 30
0.0
 11
-84.90400295594803
 21
-64.02253268217855
 31
0.0
  0
ARC
  5
3CD
330
1F
100
AcDbEntity
  8
16
  6
Continuous
 62
     3
370
    25
100
AcDbCircle
 10
-85.16199038426333
 20
-64.23997755460768
 30
0.0
 40
0.5400000175833704
100
AcDbArc
 50
90.97999877929706
 51
246.6800048828131
  0
LINE
  5
3CE
330
1F
100
AcDbEntity
  8
16
  6
Continuous
 62
     3
370
    25
100
AcDbLine
 10
-85.37575847456544
 20
-64.73586385463885
 30
0.0
 11
-84.4017584829399
 21
-65.07786386736444
 31
0.0
  0
ARC
  5
3CF
330
1F
100
AcDbEntity
  8
16
  6
Continuous
 62
     3
370
    25
100
AcDbCircle
 10
-84.52175846565456
 20
-65.41786388196759
 30
0.0
 40
0.3599999958276747
100
AcDbArc
 50
0.0
 51
70.57999877929703
  0
LINE
  5
3D0
330
1F
100
AcDbEntity
  8
16
  6
Continuous
 62
     3
370
    25
100
AcDbLine
 10
-84.16206183063801
 20
-65.41834553815573
 30
0.0
 11
-84.16206183063801
 21
-68.56234563841075
 31
0.0
  0
ARC
  5
3D1
330
1F
100
AcDbEntity
  8
16
  6
Continuous
 62
     3
370
    25
100
AcDbCircle
 10
-84.02206183093608
 20
-68.56234572991332
 30
0.0
 40
0.1399999997019767
100
AcDbArc
 50
180.0000000000004
 51
270.0000000000006
  0
LINE
  5
3D2
330
1F
100
AcDbEntity
  8
16
  6
Continuous
 62
     3
370
    25
100
AcDbLine
 10
-84.02206196818992
 20
-68.70234572961522
 30
0.0
 11
-83.38206194911643
 21
-68.70234572961522
 31
0.0
  0
ARC
  5
3D3
330
1F
100
AcDbEntity
  8
16
  6
Continuous
 62
     3
370
    25
100
AcDbCircle
 10
-83.38206181186258
 20
-68.56234572991332
 30
0.0
 40
0.1399999997019767
100
AcDbArc
 50
270.0000000000006
 51
0.0000000000008142
  0
LINE
  5
3D4
330
1F
100
AcDbEntity
  8
16
  6
Continuous
 62
     3
370
    25
100
AcDbLine
 10
-83.24206181216073
 20
-68.56234591291845
 30
0.0
 11
-83.24206181216073
 21
-65.41834581266345
 31
0.0
  0
ARC
  5
3D5
330
1F
100
AcDbEntity
  8
16
  6
Continuous
 62
     3
370
    25
100
AcDbCircle
 10
-82.88236543521765
 20
-65.41786424745854
 30
0.0
 40
0.3599999958276747
100
AcDbArc
 50
109.4199951171877
 51
180.0000000000004
  0
LINE
  5
3D6
330
1F
100
AcDbEntity
  8
16
  6
Continuous
 62
     3
370
    25
100
AcDbLine
 10
-83.0023654179322
 20
-65.07786399756309
 30
0.0
 11
-82.02836542630666
 21
-64.7358639848375
 31
0.0
  0
ARC
  5
3D7
330
1F
100
AcDbEntity
  8
16
  6
Continuous
 62
     3
370
    25
100
AcDbCircle
 10
-82.2421325442897
 20
-64.23997726565733
 30
0.0
 40
0.5400000175833704
100
AcDbArc
 50
293.3199951171881
 51
89.02001953125101
  0
LINE
  5
3D8
330
1F
100
AcDbEntity
  8
16
  6
Continuous
 62
     3
370
    25
100
AcDbLine
 10
-82.5001192671939
 20
-64.02253223373206
 30
0.0
 11
-82.21211925145828
 21
-64.16253223343404
 31
0.0
  0
ARC
  5
3D9
330
1F
100
AcDbEntity
  8
16
  6
Continuous
 62
     3
370
    25
100
AcDbCircle
 10
-82.24517569615632
 20
-64.24327297916555
 30
0.0
 40
0.088000000834465
100
AcDbArc
 50
317.6699951171883
 51
68.08999023437599
  0
LINE
  5
3DA
330
1F
100
AcDbEntity
  8
16
  6
Continuous
 62
     3
370
    25
100
AcDbLine
 10
-82.18033838035063
 20
-64.30162917431454
 30
0.0
 11
-83.0443384275575
 21
-64.60562917502979
 31
0.0
  0
ARC
  5
3DB
330
1F
100
AcDbEntity
  8
16
  6
Continuous
 62
     3
370
    25
100
AcDbCircle
 10
-82.78612539768535
 20
-65.48865013816358
 30
0.0
 40
0.9199999946355817
100
AcDbArc
 50
106.3000000000002
 51
176.2199951171879
  0
LINE
  5
3DC
330
1F
100
AcDbEntity
  8
16
  6
Continuous
 62
     3
370
    25
100
AcDbLine
 10
-78.11999967277052
 20
-68.24199891898036
 30
0.0
 11
-78.11999967277052
 21
-65.42799893808365
 31
0.0
  0
ARC
  5
3DD
330
1F
100
AcDbEntity
  8
16
  6
Continuous
 62
     3
370
    25
100
AcDbCircle
 10
-79.03799824647184
 20
-65.48865047402299
 30
0.0
 40
0.9199999946355817
100
AcDbArc
 50
3.779999923706063
 51
73.70000000000016
  0
LINE
  5
3DE
330
1F
100
AcDbEntity
  8
16
  6
Continuous
 62
     3
370
    25
100
AcDbLine
 10
-78.77978463946627
 20
-64.6056296796548
 30
0.0
 11
-79.64378468667314
 21
-64.30162967893953
 31
0.0
  0
ARC
  5
3DF
330
1F
100
AcDbEntity
  8
16
  6
Continuous
 62
     3
370
    25
100
AcDbCircle
 10
-79.57894754834666
 20
-64.24327355517283
 30
0.0
 40
0.088000000834465
100
AcDbArc
 50
111.909997558594
 51
222.330004882813
  0
LINE
  5
3E0
330
1F
100
AcDbEntity
  8
16
  6
Continuous
 62
     3
370
    25
100
AcDbLine
 10
-79.6120041092383
 20
-64.16253268188053
 30
0.0
 11
-79.3240040935027
 21
-64.02253268217855
 31
0.0
  0
ARC
  5
3E1
330
1F
100
AcDbEntity
  8
16
  6
Continuous
 62
     3
370
    25
100
AcDbCircle
 10
-79.581991521818
 20
-64.23997755460768
 30
0.0
 40
0.5400000175833704
100
AcDbArc
 50
90.97999877929706
 51
246.6800048828131
  0
LINE
  5
3E2
330
1F
100
AcDbEntity
  8
16
  6
Continuous
 62
     3
370
    25
100
AcDbLine
 10
-79.79575961212011
 20
-64.73586385463885
 30
0.0
 11
-78.82175962049457
 21
-65.07786386736444
 31
0.0
  0
ARC
  5
3E3
330
1F
100
AcDbEntity
  8
16
  6
Continuous
 62
     3
370
    25
100
AcDbCircle
 10
-78.94175960320922
 20
-65.41786388196759
 30
0.0
 40
0.3599999958276747
100
AcDbArc
 50
0.0
 51
70.57999877929703
  0
LINE
  5
3E4
330
1F
100
AcDbEntity
  8
16
  6
Continuous
 62
     3
370
    25
100
AcDbLine
 10
-78.58206296819267
 20
-65.41834553815573
 30
0.0
 11
-78.58206296819267
 21
-68.56234563841075
 31
0.0
  0
ARC
  5
3E5
330
1F
100
AcDbEntity
  8
16
  6
Continuous
 62
     3
370
    25
100
AcDbCircle
 10
-78.44206296849075
 20
-68.56234572991332
 30
0.0
 40
0.1399999997019767
100
AcDbArc
 50
180.0000000000004
 51
270.0000000000006
  0
LINE
  5
3E6
330
1F
100
AcDbEntity
  8
16
  6
Continuous
 62
     3
370
    25
100
AcDbLine
 10
-78.44206310574458
 20
-68.70234572961522
 30
0.0
 11
-77.8020630866711
 21
-68.70234572961522
 31
0.0
  0
ARC
  5
3E7
330
1F
100
AcDbEntity
  8
16
  6
Continuous
 62
     3
370
    25
100
AcDbCircle
 10
-77.80206294941723
 20
-68.56234572991332
 30
0.0
 40
0.1399999997019767
100
AcDbArc
 50
270.0000000000006
 51
0.0000000000008142
  0
LINE
  5
3E8
330
1F
100
AcDbEntity
  8
16
  6
Continuous
 62
     3
370
    25
100
AcDbLine
 10
-77.66206294971539
 20
-68.56234591291845
 30
0.0
 11
-77.66206294971539
 21
-65.41834581266345
 31
0.0
  0
ARC
  5
3E9
330
1F
100
AcDbEntity
  8
16
  6
Continuous
 62
     3
370
    25
100
AcDbCircle
 10
-77.30236657277229
 20
-65.41786424745854
 30
0.0
 40
0.3599999958276747
100
AcDbArc
 50
109.4199951171877
 51
180.0000000000004
  0
LINE
  5
3EA
330
1F
100
AcDbEntity
  8
16
  6
Continuous
 62
     3
370
    25
100
AcDbLine
 10
-77.42236655548687
 20
-65.07786399756309
 30
0.0
 11
-76.44836656386131
 21
-64.7358639848375
 31
0.0
  0
ARC
  5
3EB
330
1F
100
AcDbEntity
  8
16
  6
Continuous
 62
     3
370
    25
100
AcDbCircle
 10
-76.66213368184437
 20
-64.23997726565733
 30
0.0
 40
0.5400000175833704
100
AcDbArc
 50
293.3199951171881
 51
89.02001953125101
  0
LINE
  5
3EC
330
1F
100
AcDbEntity
  8
16
  6
Continuous
 62
     3
370
    25
100
AcDbLine
 10
-76.92012040474856
 20
-64.02253223373206
 30
0.0
 11
-76.63212038901294
 21
-64.16253223343404
 31
0.0
  0
ARC
  5
3ED
330
1F
100
AcDbEntity
  8
16
  6
Continuous
 62
     3
370
    25
100
AcDbCircle
 10
-76.66517683371099
 20
-64.24327297916555
 30
0.0
 40
0.088000000834465
100
AcDbArc
 50
317.6699951171883
 51
68.08999023437599
  0
LINE
  5
3EE
330
1F
100
AcDbEntity
  8
16
  6
Continuous
 62
     3
370
    25
100
AcDbLine
 10
-76.60033951790528
 20
-64.30162917431454
 30
0.0
 11
-77.46433956511217
 21
-64.60562917502979
 31
0.0
  0
ARC
  5
3EF
330
1F
100
AcDbEntity
  8
16
  6
Continuous
 62
     3
370
    25
100
AcDbCircle
 10
-77.20612653524005
 20
-65.48865013816358
 30
0.0
 40
0.9199999946355817
100
AcDbArc
 50
106.3000000000002
 51
176.2199951171879
  0
LINE
  5
3F0
330
1F
100
AcDbEntity
  8
16
  6
Continuous
 62
     3
370
    25
100
AcDbLine
 10
-72.54000081032518
 20
-68.24199891898036
 30
0.0
 11
-72.54000081032518
 21
-65.42799893808365
 31
0.0
  0
ARC
  5
3F1
330
1F
100
AcDbEntity
  8
16
  6
Continuous
 62
     3
370
    25
100
AcDbCircle
 10
-73.45799938402651
 20
-65.48865047402299
 30
0.0
 40
0.9199999946355817
100
AcDbArc
 50
3.779999923706063
 51
73.70000000000016
  0
LINE
  5
3F2
330
1F
100
AcDbEntity
  8
16
  6
Continuous
 62
     3
370
    25
100
AcDbLine
 10
-73.19978577702094
 20
-64.6056296796548
 30
0.0
 11
-74.0637858242278
 21
-64.30162967893953
 31
0.0
  0
ARC
  5
3F3
330
1F
100
AcDbEntity
  8
16
  6
Continuous
 62
     3
370
    25
100
AcDbCircle
 10
-73.99894868590131
 20
-64.24327355517283
 30
0.0
 40
0.088000000834465
100
AcDbArc
 50
111.909997558594
 51
222.330004882813
  0
LINE
  5
3F4
330
1F
100
AcDbEntity
  8
16
  6
Continuous
 62
     3
370
    25
100
AcDbLine
 10
-74.03200524679299
 20
-64.16253268188053
 30
0.0
 11
-73.74400523105736
 21
-64.02253268217855
 31
0.0
  0
ARC
  5
3F5
330
1F
100
AcDbEntity
  8
16
  6
Continuous
 62
     3
370
    25
100
AcDbCircle
 10
-74.00199265937265
 20
-64.23997755460768
 30
0.0
 40
0.5400000175833704
100
AcDbArc
 50
90.97999877929706
 51
246.6800048828131
  0
LINE
  5
3F6
330
1F
100
AcDbEntity
  8
16
  6
Continuous
 62
     3
370
    25
100
AcDbLine
 10
-74.2157607496748
 20
-64.73586385463885
 30
0.0
 11
-73.24176075804922
 21
-65.07786386736444
 31
0.0
  0
ARC
  5
3F7
330
1F
100
AcDbEntity
  8
16
  6
Continuous
 62
     3
370
    25
100
AcDbCircle
 10
-73.36176074076388
 20
-65.41786388196759
 30
0.0
 40
0.3599999958276747
100
AcDbArc
 50
0.0
 51
70.57999877929703
  0
LINE
  5
3F8
330
1F
100
AcDbEntity
  8
16
  6
Continuous
 62
     3
370
    25
100
AcDbLine
 10
-73.00206410574734
 20
-65.41834553815573
 30
0.0
 11
-73.00206410574734
 21
-68.56234563841075
 31
0.0
  0
ARC
  5
3F9
330
1F
100
AcDbEntity
  8
16
  6
Continuous
 62
     3
370
    25
100
AcDbCircle
 10
-72.8620641060454
 20
-68.56234572991332
 30
0.0
 40
0.1399999997019767
100
AcDbArc
 50
180.0000000000004
 51
270.0000000000006
  0
LINE
  5
3FA
330
1F
100
AcDbEntity
  8
16
  6
Continuous
 62
     3
370
    25
100
AcDbLine
 10
-72.86206424329924
 20
-68.70234572961522
 30
0.0
 11
-72.22206422422576
 21
-68.70234572961522
 31
0.0
  0
ARC
  5
3FB
330
1F
100
AcDbEntity
  8
16
  6
Continuous
 62
     3
370
    25
100
AcDbCircle
 10
-72.22206408697191
 20
-68.56234572991332
 30
0.0
 40
0.1399999997019767
100
AcDbArc
 50
270.0000000000006
 51
0.0000000000008142
  0
LINE
  5
3FC
330
1F
100
AcDbEntity
  8
16
  6
Continuous
 62
     3
370
    25
100
AcDbLine
 10
-72.08206408727006
 20
-68.56234591291845
 30
0.0
 11
-72.08206408727006
 21
-65.41834581266345
 31
0.0
  0
ARC
  5
3FD
330
1F
100
AcDbEntity
  8
16
  6
Continuous
 62
     3
370
    25
100
AcDbCircle
 10
-71.72236771032695
 20
-65.41786424745854
 30
0.0
 40
0.3599999958276747
100
AcDbArc
 50
109.4199951171877
 51
180.0000000000004
  0
LINE
  5
3FE
330
1F
100
AcDbEntity
  8
16
  6
Continuous
 62
     3
370
    25
100
AcDbLine
 10
-71.84236769304152
 20
-65.07786399756309
 30
0.0
 11
-70.86836770141598
 21
-64.7358639848375
 31
0.0
  0
ARC
  5
3FF
330
1F
100
AcDbEntity
  8
16
  6
Continuous
 62
     3
370
    25
100
AcDbCircle
 10
-71.08213481939903
 20
-64.23997726565733
 30
0.0
 40
0.5400000175833704
100
AcDbArc
 50
293.3199951171881
 51
89.02001953125101
  0
LINE
  5
400
330
1F
100
AcDbEntity
  8
16
  6
Continuous
 62
     3
370
    25
100
AcDbLine
 10
-71.34012154230324
 20
-64.02253223373206
 30
0.0
 11
-71.0521215265676
 21
-64.16253223343404
 31
0.0
  0
ARC
  5
401
330
1F
100
AcDbEntity
  8
16
  6
Continuous
 62
     3
370
    25
100
AcDbCircle
 10
-71.08517797126565
 20
-64.24327297916555
 30
0.0
 40
0.088000000834465
100
AcDbArc
 50
317.6699951171883
 51
68.08999023437599
  0
LINE
  5
402
330
1F
100
AcDbEntity
  8
16
  6
Continuous
 62
     3
370
    25
100
AcDbLine
 10
-71.02034065545996
 20
-64.30162917431454
 30
0.0
 11
-71.88434070266683
 21
-64.60562917502979
 31
0.0
  0
ARC
  5
403
330
1F
100
AcDbEntity
  8
16
  6
Continuous
 62
     3
370
    25
100
AcDbCircle
 10
-71.62612767279471
 20
-65.48865013816358
 30
0.0
 40
0.9199999946355817
100
AcDbArc
 50
106.3000000000002
 51
176.2199951171879
  0
LINE
  5
404
330
1F
100
AcDbEntity
  8
16
  6
Continuous
 62
     3
370
    25
100
AcDbLine
 10
-66.95999584436413
 20
-68.24199891898036
 30
0.0
 11
-66.95999584436413
 21
-65.42799893808365
 31
0.0
  0
ARC
  5
405
330
1F
100
AcDbEntity
  8
16
  6
Continuous
 62
     3
370
    25
100
AcDbCircle
 10
-67.87799441806546
 20
-65.48865047402299
 30
0.0
 40
0.9199999946355817
100
AcDbArc
 50
3.779999923706063
 51
73.70000000000016
  0
LINE
  5
406
330
1F
100
AcDbEntity
  8
16
  6
Continuous
 62
     3
370
    25
100
AcDbLine
 10
-67.61978081105988
 20
-64.6056296796548
 30
0.0
 11
-68.48378085826675
 21
-64.30162967893953
 31
0.0
  0
ARC
  5
407
330
1F
100
AcDbEntity
  8
16
  6
Continuous
 62
     3
370
    25
100
AcDbCircle
 10
-68.41894371994026
 20
-64.24327355517283
 30
0.0
 40
0.088000000834465
100
AcDbArc
 50
111.909997558594
 51
222.330004882813
  0
LINE
  5
408
330
1F
100
AcDbEntity
  8
16
  6
Continuous
 62
     3
370
    25
100
AcDbLine
 10
-68.45200028083191
 20
-64.16253268188053
 30
0.0
 11
-68.1640002650963
 21
-64.02253268217855
 31
0.0
  0
ARC
  5
409
330
1F
100
AcDbEntity
  8
16
  6
Continuous
 62
     3
370
    25
100
AcDbCircle
 10
-68.4219876934116
 20
-64.23997755460768
 30
0.0
 40
0.5400000175833704
100
AcDbArc
 50
90.97999877929706
 51
246.6800048828131
  0
LINE
  5
40A
330
1F
100
AcDbEntity
  8
16
  6
Continuous
 62
     3
370
    25
100
AcDbLine
 10
-68.63575578371372
 20
-64.73586385463885
 30
0.0
 11
-67.66175579208819
 21
-65.07786386736444
 31
0.0
  0
ARC
  5
40B
330
1F
100
AcDbEntity
  8
16
  6
Continuous
 62
     3
370
    25
100
AcDbCircle
 10
-67.78175577480283
 20
-65.41786388196759
 30
0.0
 40
0.3599999958276747
100
AcDbArc
 50
0.0
 51
70.57999877929703
  0
LINE
  5
40C
330
1F
100
AcDbEntity
  8
16
  6
Continuous
 62
     3
370
    25
100
AcDbLine
 10
-67.42205913978628
 20
-65.41834553815573
 30
0.0
 11
-67.42205913978628
 21
-68.56234563841075
 31
0.0
  0
ARC
  5
40D
330
1F
100
AcDbEntity
  8
16
  6
Continuous
 62
     3
370
    25
100
AcDbCircle
 10
-67.28205914008434
 20
-68.56234572991332
 30
0.0
 40
0.1399999997019767
100
AcDbArc
 50
180.0000000000004
 51
270.0000000000006
  0
LINE
  5
40E
330
1F
100
AcDbEntity
  8
16
  6
Continuous
 62
     3
370
    25
100
AcDbLine
 10
-67.2820592773382
 20
-68.70234572961522
 30
0.0
 11
-66.64205925826471
 21
-68.70234572961522
 31
0.0
  0
ARC
  5
40F
330
1F
100
AcDbEntity
  8
16
  6
Continuous
 62
     3
370
    25
100
AcDbCircle
 10
-66.64205912101085
 20
-68.56234572991332
 30
0.0
 40
0.1399999997019767
100
AcDbArc
 50
270.0000000000006
 51
0.0000000000008142
  0
LINE
  5
410
330
1F
100
AcDbEntity
  8
16
  6
Continuous
 62
     3
370
    25
100
AcDbLine
 10
-66.502059121309
 20
-68.56234591291845
 30
0.0
 11
-66.502059121309
 21
-65.41834581266345
 31
0.0
  0
ARC
  5
411
330
1F
100
AcDbEntity
  8
16
  6
Continuous
 62
     3
370
    25
100
AcDbCircle
 10
-66.1423627443659
 20
-65.41786424745854
 30
0.0
 40
0.3599999958276747
100
AcDbArc
 50
109.4199951171877
 51
180.0000000000004
  0
LINE
  5
412
330
1F
100
AcDbEntity
  8
16
  6
Continuous
 62
     3
370
    25
100
AcDbLine
 10
-66.26236272708049
 20
-65.07786399756309
 30
0.0
 11
-65.28836273545492
 21
-64.7358639848375
 31
0.0
  0
ARC
  5
413
330
1F
100
AcDbEntity
  8
16
  6
Continuous
 62
     3
370
    25
100
AcDbCircle
 10
-65.50212985343798
 20
-64.23997726565733
 30
0.0
 40
0.5400000175833704
100
AcDbArc
 50
293.3199951171881
 51
89.02001953125101
  0
LINE
  5
414
330
1F
100
AcDbEntity
  8
16
  6
Continuous
 62
     3
370
    25
100
AcDbLine
 10
-65.76011657634217
 20
-64.02253223373206
 30
0.0
 11
-65.47211656060655
 21
-64.16253223343404
 31
0.0
  0
ARC
  5
415
330
1F
100
AcDbEntity
  8
16
  6
Continuous
 62
     3
370
    25
100
AcDbCircle
 10
-65.5051730053046
 20
-64.24327297916555
 30
0.0
 40
0.088000000834465
100
AcDbArc
 50
317.6699951171883
 51
68.08999023437599
  0
LINE
  5
416
330
1F
100
AcDbEntity
  8
16
  6
Continuous
 62
     3
370
    25
100
AcDbLine
 10
-65.4403356894989
 20
-64.30162917431454
 30
0.0
 11
-66.30433573670578
 21
-64.60562917502979
 31
0.0
  0
ARC
  5
417
330
1F
100
AcDbEntity
  8
16
  6
Continuous
 62
     3
370
    25
100
AcDbCircle
 10
-66.04612270683366
 20
-65.48865013816358
 30
0.0
 40
0.9199999946355817
100
AcDbArc
 50
106.3000000000002
 51
176.2199951171879
  0
LINE
  5
418
330
1F
100
AcDbEntity
  8
16
  6
Continuous
 62
     3
370
    25
100
AcDbLine
 10
-61.38000308543451
 20
-68.24199891898036
 30
0.0
 11
-61.38000308543451
 21
-65.42799893808365
 31
0.0
  0
ARC
  5
419
330
1F
100
AcDbEntity
  8
16
  6
Continuous
 62
     3
370
    25
100
AcDbCircle
 10
-62.29800165913583
 20
-65.48865047402299
 30
0.0
 40
0.9199999946355817
100
AcDbArc
 50
3.779999923706063
 51
73.70000000000016
  0
LINE
  5
41A
330
1F
100
AcDbEntity
  8
16
  6
Continuous
 62
     3
370
    25
100
AcDbLine
 10
-62.03978805213026
 20
-64.6056296796548
 30
0.0
 11
-62.90378809933715
 21
-64.30162967893953
 31
0.0
  0
ARC
  5
41B
330
1F
100
AcDbEntity
  8
16
  6
Continuous
 62
     3
370
    25
100
AcDbCircle
 10
-62.83895096101065
 20
-64.24327355517283
 30
0.0
 40
0.088000000834465
100
AcDbArc
 50
111.909997558594
 51
222.330004882813
  0
LINE
  5
41C
330
1F
100
AcDbEntity
  8
16
  6
Continuous
 62
     3
370
    25
100
AcDbLine
 10
-62.87200752190229
 20
-64.16253268188053
 30
0.0
 11
-62.58400750616668
 21
-64.02253268217855
 31
0.0
  0
ARC
  5
41D
330
1F
100
AcDbEntity
  8
16
  6
Continuous
 62
     3
370
    25
100
AcDbCircle
 10
-62.84199493448197
 20
-64.23997755460768
 30
0.0
 40
0.5400000175833704
100
AcDbArc
 50
90.97999877929706
 51
246.6800048828131
  0
LINE
  5
41E
330
1F
100
AcDbEntity
  8
16
  6
Continuous
 62
     3
370
    25
100
AcDbLine
 10
-63.0557630247841
 20
-64.73586385463885
 30
0.0
 11
-62.08176303315857
 21
-65.07786386736444
 31
0.0
  0
ARC
  5
41F
330
1F
100
AcDbEntity
  8
16
  6
Continuous
 62
     3
370
    25
100
AcDbCircle
 10
-62.20176301587321
 20
-65.41786388196759
 30
0.0
 40
0.3599999958276747
100
AcDbArc
 50
0.0
 51
70.57999877929703
  0
LINE
  5
420
330
1F
100
AcDbEntity
  8
16
  6
Continuous
 62
     3
370
    25
100
AcDbLine
 10
-61.84206638085667
 20
-65.41834553815573
 30
0.0
 11
-61.84206638085667
 21
-68.56234563841075
 31
0.0
  0
ARC
  5
421
330
1F
100
AcDbEntity
  8
16
  6
Continuous
 62
     3
370
    25
100
AcDbCircle
 10
-61.70206638115473
 20
-68.56234572991332
 30
0.0
 40
0.1399999997019767
100
AcDbArc
 50
180.0000000000004
 51
270.0000000000006
  0
LINE
  5
422
330
1F
100
AcDbEntity
  8
16
  6
Continuous
 62
     3
370
    25
100
AcDbLine
 10
-61.70206651840859
 20
-68.70234572961522
 30
0.0
 11
-61.06206649933509
 21
-68.70234572961522
 31
0.0
  0
ARC
  5
423
330
1F
100
AcDbEntity
  8
16
  6
Continuous
 62
     3
370
    25
100
AcDbCircle
 10
-61.06206636208124
 20
-68.56234572991332
 30
0.0
 40
0.1399999997019767
100
AcDbArc
 50
270.0000000000006
 51
0.0000000000008142
  0
LINE
  5
424
330
1F
100
AcDbEntity
  8
16
  6
Continuous
 62
     3
370
    25
100
AcDbLine
 10
-60.92206636237938
 20
-68.56234591291845
 30
0.0
 11
-60.92206636237938
 21
-65.41834581266345
 31
0.0
  0
ARC
  5
425
330
1F
100
AcDbEntity
  8
16
  6
Continuous
 62
     3
370
    25
100
AcDbCircle
 10
-60.56236998543628
 20
-65.41786424745854
 30
0.0
 40
0.3599999958276747
100
AcDbArc
 50
109.4199951171877
 51
180.0000000000004
  0
LINE
  5
426
330
1F
100
AcDbEntity
  8
16
  6
Continuous
 62
     3
370
    25
100
AcDbLine
 10
-60.68236996815087
 20
-65.07786399756309
 30
0.0
 11
-59.70836997652531
 21
-64.7358639848375
 31
0.0
  0
ARC
  5
427
330
1F
100
AcDbEntity
  8
16
  6
Continuous
 62
     3
370
    25
100
AcDbCircle
 10
-59.92213709450836
 20
-64.23997726565733
 30
0.0
 40
0.5400000175833704
100
AcDbArc
 50
293.3199951171881
 51
89.02001953125101
  0
LINE
  5
428
330
1F
100
AcDbEntity
  8
16
  6
Continuous
 62
     3
370
    25
100
AcDbLine
 10
-60.18012381741255
 20
-64.02253223373206
 30
0.0
 11
-59.89212380167693
 21
-64.16253223343404
 31
0.0
  0
ARC
  5
429
330
1F
100
AcDbEntity
  8
16
  6
Continuous
 62
     3
370
    25
100
AcDbCircle
 10
-59.92518024637498
 20
-64.24327297916555
 30
0.0
 40
0.088000000834465
100
AcDbArc
 50
317.6699951171883
 51
68.08999023437599
  0
LINE
  5
42A
330
1F
100
AcDbEntity
  8
16
  6
Continuous
 62
     3
370
    25
100
AcDbLine
 10
-59.86034293056928
 20
-64.30162917431454
 30
0.0
 11
-60.72434297777616
 21
-64.60562917502979
 31
0.0
  0
ARC
  5
42B
330
1F
100
AcDbEntity
  8
16
  6
Continuous
 62
     3
370
    25
100
AcDbCircle
 10
-60.46612994790403
 20
-65.48865013816358
 30
0.0
 40
0.9199999946355817
100
AcDbArc
 50
106.3000000000002
 51
176.2199951171879
  0
LINE
  5
42C
330
1F
100
AcDbEntity
  8
16
  6
Continuous
 62
     3
370
    25
100
AcDbLine
 10
-55.79999811947346
 20
-68.24199891898036
 30
0.0
 11
-55.79999811947346
 21
-65.42799893808365
 31
0.0
  0
ARC
  5
42D
330
1F
100
AcDbEntity
  8
16
  6
Continuous
 62
     3
370
    25
100
AcDbCircle
 10
-56.71799669317478
 20
-65.48865047402299
 30
0.0
 40
0.9199999946355817
100
AcDbArc
 50
3.779999923706063
 51
73.70000000000016
  0
LINE
  5
42E
330
1F
100
AcDbEntity
  8
16
  6
Continuous
 62
     3
370
    25
100
AcDbLine
 10
-56.45978308616921
 20
-64.6056296796548
 30
0.0
 11
-57.3237831333761
 21
-64.30162967893953
 31
0.0
  0
ARC
  5
42F
330
1F
100
AcDbEntity
  8
16
  6
Continuous
 62
     3
370
    25
100
AcDbCircle
 10
-57.25894599504959
 20
-64.24327355517283
 30
0.0
 40
0.088000000834465
100
AcDbArc
 50
111.909997558594
 51
222.330004882813
  0
LINE
  5
430
330
1F
100
AcDbEntity
  8
16
  6
Continuous
 62
     3
370
    25
100
AcDbLine
 10
-57.29200255594124
 20
-64.16253268188053
 30
0.0
 11
-57.00400254020562
 21
-64.02253268217855
 31
0.0
  0
ARC
  5
431
330
1F
100
AcDbEntity
  8
16
  6
Continuous
 62
     3
370
    25
100
AcDbCircle
 10
-57.26198996852093
 20
-64.23997755460768
 30
0.0
 40
0.5400000175833704
100
AcDbArc
 50
90.97999877929706
 51
246.6800048828131
  0
LINE
  5
432
330
1F
100
AcDbEntity
  8
16
  6
Continuous
 62
     3
370
    25
100
AcDbLine
 10
-57.47575805882305
 20
-64.73586385463885
 30
0.0
 11
-56.50175806719751
 21
-65.07786386736444
 31
0.0
  0
ARC
  5
433
330
1F
100
AcDbEntity
  8
16
  6
Continuous
 62
     3
370
    25
100
AcDbCircle
 10
-56.62175804991216
 20
-65.41786388196759
 30
0.0
 40
0.3599999958276747
100
AcDbArc
 50
0.0
 51
70.57999877929703
  0
LINE
  5
434
330
1F
100
AcDbEntity
  8
16
  6
Continuous
 62
     3
370
    25
100
AcDbLine
 10
-56.26206141489561
 20
-65.41834553815573
 30
0.0
 11
-56.26206141489561
 21
-68.56234563841075
 31
0.0
  0
ARC
  5
435
330
1F
100
AcDbEntity
  8
16
  6
Continuous
 62
     3
370
    25
100
AcDbCircle
 10
-56.12206141519368
 20
-68.56234572991332
 30
0.0
 40
0.1399999997019767
100
AcDbArc
 50
180.0000000000004
 51
270.0000000000006
  0
LINE
  5
436
330
1F
100
AcDbEntity
  8
16
  6
Continuous
 62
     3
370
    25
100
AcDbLine
 10
-56.12206155244752
 20
-68.70234572961522
 30
0.0
 11
-55.48206153337404
 21
-68.70234572961522
 31
0.0
  0
ARC
  5
437
330
1F
100
AcDbEntity
  8
16
  6
Continuous
 62
     3
370
    25
100
AcDbCircle
 10
-55.48206139612019
 20
-68.56234572991332
 30
0.0
 40
0.1399999997019767
100
AcDbArc
 50
270.0000000000006
 51
0.0000000000008142
  0
LINE
  5
438
330
1F
100
AcDbEntity
  8
16
  6
Continuous
 62
     3
370
    25
100
AcDbLine
 10
-55.34206139641832
 20
-68.56234591291845
 30
0.0
 11
-55.34206139641832
 21
-65.41834581266345
 31
0.0
  0
ARC
  5
439
330
1F
100
AcDbEntity
  8
16
  6
Continuous
 62
     3
370
    25
100
AcDbCircle
 10
-54.98236501947523
 20
-65.41786424745854
 30
0.0
 40
0.3599999958276747
100
AcDbArc
 50
109.4199951171877
 51
180.0000000000004
  0
LINE
  5
43A
330
1F
100
AcDbEntity
  8
16
  6
Continuous
 62
     3
370
    25
100
AcDbLine
 10
-55.1023650021898
 20
-65.07786399756309
 30
0.0
 11
-54.12836501056426
 21
-64.7358639848375
 31
0.0
  0
ARC
  5
43B
330
1F
100
AcDbEntity
  8
16
  6
Continuous
 62
     3
370
    25
100
AcDbCircle
 10
-54.34213212854731
 20
-64.23997726565733
 30
0.0
 40
0.5400000175833704
100
AcDbArc
 50
293.3199951171881
 51
89.02001953125101
  0
LINE
  5
43C
330
1F
100
AcDbEntity
  8
16
  6
Continuous
 62
     3
370
    25
100
AcDbLine
 10
-54.6001188514515
 20
-64.02253223373206
 30
0.0
 11
-54.31211883571588
 21
-64.16253223343404
 31
0.0
  0
ARC
  5
43D
330
1F
100
AcDbEntity
  8
16
  6
Continuous
 62
     3
370
    25
100
AcDbCircle
 10
-54.34517528041393
 20
-64.24327297916555
 30
0.0
 40
0.088000000834465
100
AcDbArc
 50
317.6699951171883
 51
68.08999023437599
  0
LINE
  5
43E
330
1F
100
AcDbEntity
  8
16
  6
Continuous
 62
     3
370
    25
100
AcDbLine
 10
-54.28033796460823
 20
-64.30162917431454
 30
0.0
 11
-55.14433801181511
 21
-64.60562917502979
 31
0.0
  0
ARC
  5
43F
330
1F
100
AcDbEntity
  8
16
  6
Continuous
 62
     3
370
    25
100
AcDbCircle
 10
-54.88612498194298
 20
-65.48865013816358
 30
0.0
 40
0.9199999946355817
100
AcDbArc
 50
106.3000000000002
 51
176.2199951171879
  0
LINE
  5
440
330
1F
100
AcDbEntity
  8
16
  6
Continuous
 62
     3
370
    25
100
AcDbLine
 10
-50.21999315351241
 20
-68.24199891898036
 30
0.0
 11
-50.21999315351241
 21
-65.42799893808365
 31
0.0
  0
ARC
  5
441
330
1F
100
AcDbEntity
  8
16
  6
Continuous
 62
     3
370
    25
100
AcDbCircle
 10
-51.13799172721373
 20
-65.48865047402299
 30
0.0
 40
0.9199999946355817
100
AcDbArc
 50
3.779999923706063
 51
73.70000000000016
  0
LINE
  5
442
330
1F
100
AcDbEntity
  8
16
  6
Continuous
 62
     3
370
    25
100
AcDbLine
 10
-50.87977812020816
 20
-64.6056296796548
 30
0.0
 11
-51.74377816741503
 21
-64.30162967893953
 31
0.0
  0
ARC
  5
443
330
1F
100
AcDbEntity
  8
16
  6
Continuous
 62
     3
370
    25
100
AcDbCircle
 10
-51.67894102908853
 20
-64.24327355517283
 30
0.0
 40
0.088000000834465
100
AcDbArc
 50
111.909997558594
 51
222.330004882813
  0
LINE
  5
444
330
1F
100
AcDbEntity
  8
16
  6
Continuous
 62
     3
370
    25
100
AcDbLine
 10
-51.7119975899802
 20
-64.16253268188053
 30
0.0
 11
-51.42399757424457
 21
-64.02253268217855
 31
0.0
  0
ARC
  5
445
330
1F
100
AcDbEntity
  8
16
  6
Continuous
 62
     3
370
    25
100
AcDbCircle
 10
-51.68198500255988
 20
-64.23997755460768
 30
0.0
 40
0.5400000175833704
100
AcDbArc
 50
90.97999877929706
 51
246.6800048828131
  0
LINE
  5
446
330
1F
100
AcDbEntity
  8
16
  6
Continuous
 62
     3
370
    25
100
AcDbLine
 10
-51.89575309286201
 20
-64.73586385463885
 30
0.0
 11
-50.92175310123646
 21
-65.07786386736444
 31
0.0
  0
ARC
  5
447
330
1F
100
AcDbEntity
  8
16
  6
Continuous
 62
     3
370
    25
100
AcDbCircle
 10
-51.04175308395111
 20
-65.41786388196759
 30
0.0
 40
0.3599999958276747
100
AcDbArc
 50
0.0
 51
70.57999877929703
  0
LINE
  5
448
330
1F
100
AcDbEntity
  8
16
  6
Continuous
 62
     3
370
    25
100
AcDbLine
 10
-50.68205644893457
 20
-65.41834553815573
 30
0.0
 11
-50.68205644893457
 21
-68.56234563841075
 31
0.0
  0
ARC
  5
449
330
1F
100
AcDbEntity
  8
16
  6
Continuous
 62
     3
370
    25
100
AcDbCircle
 10
-50.54205644923262
 20
-68.56234572991332
 30
0.0
 40
0.1399999997019767
100
AcDbArc
 50
180.0000000000004
 51
270.0000000000006
  0
LINE
  5
44A
330
1F
100
AcDbEntity
  8
16
  6
Continuous
 62
     3
370
    25
100
AcDbLine
 10
-50.54205658648648
 20
-68.70234572961522
 30
0.0
 11
-49.90205656741299
 21
-68.70234572961522
 31
0.0
  0
ARC
  5
44B
330
1F
100
AcDbEntity
  8
16
  6
Continuous
 62
     3
370
    25
100
AcDbCircle
 10
-49.90205643015915
 20
-68.56234572991332
 30
0.0
 40
0.1399999997019767
100
AcDbArc
 50
270.0000000000006
 51
0.0000000000008142
  0
LINE
  5
44C
330
1F
100
AcDbEntity
  8
16
  6
Continuous
 62
     3
370
    25
100
AcDbLine
 10
-49.76205643045728
 20
-68.56234591291845
 30
0.0
 11
-49.76205643045728
 21
-65.41834581266345
 31
0.0
  0
ARC
  5
44D
330
1F
100
AcDbEntity
  8
16
  6
Continuous
 62
     3
370
    25
100
AcDbCircle
 10
-49.40236005351418
 20
-65.41786424745854
 30
0.0
 40
0.3599999958276747
100
AcDbArc
 50
109.4199951171877
 51
180.0000000000004
  0
LINE
  5
44E
330
1F
100
AcDbEntity
  8
16
  6
Continuous
 62
     3
370
    25
100
AcDbLine
 10
-49.52236003622876
 20
-65.07786399756309
 30
0.0
 11
-48.54836004460321
 21
-64.7358639848375
 31
0.0
  0
ARC
  5
44F
330
1F
100
AcDbEntity
  8
16
  6
Continuous
 62
     3
370
    25
100
AcDbCircle
 10
-48.76212716258627
 20
-64.23997726565733
 30
0.0
 40
0.5400000175833704
100
AcDbArc
 50
293.3199951171881
 51
89.02001953125101
  0
LINE
  5
450
330
1F
100
AcDbEntity
  8
16
  6
Continuous
 62
     3
370
    25
100
AcDbLine
 10
-49.02011388549045
 20
-64.02253223373206
 30
0.0
 11
-48.73211386975484
 21
-64.16253223343404
 31
0.0
  0
ARC
  5
451
330
1F
100
AcDbEntity
  8
16
  6
Continuous
 62
     3
370
    25
100
AcDbCircle
 10
-48.76517031445287
 20
-64.24327297916555
 30
0.0
 40
0.088000000834465
100
AcDbArc
 50
317.6699951171883
 51
68.08999023437599
  0
LINE
  5
452
330
1F
100
AcDbEntity
  8
16
  6
Continuous
 62
     3
370
    25
100
AcDbLine
 10
-48.70033299864718
 20
-64.30162917431454
 30
0.0
 11
-49.56433304585406
 21
-64.60562917502979
 31
0.0
  0
ARC
  5
453
330
1F
100
AcDbEntity
  8
16
  6
Continuous
 62
     3
370
    25
100
AcDbCircle
 10
-49.30612001598192
 20
-65.48865013816358
 30
0.0
 40
0.9199999946355817
100
AcDbArc
 50
106.3000000000002
 51
176.2199951171879
  0
LINE
  5
454
330
1F
100
AcDbEntity
  8
16
  6
Continuous
 62
     3
370
    25
100
AcDbLine
 10
-44.69999795407057
 20
-68.24199891898036
 30
0.0
 11
-44.69999795407057
 21
-65.42799893808365
 31
0.0
  0
ARC
  5
455
330
1F
100
AcDbEntity
  8
16
  6
Continuous
 62
     3
370
    25
100
AcDbCircle
 10
-45.61799652777189
 20
-65.48865047402299
 30
0.0
 40
0.9199999946355817
100
AcDbArc
 50
3.779999923706063
 51
73.70000000000016
  0
LINE
  5
456
330
1F
100
AcDbEntity
  8
16
  6
Continuous
 62
     3
370
    25
100
AcDbLine
 10
-45.35978292076632
 20
-64.6056296796548
 30
0.0
 11
-46.2237829679732
 21
-64.30162967893953
 31
0.0
  0
ARC
  5
457
330
1F
100
AcDbEntity
  8
16
  6
Continuous
 62
     3
370
    25
100
AcDbCircle
 10
-46.1589458296467
 20
-64.24327355517283
 30
0.0
 40
0.088000000834465
100
AcDbArc
 50
111.909997558594
 51
222.330004882813
  0
LINE
  5
458
330
1F
100
AcDbEntity
  8
16
  6
Continuous
 62
     3
370
    25
100
AcDbLine
 10
-46.19200239053835
 20
-64.16253268188053
 30
0.0
 11
-45.90400237480273
 21
-64.02253268217855
 31
0.0
  0
ARC
  5
459
330
1F
100
AcDbEntity
  8
16
  6
Continuous
 62
     3
370
    25
100
AcDbCircle
 10
-46.16198980311805
 20
-64.23997755460768
 30
0.0
 40
0.5400000175833704
100
AcDbArc
 50
90.97999877929706
 51
246.6800048828131
  0
LINE
  5
45A
330
1F
100
AcDbEntity
  8
16
  6
Continuous
 62
     3
370
    25
100
AcDbLine
 10
-46.37575789342017
 20
-64.73586385463885
 30
0.0
 11
-45.40175790179462
 21
-65.07786386736444
 31
0.0
  0
ARC
  5
45B
330
1F
100
AcDbEntity
  8
16
  6
Continuous
 62
     3
370
    25
100
AcDbCircle
 10
-45.52175788450927
 20
-65.41786388196759
 30
0.0
 40
0.3599999958276747
100
AcDbArc
 50
0.0
 51
70.57999877929703
  0
LINE
  5
45C
330
1F
100
AcDbEntity
  8
16
  6
Continuous
 62
     3
370
    25
100
AcDbLine
 10
-45.16206124949273
 20
-65.41834553815573
 30
0.0
 11
-45.16206124949273
 21
-68.56234563841075
 31
0.0
  0
ARC
  5
45D
330
1F
100
AcDbEntity
  8
16
  6
Continuous
 62
     3
370
    25
100
AcDbCircle
 10
-45.0220612497908
 20
-68.56234572991332
 30
0.0
 40
0.1399999997019767
100
AcDbArc
 50
180.0000000000004
 51
270.0000000000006
  0
LINE
  5
45E
330
1F
100
AcDbEntity
  8
16
  6
Continuous
 62
     3
370
    25
100
AcDbLine
 10
-45.02206138704464
 20
-68.70234572961522
 30
0.0
 11
-44.38206136797117
 21
-68.70234572961522
 31
0.0
  0
ARC
  5
45F
330
1F
100
AcDbEntity
  8
16
  6
Continuous
 62
     3
370
    25
100
AcDbCircle
 10
-44.3820612307173
 20
-68.56234572991332
 30
0.0
 40
0.1399999997019767
100
AcDbArc
 50
270.0000000000006
 51
0.0000000000008142
  0
LINE
  5
460
330
1F
100
AcDbEntity
  8
16
  6
Continuous
 62
     3
370
    25
100
AcDbLine
 10
-44.24206123101544
 20
-68.56234591291845
 30
0.0
 11
-44.24206123101544
 21
-65.41834581266345
 31
0.0
  0
ARC
  5
461
330
1F
100
AcDbEntity
  8
16
  6
Continuous
 62
     3
370
    25
100
AcDbCircle
 10
-43.88236485407236
 20
-65.41786424745854
 30
0.0
 40
0.3599999958276747
100
AcDbArc
 50
109.4199951171877
 51
180.0000000000004
  0
LINE
  5
462
330
1F
100
AcDbEntity
  8
16
  6
Continuous
 62
     3
370
    25
100
AcDbLine
 10
-44.00236483678692
 20
-65.07786399756309
 30
0.0
 11
-43.02836484516138
 21
-64.7358639848375
 31
0.0
  0
ARC
  5
463
330
1F
100
AcDbEntity
  8
16
  6
Continuous
 62
     3
370
    25
100
AcDbCircle
 10
-43.24213196314443
 20
-64.23997726565733
 30
0.0
 40
0.5400000175833704
100
AcDbArc
 50
293.3199951171881
 51
89.02001953125101
  0
LINE
  5
464
330
1F
100
AcDbEntity
  8
16
  6
Continuous
 62
     3
370
    25
100
AcDbLine
 10
-43.50011868604862
 20
-64.02253223373206
 30
0.0
 11
-43.21211867031299
 21
-64.16253223343404
 31
0.0
  0
ARC
  5
465
330
1F
100
AcDbEntity
  8
16
  6
Continuous
 62
     3
370
    25
100
AcDbCircle
 10
-43.24517511501104
 20
-64.24327297916555
 30
0.0
 40
0.088000000834465
100
AcDbArc
 50
317.6699951171883
 51
68.08999023437599
  0
LINE
  5
466
330
1F
100
AcDbEntity
  8
16
  6
Continuous
 62
     3
370
    25
100
AcDbLine
 10
-43.18033779920535
 20
-64.30162917431454
 30
0.0
 11
-44.04433784641222
 21
-64.60562917502979
 31
0.0
  0
ARC
  5
467
330
1F
100
AcDbEntity
  8
16
  6
Continuous
 62
     3
370
    25
100
AcDbCircle
 10
-43.78612481654008
 20
-65.48865013816358
 30
0.0
 40
0.9199999946355817
100
AcDbArc
 50
106.3000000000002
 51
176.2199951171879
  0
LINE
  5
468
330
1F
100
AcDbEntity
  8
16
  6
Continuous
 62
     3
370
    25
100
AcDbLine
 10
-141.499999396503
 20
-63.69999903440475
 30
0.0
 11
-141.499999396503
 21
-68.69999910891056
 31
0.0
  0
LINE
  5
469
330
1F
100
AcDbEntity
  8
16
  6
Continuous
 62
     3
370
    25
100
AcDbLine
 10
-141.499999396503
 20
-68.69999910891056
 30
0.0
 11
-42.69999792426825
 21
-68.69999910891056
 31
0.0
  0
LINE
  5
46A
330
1F
100
AcDbEntity
  8
16
  6
Continuous
 62
     3
370
    25
100
AcDbLine
 10
-42.69999792426825
 20
-68.69999910891056
 30
0.0
 11
-42.69999792426825
 21
-63.69999903440475
 31
0.0
  0
LINE
  5
46B
330
1F
100
AcDbEntity
  8
16
  6
Continuous
 62
     3
370
    25
100
AcDbLine
 10
-139.9499993734062
 20
-66.29999907314777
 30
0.0
 11
-140.1499993763864
 21
-66.09999907016754
 31
0.0
  0
LINE
  5
46C
330
1F
100
AcDbEntity
  8
16
  6
Continuous
 62
     3
370
    25
100
AcDbLine
 10
-140.1499993763864
 20
-66.09999907016754
 30
0.0
 11
-140.5499993823469
 21
-66.09999907016754
 31
0.0
  0
LINE
  5
46D
330
1F
100
AcDbEntity
  8
16
  6
Continuous
 62
     3
370
    25
100
AcDbLine
 10
-140.5499993823469
 20
-66.09999907016754
 30
0.0
 11
-140.5499993823469
 21
-68.09999909996986
 31
0.0
  0
LINE
  5
46E
330
1F
100
AcDbEntity
  8
16
  6
Continuous
 62
     3
370
    25
100
AcDbLine
 10
-140.5499993823469
 20
-68.09999909996986
 30
0.0
 11
-140.1499993763864
 21
-68.09999909996986
 31
0.0
  0
LINE
  5
46F
330
1F
100
AcDbEntity
  8
16
  6
Continuous
 62
     3
370
    25
100
AcDbLine
 10
-140.1499993763864
 20
-68.09999909996986
 30
0.0
 11
-139.9499993734062
 21
-67.89999909698963
 31
0.0
  0
LINE
  5
470
330
1F
100
AcDbEntity
  8
16
  6
Continuous
 62
     3
370
    25
100
AcDbLine
 10
-139.0499993599951
 20
-66.29999907314777
 30
0.0
 11
-138.8499993570149
 21
-66.09999907016754
 31
0.0
  0
LINE
  5
471
330
1F
100
AcDbEntity
  8
16
  6
Continuous
 62
     3
370
    25
100
AcDbLine
 10
-138.8499993570149
 20
-66.09999907016754
 30
0.0
 11
-134.5699993695319
 21
-66.09999907016754
 31
0.0
  0
LINE
  5
472
330
1F
100
AcDbEntity
  8
16
  6
Continuous
 62
     3
370
    25
100
AcDbLine
 10
-134.5699993695319
 20
-66.09999907016754
 30
0.0
 11
-134.3699993665516
 21
-66.29999907314777
 31
0.0
  0
LINE
  5
473
330
1F
100
AcDbEntity
  8
16
  6
Continuous
 62
     3
370
    25
100
AcDbLine
 10
-134.3699993665516
 20
-67.89999909698963
 30
0.0
 11
-134.5699993695319
 21
-68.09999909996986
 31
0.0
  0
LINE
  5
474
330
1F
100
AcDbEntity
  8
16
  6
Continuous
 62
     3
370
    25
100
AcDbLine
 10
-134.5699993695319
 20
-68.09999909996986
 30
0.0
 11
-138.8499993570149
 21
-68.09999909996986
 31
0.0
  0
LINE
  5
475
330
1F
100
AcDbEntity
  8
16
  6
Continuous
 62
     3
370
    25
100
AcDbLine
 10
-138.8499993570149
 20
-68.09999909996986
 30
0.0
 11
-139.0499993599951
 21
-67.89999909698963
 31
0.0
  0
LINE
  5
476
330
1F
100
AcDbEntity
  8
16
  6
Continuous
 62
     3
370
    25
100
AcDbLine
 10
-133.4700004975498
 20
-66.29999907314777
 30
0.0
 11
-133.2700004945696
 21
-66.09999907016754
 31
0.0
  0
LINE
  5
477
330
1F
100
AcDbEntity
  8
16
  6
Continuous
 62
     3
370
    25
100
AcDbLine
 10
-133.2700004945696
 20
-66.09999907016754
 30
0.0
 11
-128.9900005070865
 21
-66.09999907016754
 31
0.0
  0
LINE
  5
478
330
1F
100
AcDbEntity
  8
16
  6
Continuous
 62
     3
370
    25
100
AcDbLine
 10
-128.9900005070865
 20
-66.09999907016754
 30
0.0
 11
-128.7900005041063
 21
-66.29999907314777
 31
0.0
  0
LINE
  5
479
330
1F
100
AcDbEntity
  8
16
  6
Continuous
 62
     3
370
    25
100
AcDbLine
 10
-128.7900005041063
 20
-67.89999909698963
 30
0.0
 11
-128.9900005070865
 21
-68.09999909996986
 31
0.0
  0
LINE
  5
47A
330
1F
100
AcDbEntity
  8
16
  6
Continuous
 62
     3
370
    25
100
AcDbLine
 10
-128.9900005070865
 20
-68.09999909996986
 30
0.0
 11
-133.2700004945696
 21
-68.09999909996986
 31
0.0
  0
LINE
  5
47B
330
1F
100
AcDbEntity
  8
16
  6
Continuous
 62
     3
370
    25
100
AcDbLine
 10
-133.2700004945696
 20
-68.09999909996986
 30
0.0
 11
-133.4700004975498
 21
-67.89999909698963
 31
0.0
  0
LINE
  5
47C
330
1F
100
AcDbEntity
  8
16
  6
Continuous
 62
     3
370
    25
100
AcDbLine
 10
-127.8900016351045
 20
-66.29999907314777
 30
0.0
 11
-127.6900016321242
 21
-66.09999907016754
 31
0.0
  0
LINE
  5
47D
330
1F
100
AcDbEntity
  8
16
  6
Continuous
 62
     3
370
    25
100
AcDbLine
 10
-127.6900016321242
 20
-66.09999907016754
 30
0.0
 11
-123.4100016446412
 21
-66.09999907016754
 31
0.0
  0
LINE
  5
47E
330
1F
100
AcDbEntity
  8
16
  6
Continuous
 62
     3
370
    25
100
AcDbLine
 10
-123.4100016446412
 20
-66.09999907016754
 30
0.0
 11
-123.210001641661
 21
-66.29999907314777
 31
0.0
  0
LINE
  5
47F
330
1F
100
AcDbEntity
  8
16
  6
Continuous
 62
     3
370
    25
100
AcDbLine
 10
-123.210001641661
 20
-67.89999909698963
 30
0.0
 11
-123.4100016446412
 21
-68.09999909996986
 31
0.0
  0
LINE
  5
480
330
1F
100
AcDbEntity
  8
16
  6
Continuous
 62
     3
370
    25
100
AcDbLine
 10
-123.4100016446412
 20
-68.09999909996986
 30
0.0
 11
-127.6900016321242
 21
-68.09999909996986
 31
0.0
  0
LINE
  5
481
330
1F
100
AcDbEntity
  8
16
  6
Continuous
 62
     3
370
    25
100
AcDbLine
 10
-127.6900016321242
 20
-68.09999909996986
 30
0.0
 11
-127.8900016351045
 21
-67.89999909698963
 31
0.0
  0
LINE
  5
482
330
1F
100
AcDbEntity
  8
16
  6
Continuous
 62
     3
370
    25
100
AcDbLine
 10
-122.3099966691434
 20
-66.29999907314777
 30
0.0
 11
-122.1099966661632
 21
-66.09999907016754
 31
0.0
  0
LINE
  5
483
330
1F
100
AcDbEntity
  8
16
  6
Continuous
 62
     3
370
    25
100
AcDbLine
 10
-122.1099966661632
 20
-66.09999907016754
 30
0.0
 11
-117.8299966786801
 21
-66.09999907016754
 31
0.0
  0
LINE
  5
484
330
1F
100
AcDbEntity
  8
16
  6
Continuous
 62
     3
370
    25
100
AcDbLine
 10
-117.8299966786801
 20
-66.09999907016754
 30
0.0
 11
-117.6299966756999
 21
-66.29999907314777
 31
0.0
  0
LINE
  5
485
330
1F
100
AcDbEntity
  8
16
  6
Continuous
 62
     3
370
    25
100
AcDbLine
 10
-117.6299966756999
 20
-67.89999909698963
 30
0.0
 11
-117.8299966786801
 21
-68.09999909996986
 31
0.0
  0
LINE
  5
486
330
1F
100
AcDbEntity
  8
16
  6
Continuous
 62
     3
370
    25
100
AcDbLine
 10
-117.8299966786801
 20
-68.09999909996986
 30
0.0
 11
-122.1099966661632
 21
-68.09999909996986
 31
0.0
  0
LINE
  5
487
330
1F
100
AcDbEntity
  8
16
  6
Continuous
 62
     3
370
    25
100
AcDbLine
 10
-122.1099966661632
 20
-68.09999909996986
 30
0.0
 11
-122.3099966691434
 21
-67.89999909698963
 31
0.0
  0
LINE
  5
488
330
1F
100
AcDbEntity
  8
16
  6
Continuous
 62
     3
370
    25
100
AcDbLine
 10
-116.7299978066981
 20
-66.29999907314777
 30
0.0
 11
-116.5299978037178
 21
-66.09999907016754
 31
0.0
  0
LINE
  5
489
330
1F
100
AcDbEntity
  8
16
  6
Continuous
 62
     3
370
    25
100
AcDbLine
 10
-116.5299978037178
 20
-66.09999907016754
 30
0.0
 11
-112.2499978162348
 21
-66.09999907016754
 31
0.0
  0
LINE
  5
48A
330
1F
100
AcDbEntity
  8
16
  6
Continuous
 62
     3
370
    25
100
AcDbLine
 10
-112.2499978162348
 20
-66.09999907016754
 30
0.0
 11
-112.0499978132546
 21
-66.29999907314777
 31
0.0
  0
LINE
  5
48B
330
1F
100
AcDbEntity
  8
16
  6
Continuous
 62
     3
370
    25
100
AcDbLine
 10
-112.0499978132546
 20
-67.89999909698963
 30
0.0
 11
-112.2499978162348
 21
-68.09999909996986
 31
0.0
  0
LINE
  5
48C
330
1F
100
AcDbEntity
  8
16
  6
Continuous
 62
     3
370
    25
100
AcDbLine
 10
-112.2499978162348
 20
-68.09999909996986
 30
0.0
 11
-116.5299978037178
 21
-68.09999909996986
 31
0.0
  0
LINE
  5
48D
330
1F
100
AcDbEntity
  8
16
  6
Continuous
 62
     3
370
    25
100
AcDbLine
 10
-116.5299978037178
 20
-68.09999909996986
 30
0.0
 11
-116.7299978066981
 21
-67.89999909698963
 31
0.0
  0
LINE
  5
48E
330
1F
100
AcDbEntity
  8
16
  6
Continuous
 62
     3
370
    25
100
AcDbLine
 10
-111.1499989442527
 20
-66.29999907314777
 30
0.0
 11
-110.9499989412725
 21
-66.09999907016754
 31
0.0
  0
LINE
  5
48F
330
1F
100
AcDbEntity
  8
16
  6
Continuous
 62
     3
370
    25
100
AcDbLine
 10
-110.9499989412725
 20
-66.09999907016754
 30
0.0
 11
-106.6699989537895
 21
-66.09999907016754
 31
0.0
  0
LINE
  5
490
330
1F
100
AcDbEntity
  8
16
  6
Continuous
 62
     3
370
    25
100
AcDbLine
 10
-106.6699989537895
 20
-66.09999907016754
 30
0.0
 11
-106.4699989508092
 21
-66.29999907314777
 31
0.0
  0
LINE
  5
491
330
1F
100
AcDbEntity
  8
16
  6
Continuous
 62
     3
370
    25
100
AcDbLine
 10
-106.4699989508092
 20
-67.89999909698963
 30
0.0
 11
-106.6699989537895
 21
-68.09999909996986
 31
0.0
  0
LINE
  5
492
330
1F
100
AcDbEntity
  8
16
  6
Continuous
 62
     3
370
    25
100
AcDbLine
 10
-106.6699989537895
 20
-68.09999909996986
 30
0.0
 11
-110.9499989412725
 21
-68.09999909996986
 31
0.0
  0
LINE
  5
493
330
1F
100
AcDbEntity
  8
16
  6
Continuous
 62
     3
370
    25
100
AcDbLine
 10
-110.9499989412725
 20
-68.09999909996986
 30
0.0
 11
-111.1499989442527
 21
-67.89999909698963
 31
0.0
  0
LINE
  5
494
330
1F
100
AcDbEntity
  8
16
  6
Continuous
 62
     3
370
    25
100
AcDbLine
 10
-105.5700000818074
 20
-66.29999907314777
 30
0.0
 11
-105.3700000788272
 21
-66.09999907016754
 31
0.0
  0
LINE
  5
495
330
1F
100
AcDbEntity
  8
16
  6
Continuous
 62
     3
370
    25
100
AcDbLine
 10
-105.3700000788272
 20
-66.09999907016754
 30
0.0
 11
-101.0900000913441
 21
-66.09999907016754
 31
0.0
  0
LINE
  5
496
330
1F
100
AcDbEntity
  8
16
  6
Continuous
 62
     3
370
    25
100
AcDbLine
 10
-101.0900000913441
 20
-66.09999907016754
 30
0.0
 11
-100.8900000883639
 21
-66.29999907314777
 31
0.0
  0
LINE
  5
497
330
1F
100
AcDbEntity
  8
16
  6
Continuous
 62
     3
370
    25
100
AcDbLine
 10
-100.8900000883639
 20
-67.89999909698963
 30
0.0
 11
-101.0900000913441
 21
-68.09999909996986
 31
0.0
  0
LINE
  5
498
330
1F
100
AcDbEntity
  8
16
  6
Continuous
 62
     3
370
    25
100
AcDbLine
 10
-101.0900000913441
 20
-68.09999909996986
 30
0.0
 11
-105.3700000788272
 21
-68.09999909996986
 31
0.0
  0
LINE
  5
499
330
1F
100
AcDbEntity
  8
16
  6
Continuous
 62
     3
370
    25
100
AcDbLine
 10
-105.3700000788272
 20
-68.09999909996986
 30
0.0
 11
-105.5700000818074
 21
-67.89999909698963
 31
0.0
  0
LINE
  5
49A
330
1F
100
AcDbEntity
  8
16
  6
Continuous
 62
     3
370
    25
100
AcDbLine
 10
-99.99000121936206
 20
-66.29999907314777
 30
0.0
 11
-99.79000121638182
 21
-66.09999907016754
 31
0.0
  0
LINE
  5
49B
330
1F
100
AcDbEntity
  8
16
  6
Continuous
 62
     3
370
    25
100
AcDbLine
 10
-99.79000121638182
 20
-66.09999907016754
 30
0.0
 11
-95.5100012288988
 21
-66.09999907016754
 31
0.0
  0
LINE
  5
49C
330
1F
100
AcDbEntity
  8
16
  6
Continuous
 62
     3
370
    25
100
AcDbLine
 10
-95.5100012288988
 20
-66.09999907016754
 30
0.0
 11
-95.31000122591857
 21
-66.29999907314777
 31
0.0
  0
LINE
  5
49D
330
1F
100
AcDbEntity
  8
16
  6
Continuous
 62
     3
370
    25
100
AcDbLine
 10
-95.31000122591857
 20
-67.89999909698963
 30
0.0
 11
-95.5100012288988
 21
-68.09999909996986
 31
0.0
  0
LINE
  5
49E
330
1F
100
AcDbEntity
  8
16
  6
Continuous
 62
     3
370
    25
100
AcDbLine
 10
-95.5100012288988
 20
-68.09999909996986
 30
0.0
 11
-99.79000121638182
 21
-68.09999909996986
 31
0.0
  0
LINE
  5
49F
330
1F
100
AcDbEntity
  8
16
  6
Continuous
 62
     3
370
    25
100
AcDbLine
 10
-99.79000121638182
 20
-68.09999909996986
 30
0.0
 11
-99.99000121936206
 21
-67.89999909698963
 31
0.0
  0
LINE
  5
4A0
330
1F
100
AcDbEntity
  8
16
  6
Continuous
 62
     3
370
    25
100
AcDbLine
 10
-94.409996253401
 20
-66.29999907314777
 30
0.0
 11
-94.20999625042077
 21
-66.09999907016754
 31
0.0
  0
LINE
  5
4A1
330
1F
100
AcDbEntity
  8
16
  6
Continuous
 62
     3
370
    25
100
AcDbLine
 10
-94.20999625042077
 20
-66.09999907016754
 30
0.0
 11
-89.92999626293775
 21
-66.09999907016754
 31
0.0
  0
LINE
  5
4A2
330
1F
100
AcDbEntity
  8
16
  6
Continuous
 62
     3
370
    25
100
AcDbLine
 10
-89.92999626293775
 20
-66.09999907016754
 30
0.0
 11
-89.72999625995752
 21
-66.29999907314777
 31
0.0
  0
LINE
  5
4A3
330
1F
100
AcDbEntity
  8
16
  6
Continuous
 62
     3
370
    25
100
AcDbLine
 10
-89.72999625995752
 20
-67.89999909698963
 30
0.0
 11
-89.92999626293775
 21
-68.09999909996986
 31
0.0
  0
LINE
  5
4A4
330
1F
100
AcDbEntity
  8
16
  6
Continuous
 62
     3
370
    25
100
AcDbLine
 10
-89.92999626293775
 20
-68.09999909996986
 30
0.0
 11
-94.20999625042077
 21
-68.09999909996986
 31
0.0
  0
LINE
  5
4A5
330
1F
100
AcDbEntity
  8
16
  6
Continuous
 62
     3
370
    25
100
AcDbLine
 10
-94.20999625042077
 20
-68.09999909996986
 30
0.0
 11
-94.409996253401
 21
-67.89999909698963
 31
0.0
  0
LINE
  5
4A6
330
1F
100
AcDbEntity
  8
16
  6
Continuous
 62
     3
370
    25
100
AcDbLine
 10
-88.82999739095567
 20
-66.29999907314777
 30
0.0
 11
-88.62999738797544
 21
-66.09999907016754
 31
0.0
  0
LINE
  5
4A7
330
1F
100
AcDbEntity
  8
16
  6
Continuous
 62
     3
370
    25
100
AcDbLine
 10
-88.62999738797544
 20
-66.09999907016754
 30
0.0
 11
-84.34999740049241
 21
-66.09999907016754
 31
0.0
  0
LINE
  5
4A8
330
1F
100
AcDbEntity
  8
16
  6
Continuous
 62
     3
370
    25
100
AcDbLine
 10
-84.34999740049241
 20
-66.09999907016754
 30
0.0
 11
-84.14999739751218
 21
-66.29999907314777
 31
0.0
  0
LINE
  5
4A9
330
1F
100
AcDbEntity
  8
16
  6
Continuous
 62
     3
370
    25
100
AcDbLine
 10
-84.14999739751218
 20
-67.89999909698963
 30
0.0
 11
-84.34999740049241
 21
-68.09999909996986
 31
0.0
  0
LINE
  5
4AA
330
1F
100
AcDbEntity
  8
16
  6
Continuous
 62
     3
370
    25
100
AcDbLine
 10
-84.34999740049241
 20
-68.09999909996986
 30
0.0
 11
-88.62999738797544
 21
-68.09999909996986
 31
0.0
  0
LINE
  5
4AB
330
1F
100
AcDbEntity
  8
16
  6
Continuous
 62
     3
370
    25
100
AcDbLine
 10
-88.62999738797544
 20
-68.09999909996986
 30
0.0
 11
-88.82999739095567
 21
-67.89999909698963
 31
0.0
  0
LINE
  5
4AC
330
1F
100
AcDbEntity
  8
16
  6
Continuous
 62
     3
370
    25
100
AcDbLine
 10
-83.24999852851033
 20
-66.29999907314777
 30
0.0
 11
-83.0499985255301
 21
-66.09999907016754
 31
0.0
  0
LINE
  5
4AD
330
1F
100
AcDbEntity
  8
16
  6
Continuous
 62
     3
370
    25
100
AcDbLine
 10
-83.0499985255301
 20
-66.09999907016754
 30
0.0
 11
-78.76999853804708
 21
-66.09999907016754
 31
0.0
  0
LINE
  5
4AE
330
1F
100
AcDbEntity
  8
16
  6
Continuous
 62
     3
370
    25
100
AcDbLine
 10
-78.76999853804708
 20
-66.09999907016754
 30
0.0
 11
-78.56999853506684
 21
-66.29999907314777
 31
0.0
  0
LINE
  5
4AF
330
1F
100
AcDbEntity
  8
16
  6
Continuous
 62
     3
370
    25
100
AcDbLine
 10
-78.56999853506684
 20
-67.89999909698963
 30
0.0
 11
-78.76999853804708
 21
-68.09999909996986
 31
0.0
  0
LINE
  5
4B0
330
1F
100
AcDbEntity
  8
16
  6
Continuous
 62
     3
370
    25
100
AcDbLine
 10
-78.76999853804708
 20
-68.09999909996986
 30
0.0
 11
-83.0499985255301
 21
-68.09999909996986
 31
0.0
  0
LINE
  5
4B1
330
1F
100
AcDbEntity
  8
16
  6
Continuous
 62
     3
370
    25
100
AcDbLine
 10
-83.0499985255301
 20
-68.09999909996986
 30
0.0
 11
-83.24999852851033
 21
-67.89999909698963
 31
0.0
  0
LINE
  5
4B2
330
1F
100
AcDbEntity
  8
16
  6
Continuous
 62
     3
370
    25
100
AcDbLine
 10
-77.66999356254928
 20
-66.29999907314777
 30
0.0
 11
-77.46999355956905
 21
-66.09999907016754
 31
0.0
  0
LINE
  5
4B3
330
1F
100
AcDbEntity
  8
16
  6
Continuous
 62
     3
370
    25
100
AcDbLine
 10
-77.46999355956905
 20
-66.09999907016754
 30
0.0
 11
-73.18999357208602
 21
-66.09999907016754
 31
0.0
  0
LINE
  5
4B4
330
1F
100
AcDbEntity
  8
16
  6
Continuous
 62
     3
370
    25
100
AcDbLine
 10
-73.18999357208602
 20
-66.09999907016754
 30
0.0
 11
-72.98999356910579
 21
-66.29999907314777
 31
0.0
  0
LINE
  5
4B5
330
1F
100
AcDbEntity
  8
16
  6
Continuous
 62
     3
370
    25
100
AcDbLine
 10
-72.98999356910579
 20
-67.89999909698963
 30
0.0
 11
-73.18999357208602
 21
-68.09999909996986
 31
0.0
  0
LINE
  5
4B6
330
1F
100
AcDbEntity
  8
16
  6
Continuous
 62
     3
370
    25
100
AcDbLine
 10
-73.18999357208602
 20
-68.09999909996986
 30
0.0
 11
-77.46999355956905
 21
-68.09999909996986
 31
0.0
  0
LINE
  5
4B7
330
1F
100
AcDbEntity
  8
16
  6
Continuous
 62
     3
370
    25
100
AcDbLine
 10
-77.46999355956905
 20
-68.09999909996986
 30
0.0
 11
-77.66999356254928
 21
-67.89999909698963
 31
0.0
  0
LINE
  5
4B8
330
1F
100
AcDbEntity
  8
16
  6
Continuous
 62
     3
370
    25
100
AcDbLine
 10
-72.09000080361966
 20
-66.29999907314777
 30
0.0
 11
-71.89000080063943
 21
-66.09999907016754
 31
0.0
  0
LINE
  5
4B9
330
1F
100
AcDbEntity
  8
16
  6
Continuous
 62
     3
370
    25
100
AcDbLine
 10
-71.89000080063943
 20
-66.09999907016754
 30
0.0
 11
-67.6100008131564
 21
-66.09999907016754
 31
0.0
  0
LINE
  5
4BA
330
1F
100
AcDbEntity
  8
16
  6
Continuous
 62
     3
370
    25
100
AcDbLine
 10
-67.6100008131564
 20
-66.09999907016754
 30
0.0
 11
-67.41000081017617
 21
-66.29999907314777
 31
0.0
  0
LINE
  5
4BB
330
1F
100
AcDbEntity
  8
16
  6
Continuous
 62
     3
370
    25
100
AcDbLine
 10
-67.41000081017617
 20
-67.89999909698963
 30
0.0
 11
-67.6100008131564
 21
-68.09999909996986
 31
0.0
  0
LINE
  5
4BC
330
1F
100
AcDbEntity
  8
16
  6
Continuous
 62
     3
370
    25
100
AcDbLine
 10
-67.6100008131564
 20
-68.09999909996986
 30
0.0
 11
-71.89000080063943
 21
-68.09999909996986
 31
0.0
  0
LINE
  5
4BD
330
1F
100
AcDbEntity
  8
16
  6
Continuous
 62
     3
370
    25
100
AcDbLine
 10
-71.89000080063943
 20
-68.09999909996986
 30
0.0
 11
-72.09000080361966
 21
-67.89999909698963
 31
0.0
  0
LINE
  5
4BE
330
1F
100
AcDbEntity
  8
16
  6
Continuous
 62
     3
370
    25
100
AcDbLine
 10
-66.50999583765861
 20
-66.29999907314777
 30
0.0
 11
-66.30999583467838
 21
-66.09999907016754
 31
0.0
  0
LINE
  5
4BF
330
1F
100
AcDbEntity
  8
16
  6
Continuous
 62
     3
370
    25
100
AcDbLine
 10
-66.30999583467838
 20
-66.09999907016754
 30
0.0
 11
-62.02999584719535
 21
-66.09999907016754
 31
0.0
  0
LINE
  5
4C0
330
1F
100
AcDbEntity
  8
16
  6
Continuous
 62
     3
370
    25
100
AcDbLine
 10
-62.02999584719535
 20
-66.09999907016754
 30
0.0
 11
-61.82999584421512
 21
-66.29999907314777
 31
0.0
  0
LINE
  5
4C1
330
1F
100
AcDbEntity
  8
16
  6
Continuous
 62
     3
370
    25
100
AcDbLine
 10
-61.82999584421512
 20
-67.89999909698963
 30
0.0
 11
-62.02999584719535
 21
-68.09999909996986
 31
0.0
  0
LINE
  5
4C2
330
1F
100
AcDbEntity
  8
16
  6
Continuous
 62
     3
370
    25
100
AcDbLine
 10
-62.02999584719535
 20
-68.09999909996986
 30
0.0
 11
-66.30999583467838
 21
-68.09999909996986
 31
0.0
  0
LINE
  5
4C3
330
1F
100
AcDbEntity
  8
16
  6
Continuous
 62
     3
370
    25
100
AcDbLine
 10
-66.30999583467838
 20
-68.09999909996986
 30
0.0
 11
-66.50999583765861
 21
-67.89999909698963
 31
0.0
  0
LINE
  5
4C4
330
1F
100
AcDbEntity
  8
16
  6
Continuous
 62
     3
370
    25
100
AcDbLine
 10
-60.93000307872899
 20
-66.29999907314777
 30
0.0
 11
-60.73000307574875
 21
-66.09999907016754
 31
0.0
  0
LINE
  5
4C5
330
1F
100
AcDbEntity
  8
16
  6
Continuous
 62
     3
370
    25
100
AcDbLine
 10
-60.73000307574875
 20
-66.09999907016754
 30
0.0
 11
-56.45000308826573
 21
-66.09999907016754
 31
0.0
  0
LINE
  5
4C6
330
1F
100
AcDbEntity
  8
16
  6
Continuous
 62
     3
370
    25
100
AcDbLine
 10
-56.45000308826573
 20
-66.09999907016754
 30
0.0
 11
-56.2500030852855
 21
-66.29999907314777
 31
0.0
  0
LINE
  5
4C7
330
1F
100
AcDbEntity
  8
16
  6
Continuous
 62
     3
370
    25
100
AcDbLine
 10
-56.2500030852855
 20
-67.89999909698963
 30
0.0
 11
-56.45000308826573
 21
-68.09999909996986
 31
0.0
  0
LINE
  5
4C8
330
1F
100
AcDbEntity
  8
16
  6
Continuous
 62
     3
370
    25
100
AcDbLine
 10
-56.45000308826573
 20
-68.09999909996986
 30
0.0
 11
-60.73000307574875
 21
-68.09999909996986
 31
0.0
  0
LINE
  5
4C9
330
1F
100
AcDbEntity
  8
16
  6
Continuous
 62
     3
370
    25
100
AcDbLine
 10
-60.73000307574875
 20
-68.09999909996986
 30
0.0
 11
-60.93000307872899
 21
-67.89999909698963
 31
0.0
  0
LINE
  5
4CA
330
1F
100
AcDbEntity
  8
16
  6
Continuous
 62
     3
370
    25
100
AcDbLine
 10
-55.34999811276793
 20
-66.29999907314777
 30
0.0
 11
-55.1499981097877
 21
-66.09999907016754
 31
0.0
  0
LINE
  5
4CB
330
1F
100
AcDbEntity
  8
16
  6
Continuous
 62
     3
370
    25
100
AcDbLine
 10
-55.1499981097877
 20
-66.09999907016754
 30
0.0
 11
-50.86999812230468
 21
-66.09999907016754
 31
0.0
  0
LINE
  5
4CC
330
1F
100
AcDbEntity
  8
16
  6
Continuous
 62
     3
370
    25
100
AcDbLine
 10
-50.86999812230468
 20
-66.09999907016754
 30
0.0
 11
-50.66999811932445
 21
-66.29999907314777
 31
0.0
  0
LINE
  5
4CD
330
1F
100
AcDbEntity
  8
16
  6
Continuous
 62
     3
370
    25
100
AcDbLine
 10
-50.66999811932445
 20
-67.89999909698963
 30
0.0
 11
-50.86999812230468
 21
-68.09999909996986
 31
0.0
  0
LINE
  5
4CE
330
1F
100
AcDbEntity
  8
16
  6
Continuous
 62
     3
370
    25
100
AcDbLine
 10
-50.86999812230468
 20
-68.09999909996986
 30
0.0
 11
-55.1499981097877
 21
-68.09999909996986
 31
0.0
  0
LINE
  5
4CF
330
1F
100
AcDbEntity
  8
16
  6
Continuous
 62
     3
370
    25
100
AcDbLine
 10
-55.1499981097877
 20
-68.09999909996986
 30
0.0
 11
-55.34999811276793
 21
-67.89999909698963
 31
0.0
  0
LINE
  5
4D0
330
1F
100
AcDbEntity
  8
16
  6
Continuous
 62
     3
370
    25
100
AcDbLine
 10
-49.76999314680688
 20
-66.29999907314777
 30
0.0
 11
-49.56999314382665
 21
-66.09999907016754
 31
0.0
  0
LINE
  5
4D1
330
1F
100
AcDbEntity
  8
16
  6
Continuous
 62
     3
370
    25
100
AcDbLine
 10
-49.56999314382665
 20
-66.09999907016754
 30
0.0
 11
-45.28999315634363
 21
-66.09999907016754
 31
0.0
  0
LINE
  5
4D2
330
1F
100
AcDbEntity
  8
16
  6
Continuous
 62
     3
370
    25
100
AcDbLine
 10
-45.28999315634363
 20
-66.09999907016754
 30
0.0
 11
-45.08999315336339
 21
-66.29999907314777
 31
0.0
  0
LINE
  5
4D3
330
1F
100
AcDbEntity
  8
16
  6
Continuous
 62
     3
370
    25
100
AcDbLine
 10
-45.08999315336339
 20
-67.89999909698963
 30
0.0
 11
-45.28999315634363
 21
-68.09999909996986
 31
0.0
  0
LINE
  5
4D4
330
1F
100
AcDbEntity
  8
16
  6
Continuous
 62
     3
370
    25
100
AcDbLine
 10
-45.28999315634363
 20
-68.09999909996986
 30
0.0
 11
-49.56999314382665
 21
-68.09999909996986
 31
0.0
  0
LINE
  5
4D5
330
1F
100
AcDbEntity
  8
16
  6
Continuous
 62
     3
370
    25
100
AcDbLine
 10
-49.56999314382665
 20
-68.09999909996986
 30
0.0
 11
-49.76999314680688
 21
-67.89999909698963
 31
0.0
  0
LINE
  5
4D6
330
1F
100
AcDbEntity
  8
16
  6
Continuous
 62
     3
370
    25
100
AcDbLine
 10
-44.24999794736505
 20
-66.29999907314777
 30
0.0
 11
-44.04999794438481
 21
-66.09999907016754
 31
0.0
  0
LINE
  5
4D7
330
1F
100
AcDbEntity
  8
16
  6
Continuous
 62
     3
370
    25
100
AcDbLine
 10
-44.04999794438481
 20
-66.09999907016754
 30
0.0
 11
-43.64999793842435
 21
-66.09999907016754
 31
0.0
  0
LINE
  5
4D8
330
1F
100
AcDbEntity
  8
16
  6
Continuous
 62
     3
370
    25
100
AcDbLine
 10
-43.64999793842435
 20
-66.09999907016754
 30
0.0
 11
-43.64999793842435
 21
-68.09999909996986
 31
0.0
  0
LINE
  5
4D9
330
1F
100
AcDbEntity
  8
16
  6
Continuous
 62
     3
370
    25
100
AcDbLine
 10
-43.64999793842435
 20
-68.09999909996986
 30
0.0
 11
-44.04999794438481
 21
-68.09999909996986
 31
0.0
  0
LINE
  5
4DA
330
1F
100
AcDbEntity
  8
16
  6
Continuous
 62
     3
370
    25
100
AcDbLine
 10
-44.04999794438481
 20
-68.09999909996986
 30
0.0
 11
-44.24999794736505
 21
-67.89999909698963
 31
0.0
  0
LINE
  5
4DB
330
1F
100
AcDbEntity
  8
16
  6
Continuous
 62
     3
370
    25
100
AcDbLine
 10
-139.8999993726611
 20
-68.69999910891056
 30
0.0
 11
-43.89999794214964
 21
-68.69999910891056
 31
0.0
  0
LINE
  5
4DC
330
1F
100
AcDbEntity
  8
16
  6
Continuous
 62
     3
370
    25
100
AcDbLine
 10
-43.89999794214964
 20
-68.69999910891056
 30
0.0
 11
-43.89999794214964
 21
-81.69999930262566
 31
0.0
  0
LINE
  5
4DD
330
1F
100
AcDbEntity
  8
16
  6
Continuous
 62
     3
370
    25
100
AcDbLine
 10
-43.89999794214964
 20
-81.69999930262566
 30
0.0
 11
-139.8999993726611
 21
-81.69999930262566
 31
0.0
  0
LINE
  5
4DE
330
1F
100
AcDbEntity
  8
16
  6
Continuous
 62
     3
370
    25
100
AcDbLine
 10
-139.8999993726611
 20
-81.69999930262566
 30
0.0
 11
-139.8999993726611
 21
-68.69999910891056
 31
0.0
  0
LINE
  5
4DF
330
1F
100
AcDbEntity
  8
16
  6
DASHED2
 62
     3
370
    25
100
AcDbLine
 10
-139.8999993726611
 20
-69.33999912798406
 30
0.0
 11
-43.89999794214964
 21
-69.33999912798406
 31
0.0
  0
LINE
  5
4E0
330
1F
100
AcDbEntity
  8
16
  6
DASHED2
 62
     3
370
    25
100
AcDbLine
 10
-139.8999993726611
 20
-81.05999990344048
 30
0.0
 11
-43.89999794214964
 21
-81.05999990344048
 31
0.0
  0
LINE
  5
4E1
330
1F
100
AcDbEntity
  8
22
  6
Continuous
 62
     4
370
    25
100
AcDbLine
 10
-182.0
 20
-128.5
 30
0.0
 11
-178.9999999552965
 21
-128.5
 31
0.0
  0
LINE
  5
4E2
330
1F
100
AcDbEntity
  8
22
  6
Continuous
 62
     4
370
    25
100
AcDbLine
 10
-178.9999999552965
 20
-128.5
 30
0.0
 11
-178.9999999552965
 21
-125.4999999552965
 31
0.0
  0
LINE
  5
4E3
330
1F
100
AcDbEntity
  8
22
  6
Continuous
 62
     4
370
    25
100
AcDbLine
 10
-178.9999999552965
 20
-125.4999999552965
 30
0.0
 11
-182.0
 21
-125.4999999552965
 31
0.0
  0
LINE
  5
4E4
330
1F
100
AcDbEntity
  8
22
  6
Continuous
 62
     4
370
    25
100
AcDbLine
 10
-182.0
 20
-125.4999999552965
 30
0.0
 11
-182.0
 21
-128.5
 31
0.0
  0
LINE
  5
4E5
330
1F
100
AcDbEntity
  8
22
  6
Continuous
 62
     4
370
    25
100
AcDbLine
 10
-182.0
 20
-128.5
 30
0.0
 11
-178.9999999552965
 21
-128.5
 31
0.0
  0
LINE
  5
4E6
330
1F
100
AcDbEntity
  8
22
  6
Continuous
 62
     4
370
    25
100
AcDbLine
 10
-178.9999999552965
 20
-128.5
 30
0.0
 11
-178.9999999552965
 21
-125.4999999552965
 31
0.0
  0
LINE
  5
4E7
330
1F
100
AcDbEntity
  8
22
  6
Continuous
 62
     4
370
    25
100
AcDbLine
 10
-178.9999999552965
 20
-125.4999999552965
 30
0.0
 11
-182.0
 21
-125.4999999552965
 31
0.0
  0
LINE
  5
4E8
330
1F
100
AcDbEntity
  8
22
  6
Continuous
 62
     4
370
    25
100
AcDbLine
 10
-182.0
 20
-125.4999999552965
 30
0.0
 11
-182.0
 21
-128.5
 31
0.0
  0
LINE
  5
4E9
330
1F
100
AcDbEntity
  8
22
  6
Continuous
 62
     4
370
    25
100
AcDbLine
 10
-182.0
 20
-128.5
 30
0.0
 11
-178.9999999552965
 21
-128.5
 31
0.0
  0
LINE
  5
4EA
330
1F
100
AcDbEntity
  8
22
  6
Continuous
 62
     4
370
    25
100
AcDbLine
 10
-178.9999999552965
 20
-128.5
 30
0.0
 11
-178.9999999552965
 21
-125.4999999552965
 31
0.0
  0
LINE
  5
4EB
330
1F
100
AcDbEntity
  8
22
  6
Continuous
 62
     4
370
    25
100
AcDbLine
 10
-178.9999999552965
 20
-125.4999999552965
 30
0.0
 11
-182.0
 21
-125.4999999552965
 31
0.0
  0
LINE
  5
4EC
330
1F
100
AcDbEntity
  8
22
  6
Continuous
 62
     4
370
    25
100
AcDbLine
 10
-182.0
 20
-125.4999999552965
 30
0.0
 11
-182.0
 21
-128.5
 31
0.0
  0
LINE
  5
4ED
330
1F
100
AcDbEntity
  8
22
  6
Continuous
 62
     4
370
    25
100
AcDbLine
 10
-131.4999992474914
 20
87.4000032171607
 30
0.0
 11
-129.9999992251396
 21
87.80000322312117
 31
0.0
  0
LINE
  5
4EE
330
1F
100
AcDbEntity
  8
22
  6
Continuous
 62
     4
370
    25
100
AcDbLine
 10
-129.9999992251396
 20
87.00000321120024
 30
0.0
 11
-131.4999992474914
 21
87.4000032171607
 31
0.0
  0
LINE
  5
4EF
330
1F
100
AcDbEntity
  8
22
  6
Continuous
 62
     4
370
    25
100
AcDbLine
 10
-131.4999992474914
 20
87.4000032171607
 30
0.0
 11
-101.4999988004565
 21
87.4000032171607
 31
0.0
  0
LINE
  5
4F0
330
1F
100
AcDbEntity
  8
22
  6
Continuous
 62
     4
370
    25
100
AcDbLine
 10
-101.4999988004565
 20
87.4000032171607
 30
0.0
 11
-102.9999988228083
 21
87.80000322312117
 31
0.0
  0
LINE
  5
4F1
330
1F
100
AcDbEntity
  8
22
  6
Continuous
 62
     4
370
    25
100
AcDbLine
 10
-102.9999988228083
 20
87.00000321120024
 30
0.0
 11
-101.4999988004565
 21
87.4000032171607
 31
0.0
  0
LINE
  5
4F2
330
1F
100
AcDbEntity
  8
22
  6
Continuous
 62
     4
370
    25
100
AcDbLine
 10
-137.4999993368983
 20
26.90000231564045
 30
0.0
 11
-137.199999332428
 21
28.36000237554312
 31
0.0
  0
LINE
  5
4F3
330
1F
100
AcDbEntity
  8
22
  6
Continuous
 62
     4
370
    25
100
AcDbLine
 10
-137.4999993368983
 20
26.90000231564045
 30
0.0
 11
-136.4999993219972
 21
28.00000233203173
 31
0.0
  0
LINE
  5
4F4
330
1F
100
AcDbEntity
  8
22
  6
Continuous
 62
     4
370
    25
100
AcDbLine
 10
-137.4999993368983
 20
26.90000231564045
 30
0.0
 11
-110.7499989382923
 21
80.40000311285257
 31
0.0
  0
LINE
  5
4F5
330
1F
100
AcDbEntity
  8
22
  6
Continuous
 62
     4
370
    25
100
AcDbLine
 10
-110.7499989382923
 20
80.40000311285257
 30
0.0
 11
-62.74999822303653
 21
80.40000311285257
 31
0.0
  0
LINE
  5
4F6
330
1F
100
AcDbEntity
  8
22
  6
Continuous
 62
     4
370
    25
100
AcDbLine
 10
-125.5499991588294
 20
36.90000246465206
 30
0.0
 11
-125.2499991543591
 21
38.36000252455473
 31
0.0
  0
LINE
  5
4F7
330
1F
100
AcDbEntity
  8
22
  6
Continuous
 62
     4
370
    25
100
AcDbLine
 10
-125.5499991588294
 20
36.90000246465206
 30
0.0
 11
-124.5499991439283
 21
38.00000248104334
 31
0.0
  0
LINE
  5
4F8
330
1F
100
AcDbEntity
  8
22
  6
Continuous
 62
     4
370
    25
100
AcDbLine
 10
-125.5499991588294
 20
36.90000246465206
 30
0.0
 11
-105.8999988660216
 21
76.2000030502677
 31
0.0
  0
LINE
  5
4F9
330
1F
100
AcDbEntity
  8
22
  6
Continuous
 62
     4
370
    25
100
AcDbLine
 10
-105.8999988660216
 20
76.2000030502677
 30
0.0
 11
-61.89999821037054
 21
76.2000030502677
 31
0.0
  0
LINE
  5
4FA
330
1F
100
AcDbEntity
  8
22
  6
Continuous
 62
     4
370
    25
100
AcDbLine
 10
-108.8099964679777
 20
52.40000269562006
 30
0.0
 11
-108.5099964635074
 21
53.86000275552273
 31
0.0
  0
LINE
  5
4FB
330
1F
100
AcDbEntity
  8
22
  6
Continuous
 62
     4
370
    25
100
AcDbLine
 10
-108.8099964679777
 20
52.40000269562006
 30
0.0
 11
-107.8099964530766
 21
53.50000271201134
 31
0.0
  0
LINE
  5
4FC
330
1F
100
AcDbEntity
  8
22
  6
Continuous
 62
     4
370
    25
100
AcDbLine
 10
-108.8099964679777
 20
52.40000269562006
 30
0.0
 11
-99.25999632567164
 21
71.50000298023224
 31
0.0
  0
LINE
  5
4FD
330
1F
100
AcDbEntity
  8
22
  6
Continuous
 62
     4
370
    25
100
AcDbLine
 10
-99.25999632567164
 20
71.50000298023224
 30
0.0
 11
-57.25999569982288
 21
71.50000298023224
 31
0.0
  0
LINE
  5
4FE
330
1F
100
AcDbEntity
  8
22
  6
Continuous
 62
     4
370
    25
100
AcDbLine
 10
-94.85999626010653
 20
-63.19999902695417
 30
0.0
 11
-94.85999626010653
 21
-58.19999895244837
 31
0.0
  0
LINE
  5
4FF
330
1F
100
AcDbEntity
  8
22
  6
Continuous
 62
     4
370
    25
100
AcDbLine
 10
-94.85999626010653
 20
-59.19999896734953
 30
0.0
 11
-96.35999628245827
 21
-58.79999896138906
 31
0.0
  0
LINE
  5
500
330
1F
100
AcDbEntity
  8
22
  6
Continuous
 62
     4
370
    25
100
AcDbLine
 10
-96.35999628245827
 20
-59.59999897330999
 30
0.0
 11
-94.85999626010653
 21
-59.19999896734953
 31
0.0
  0
LINE
  5
501
330
1F
100
AcDbEntity
  8
22
  6
Continuous
 62
     4
370
    25
100
AcDbLine
 10
-94.85999626010653
 20
-59.19999896734953
 30
0.0
 11
-97.85999630481001
 21
-59.19999896734953
 31
0.0
  0
LINE
  5
502
330
1F
100
AcDbEntity
  8
22
  6
Continuous
 62
     4
370
    25
100
AcDbLine
 10
-94.85999626010653
 20
-59.19999896734953
 30
0.0
 11
-89.279996253252
 21
-59.19999896734953
 31
0.0
  0
LINE
  5
503
330
1F
100
AcDbEntity
  8
22
  6
Continuous
 62
     4
370
    25
100
AcDbLine
 10
-89.279996253252
 20
-59.19999896734953
 30
0.0
 11
-87.77999623090025
 21
-58.79999896138906
 31
0.0
  0
LINE
  5
504
330
1F
100
AcDbEntity
  8
22
  6
Continuous
 62
     4
370
    25
100
AcDbLine
 10
-87.77999623090025
 20
-59.59999897330999
 30
0.0
 11
-89.279996253252
 21
-59.19999896734953
 31
0.0
  0
LINE
  5
505
330
1F
100
AcDbEntity
  8
22
  6
Continuous
 62
     4
370
    25
100
AcDbLine
 10
-89.279996253252
 20
-59.19999896734953
 30
0.0
 11
-77.27999607443806
 21
-59.19999896734953
 31
0.0
  0
LINE
  5
506
330
1F
100
AcDbEntity
  8
22
  6
Continuous
 62
     4
370
    25
100
AcDbLine
 10
-89.279996253252
 20
-58.19999895244837
 30
0.0
 11
-89.279996253252
 21
-63.19999902695417
 31
0.0
  0
LINE
  5
507
330
1F
100
AcDbEntity
  8
22
  6
Continuous
 62
     4
370
    25
100
AcDbLine
 10
-141.499999396503
 20
-63.19999902695417
 30
0.0
 11
-141.499999396503
 21
-51.19999884814024
 31
0.0
  0
LINE
  5
508
330
1F
100
AcDbEntity
  8
22
  6
Continuous
 62
     4
370
    25
100
AcDbLine
 10
-141.499999396503
 20
-52.1999988630414
 30
0.0
 11
-139.9999993741512
 21
-51.79999885708093
 31
0.0
  0
LINE
  5
509
330
1F
100
AcDbEntity
  8
22
  6
Continuous
 62
     4
370
    25
100
AcDbLine
 10
-139.9999993741512
 20
-52.59999886900186
 30
0.0
 11
-141.499999396503
 21
-52.1999988630414
 31
0.0
  0
LINE
  5
50A
330
1F
100
AcDbEntity
  8
22
  6
Continuous
 62
     4
370
    25
100
AcDbLine
 10
-141.499999396503
 20
-52.1999988630414
 30
0.0
 11
-42.69999792426825
 21
-52.1999988630414
 31
0.0
  0
LINE
  5
50B
330
1F
100
AcDbEntity
  8
22
  6
Continuous
 62
     4
370
    25
100
AcDbLine
 10
-42.69999792426825
 20
-52.1999988630414
 30
0.0
 11
-44.19999794661999
 21
-51.79999885708093
 31
0.0
  0
LINE
  5
50C
330
1F
100
AcDbEntity
  8
22
  6
Continuous
 62
     4
370
    25
100
AcDbLine
 10
-44.19999794661999
 20
-52.59999886900186
 30
0.0
 11
-42.69999792426825
 21
-52.1999988630414
 31
0.0
  0
LINE
  5
50D
330
1F
100
AcDbEntity
  8
22
  6
Continuous
 62
     4
370
    25
100
AcDbLine
 10
-42.69999792426825
 20
-63.19999902695417
 30
0.0
 11
-42.69999792426825
 21
-51.19999884814024
 31
0.0
  0
LINE
  5
50E
330
1F
100
AcDbEntity
  8
22
  6
Continuous
 62
     4
370
    25
100
AcDbLine
 10
1.800002738833427
 20
52.40000269562006
 30
0.0
 11
-3.199997335672379
 21
52.40000269562006
 31
0.0
  0
LINE
  5
50F
330
1F
100
AcDbEntity
  8
22
  6
Continuous
 62
     4
370
    25
100
AcDbLine
 10
-2.199997320771217
 20
52.40000269562006
 30
0.0
 11
-2.599997326731682
 21
50.90000267326832
 31
0.0
  0
LINE
  5
510
330
1F
100
AcDbEntity
  8
22
  6
Continuous
 62
     4
370
    25
100
AcDbLine
 10
-1.799997314810753
 20
50.90000267326832
 30
0.0
 11
-2.199997320771217
 21
52.40000269562006
 31
0.0
  0
LINE
  5
511
330
1F
100
AcDbEntity
  8
22
  6
Continuous
 62
     4
370
    25
100
AcDbLine
 10
-2.199997320771217
 20
52.40000269562006
 30
0.0
 11
-2.199997320771217
 21
36.40000245720148
 31
0.0
  0
LINE
  5
512
330
1F
100
AcDbEntity
  8
22
  6
Continuous
 62
     4
370
    25
100
AcDbLine
 10
-2.199997320771217
 20
36.40000245720148
 30
0.0
 11
-2.599997326731682
 21
37.90000247955322
 31
0.0
  0
LINE
  5
513
330
1F
100
AcDbEntity
  8
22
  6
Continuous
 62
     4
370
    25
100
AcDbLine
 10
-1.799997314810753
 20
37.90000247955322
 30
0.0
 11
-2.199997320771217
 21
36.40000245720148
 31
0.0
  0
LINE
  5
514
330
1F
100
AcDbEntity
  8
22
  6
Continuous
 62
     4
370
    25
100
AcDbLine
 10
-3.199997335672379
 20
36.40000245720148
 30
0.0
 11
1.800002738833427
 21
36.40000245720148
 31
0.0
  0
LINE
  5
515
330
1F
100
AcDbEntity
  8
22
  6
Continuous
 62
     4
370
    25
100
AcDbLine
 10
-2.199997320771217
 20
36.40000245720148
 30
0.0
 11
-2.599997326731682
 21
34.90000243484974
 31
0.0
  0
LINE
  5
516
330
1F
100
AcDbEntity
  8
22
  6
Continuous
 62
     4
370
    25
100
AcDbLine
 10
-1.799997314810753
 20
34.90000243484974
 30
0.0
 11
-2.199997320771217
 21
36.40000245720148
 31
0.0
  0
LINE
  5
517
330
1F
100
AcDbEntity
  8
22
  6
Continuous
 62
     4
370
    25
100
AcDbLine
 10
-2.199997320771217
 20
36.40000245720148
 30
0.0
 11
-2.199997320771217
 21
16.40000215917826
 31
0.0
  0
LINE
  5
518
330
1F
100
AcDbEntity
  8
22
  6
Continuous
 62
     4
370
    25
100
AcDbLine
 10
-2.199997320771217
 20
16.40000215917826
 30
0.0
 11
-2.599997326731682
 21
17.90000218153
 31
0.0
  0
LINE
  5
519
330
1F
100
AcDbEntity
  8
22
  6
Continuous
 62
     4
370
    25
100
AcDbLine
 10
-1.799997314810753
 20
17.90000218153
 30
0.0
 11
-2.199997320771217
 21
16.40000215917826
 31
0.0
  0
LINE
  5
51A
330
1F
100
AcDbEntity
  8
22
  6
Continuous
 62
     4
370
    25
100
AcDbLine
 10
-3.199997335672379
 20
16.40000215917826
 30
0.0
 11
1.800002738833427
 21
16.40000215917826
 31
0.0
  0
LINE
  5
51B
330
1F
100
AcDbEntity
  8
22
  6
Continuous
 62
     4
370
    25
100
AcDbLine
 10
1.800002738833427
 20
52.40000269562006
 30
0.0
 11
-10.19999743998051
 21
52.40000269562006
 31
0.0
  0
LINE
  5
51C
330
1F
100
AcDbEntity
  8
22
  6
Continuous
 62
     4
370
    25
100
AcDbLine
 10
-9.199997425079346
 20
52.40000269562006
 30
0.0
 11
-9.59999743103981
 21
50.90000267326832
 31
0.0
  0
LINE
  5
51D
330
1F
100
AcDbEntity
  8
22
  6
Continuous
 62
     4
370
    25
100
AcDbLine
 10
-8.799997419118881
 20
50.90000267326832
 30
0.0
 11
-9.199997425079346
 21
52.40000269562006
 31
0.0
  0
LINE
  5
51E
330
1F
100
AcDbEntity
  8
22
  6
Continuous
 62
     4
370
    25
100
AcDbLine
 10
-9.199997425079346
 20
52.40000269562006
 30
0.0
 11
-9.199997425079346
 21
-19.59999837726355
 31
0.0
  0
LINE
  5
51F
330
1F
100
AcDbEntity
  8
22
  6
Continuous
 62
     4
370
    25
100
AcDbLine
 10
-9.199997425079346
 20
-19.59999837726355
 30
0.0
 11
-9.59999743103981
 21
-18.0999983549118
 31
0.0
  0
LINE
  5
520
330
1F
100
AcDbEntity
  8
22
  6
Continuous
 62
     4
370
    25
100
AcDbLine
 10
-8.799997419118881
 20
-18.0999983549118
 30
0.0
 11
-9.199997425079346
 21
-19.59999837726355
 31
0.0
  0
LINE
  5
521
330
1F
100
AcDbEntity
  8
22
  6
Continuous
 62
     4
370
    25
100
AcDbLine
 10
-10.19999743998051
 20
-19.59999837726355
 30
0.0
 11
1.800002738833427
 21
-19.59999837726355
 31
0.0
  0
LINE
  5
522
330
1F
100
AcDbEntity
  8
22
  6
Continuous
 62
     4
370
    25
100
AcDbLine
 10
20.80000302195549
 20
50.90000267326832
 30
0.0
 11
32.80000320076942
 21
50.90000267326832
 31
0.0
  0
LINE
  5
523
330
1F
100
AcDbEntity
  8
22
  6
Continuous
 62
     4
370
    25
100
AcDbLine
 10
31.80000318586826
 20
50.90000267326832
 30
0.0
 11
31.4000031799078
 21
49.40000265091658
 31
0.0
  0
LINE
  5
524
330
1F
100
AcDbEntity
  8
22
  6
Continuous
 62
     4
370
    25
100
AcDbLine
 10
32.20000319182873
 20
49.40000265091658
 30
0.0
 11
31.80000318586826
 21
50.90000267326832
 31
0.0
  0
LINE
  5
525
330
1F
100
AcDbEntity
  8
22
  6
Continuous
 62
     4
370
    25
100
AcDbLine
 10
31.80000318586826
 20
50.90000267326832
 30
0.0
 11
31.80000318586826
 21
-18.0999983549118
 31
0.0
  0
LINE
  5
526
330
1F
100
AcDbEntity
  8
22
  6
Continuous
 62
     4
370
    25
100
AcDbLine
 10
31.80000318586826
 20
-18.0999983549118
 30
0.0
 11
31.4000031799078
 21
-16.59999833256006
 31
0.0
  0
LINE
  5
527
330
1F
100
AcDbEntity
  8
22
  6
Continuous
 62
     4
370
    25
100
AcDbLine
 10
32.20000319182873
 20
-16.59999833256006
 30
0.0
 11
31.80000318586826
 21
-18.0999983549118
 31
0.0
  0
LINE
  5
528
330
1F
100
AcDbEntity
  8
22
  6
Continuous
 62
     4
370
    25
100
AcDbLine
 10
32.80000320076942
 20
-18.0999983549118
 30
0.0
 11
20.80000302195549
 21
-18.0999983549118
 31
0.0
  0
LINE
  5
529
330
1F
100
AcDbEntity
  8
22
  6
Continuous
 62
     4
370
    25
100
AcDbLine
 10
17.30000296980143
 20
51.50000268220901
 30
0.0
 11
17.60000297427177
 21
52.96000274211168
 31
0.0
  0
LINE
  5
52A
330
1F
100
AcDbEntity
  8
22
  6
Continuous
 62
     4
370
    25
100
AcDbLine
 10
17.30000296980143
 20
51.50000268220901
 30
0.0
 11
18.30000298470259
 21
52.60000269860029
 31
0.0
  0
LINE
  5
52B
330
1F
100
AcDbEntity
  8
22
  6
Continuous
 62
     4
370
    25
100
AcDbLine
 10
17.30000296980143
 20
51.50000268220901
 30
0.0
 11
26.80000311136246
 21
70.50000296533108
 31
0.0
  0
LINE
  5
52C
330
1F
100
AcDbEntity
  8
22
  6
Continuous
 62
     4
370
    25
100
AcDbLine
 10
26.80000311136246
 20
70.50000296533108
 30
0.0
 11
3.80000276863575
 21
70.50000296533108
 31
0.0
  0
LINE
  5
52D
330
1F
100
AcDbEntity
  8
22
  6
Continuous
 62
     4
370
    25
100
AcDbLine
 10
2.300002746284008
 20
-20.09999838471413
 30
0.0
 11
2.300002746284008
 21
-36.0999986231327
 31
0.0
  0
LINE
  5
52E
330
1F
100
AcDbEntity
  8
22
  6
Continuous
 62
     4
370
    25
100
AcDbLine
 10
2.300002746284008
 20
-35.09999860823154
 30
0.0
 11
0.8000027239322662
 21
-34.69999860227108
 31
0.0
  0
LINE
  5
52F
330
1F
100
AcDbEntity
  8
22
  6
Continuous
 62
     4
370
    25
100
AcDbLine
 10
0.8000027239322662
 20
-35.49999861419201
 30
0.0
 11
2.300002746284008
 21
-35.09999860823154
 31
0.0
  0
LINE
  5
530
330
1F
100
AcDbEntity
  8
22
  6
Continuous
 62
     4
370
    25
100
AcDbLine
 10
2.300002746284008
 20
-35.09999860823154
 30
0.0
 11
-4.69999735802412
 21
-35.09999860823154
 31
0.0
  0
LINE
  5
531
330
1F
100
AcDbEntity
  8
22
  6
Continuous
 62
     4
370
    25
100
AcDbLine
 10
2.300002746284008
 20
-35.09999860823154
 30
0.0
 11
7.300002820789814
 21
-35.09999860823154
 31
0.0
  0
LINE
  5
532
330
1F
100
AcDbEntity
  8
22
  6
Continuous
 62
     4
370
    25
100
AcDbLine
 10
7.300002820789814
 20
-35.09999860823154
 30
0.0
 11
8.800002843141556
 21
-34.69999860227108
 31
0.0
  0
LINE
  5
533
330
1F
100
AcDbEntity
  8
22
  6
Continuous
 62
     4
370
    25
100
AcDbLine
 10
8.800002843141556
 20
-35.49999861419201
 30
0.0
 11
7.300002820789814
 21
-35.09999860823154
 31
0.0
  0
LINE
  5
534
330
1F
100
AcDbEntity
  8
22
  6
Continuous
 62
     4
370
    25
100
AcDbLine
 10
7.300002820789814
 20
-35.09999860823154
 30
0.0
 11
10.3000028654933
 21
-35.09999860823154
 31
0.0
  0
LINE
  5
535
330
1F
100
AcDbEntity
  8
22
  6
Continuous
 62
     4
370
    25
100
AcDbLine
 10
7.300002820789814
 20
-36.0999986231327
 30
0.0
 11
7.300002820789814
 21
-20.09999838471413
 31
0.0
  0
LINE
  5
536
330
1F
100
AcDbEntity
  8
22
  6
Continuous
 62
     4
370
    25
100
AcDbLine
 10
2.300002746284008
 20
-43.09999872744083
 30
0.0
 11
2.300002746284008
 21
-20.09999838471413
 31
0.0
  0
LINE
  5
537
330
1F
100
AcDbEntity
  8
22
  6
Continuous
 62
     4
370
    25
100
AcDbLine
 10
2.300002746284008
 20
-42.09999871253967
 30
0.0
 11
3.80000276863575
 21
-41.69999870657921
 31
0.0
  0
LINE
  5
538
330
1F
100
AcDbEntity
  8
22
  6
Continuous
 62
     4
370
    25
100
AcDbLine
 10
3.80000276863575
 20
-42.49999871850014
 30
0.0
 11
2.300002746284008
 21
-42.09999871253967
 31
0.0
  0
LINE
  5
539
330
1F
100
AcDbEntity
  8
22
  6
Continuous
 62
     4
370
    25
100
AcDbLine
 10
2.300002746284008
 20
-42.09999871253967
 30
0.0
 11
20.30000301450491
 21
-42.09999871253967
 31
0.0
  0
LINE
  5
53A
330
1F
100
AcDbEntity
  8
22
  6
Continuous
 62
     4
370
    25
100
AcDbLine
 10
20.30000301450491
 20
-42.09999871253967
 30
0.0
 11
18.80000299215317
 21
-41.69999870657921
 31
0.0
  0
LINE
  5
53B
330
1F
100
AcDbEntity
  8
22
  6
Continuous
 62
     4
370
    25
100
AcDbLine
 10
18.80000299215317
 20
-42.49999871850014
 30
0.0
 11
20.30000301450491
 21
-42.09999871253967
 31
0.0
  0
LINE
  5
53C
330
1F
100
AcDbEntity
  8
22
  6
Continuous
 62
     4
370
    25
100
AcDbLine
 10
20.30000301450491
 20
-43.09999872744083
 30
0.0
 11
20.30000301450491
 21
-20.09999838471413
 31
0.0
  0
LINE
  5
53D
330
1F
100
AcDbEntity
  8
22
  6
Continuous
 62
     4
370
    25
100
AcDbLine
 10
91.90000408142805
 20
95.90000334382057
 30
0.0
 11
86.90000400692225
 21
95.90000334382057
 31
0.0
  0
LINE
  5
53E
330
1F
100
AcDbEntity
  8
22
  6
Continuous
 62
     4
370
    25
100
AcDbLine
 10
86.90000400692225
 20
95.90000334382057
 30
0.0
 11
86.90000400692225
 21
91.90000328421593
 31
0.0
  0
LINE
  5
53F
330
1F
100
AcDbEntity
  8
22
  6
Continuous
 62
     4
370
    25
100
AcDbLine
 10
86.90000400692225
 20
91.90000328421593
 30
0.0
 11
144.9000048711896
 21
91.90000328421593
 31
0.0
  0
LINE
  5
540
330
1F
100
AcDbEntity
  8
22
  6
Continuous
 62
     4
370
    25
100
AcDbLine
 10
144.9000048711896
 20
91.90000328421593
 30
0.0
 11
144.9000048711896
 21
95.90000334382057
 31
0.0
  0
LINE
  5
541
330
1F
100
AcDbEntity
  8
22
  6
Continuous
 62
     4
370
    25
100
AcDbLine
 10
144.9000048711896
 20
95.90000334382057
 30
0.0
 11
139.9000047966838
 21
95.90000334382057
 31
0.0
  0
LINE
  5
542
330
1F
100
AcDbEntity
  8
22
  6
Continuous
 62
     4
370
    25
100
AcDbLine
 10
68.90000373870134
 20
22.40000224858523
 30
0.0
 11
67.90000372380018
 21
22.40000224858523
 31
0.0
  0
LINE
  5
543
330
1F
100
AcDbEntity
  8
22
  6
Continuous
 62
     4
370
    25
100
AcDbLine
 10
67.90000372380018
 20
22.40000224858523
 30
0.0
 11
67.90000372380018
 21
19.90000221133232
 31
0.0
  0
LINE
  5
544
330
1F
100
AcDbEntity
  8
22
  6
Continuous
 62
     4
370
    25
100
AcDbLine
 10
67.90000372380018
 20
19.90000221133232
 30
0.0
 11
81.90000393241644
 21
19.90000221133232
 31
0.0
  0
LINE
  5
545
330
1F
100
AcDbEntity
  8
22
  6
Continuous
 62
     4
370
    25
100
AcDbLine
 10
81.90000393241644
 20
19.90000221133232
 30
0.0
 11
81.90000393241644
 21
22.40000224858523
 31
0.0
  0
LINE
  5
546
330
1F
100
AcDbEntity
  8
22
  6
Continuous
 62
     4
370
    25
100
AcDbLine
 10
81.90000393241644
 20
22.40000224858523
 30
0.0
 11
80.90000391751528
 21
22.40000224858523
 31
0.0
  0
LINE
  5
547
330
1F
100
AcDbEntity
  8
22
  6
Continuous
 62
     4
370
    25
100
AcDbLine
 10
79.90000390261412
 20
12.40000209957361
 30
0.0
 11
93.90000411123037
 21
12.40000209957361
 31
0.0
  0
LINE
  5
548
330
1F
100
AcDbEntity
  8
22
  6
Continuous
 62
     4
370
    25
100
AcDbLine
 10
99.40000419318676
 20
12.40000209957361
 30
0.0
 11
128.4000046253204
 21
12.40000209957361
 31
0.0
  0
LINE
  5
549
330
1F
100
AcDbEntity
  8
22
  6
Continuous
 62
     4
370
    25
100
AcDbLine
 10
82.9000039473176
 20
-59.09999896585941
 30
0.0
 11
130.9000046625733
 21
-59.09999896585941
 31
0.0
  0
ARC
  5
54A
330
1F
100
AcDbEntity
  8
22
  6
Continuous
 62
     4
370
    25
100
AcDbCircle
 10
59.90000360459089
 20
102.9000034481287
 30
0.0
 40
5.000000074505806
100
AcDbArc
 50
270.0000000000006
 51
0.0000000000008142
  0
LINE
  5
54B
330
1F
100
AcDbEntity
  8
22
  6
Continuous
 62
     4
370
    25
100
AcDbLine
 10
59.90000523856541
 20
97.90000337362318
 30
0.0
 11
59.90000360459089
 21
-57.09999893605709
 31
0.0
  0
ARC
  5
54C
330
1F
100
AcDbEntity
  8
22
  6
Continuous
 62
     4
370
    25
100
AcDbCircle
 10
59.90000197061639
 20
-62.09999901056264
 30
0.0
 40
5.000000074505806
100
AcDbArc
 50
0.0
 51
90.0000000000002
  0
LINE
  5
54D
330
1F
100
AcDbEntity
  8
22
  6
Continuous
 62
     4
370
    25
100
AcDbLine
 10
64.90000204512219
 20
-62.09999901056264
 30
0.0
 11
164.9000051692128
 21
-62.09999901056291
 31
0.0
  0
ARC
  5
54E
330
1F
100
AcDbEntity
  8
22
  6
Continuous
 62
     4
370
    25
100
AcDbCircle
 10
169.9000052437176
 20
-62.10000227851191
 30
0.0
 40
5.000000074505806
100
AcDbArc
 50
90.0000000000002
 51
180.0000000000004
  0
LINE
  5
54F
330
1F
100
AcDbEntity
  8
22
  6
Continuous
 62
     4
370
    25
100
AcDbLine
 10
169.9000068776921
 20
-57.10000220400638
 30
0.0
 11
169.9000052437186
 21
97.9000033736229
 31
0.0
  0
ARC
  5
550
330
1F
100
AcDbEntity
  8
22
  6
Continuous
 62
     4
370
    25
100
AcDbCircle
 10
169.9000101456421
 20
102.9000034481263
 30
0.0
 40
5.000000074505806
100
AcDbArc
 50
180.0000000000004
 51
270.0000000000006
  0
LINE
  5
551
330
1F
100
AcDbEntity
  8
22
  6
Continuous
 62
     4
370
    25
100
AcDbLine
 10
164.9000100711374
 20
102.9000067160753
 30
0.0
 11
64.9000036790967
 21
102.9000034481287
 31
0.0
  0
LINE
  5
552
330
1F
100
AcDbEntity
  8
22
  6
Continuous
 62
     4
370
    25
100
AcDbLine
 10
-139.8999993726611
 20
-91.19999944418669
 30
0.0
 11
-139.8999993726611
 21
-82.19999931007624
 31
0.0
  0
LINE
  5
553
330
1F
100
AcDbEntity
  8
22
  6
Continuous
 62
     4
370
    25
100
AcDbLine
 10
-139.8999993726611
 20
-90.19999942928553
 30
0.0
 11
-138.3999993503094
 21
-89.79999942332506
 31
0.0
  0
LINE
  5
554
330
1F
100
AcDbEntity
  8
22
  6
Continuous
 62
     4
370
    25
100
AcDbLine
 10
-138.3999993503094
 20
-90.59999943524599
 30
0.0
 11
-139.8999993726611
 21
-90.19999942928553
 31
0.0
  0
LINE
  5
555
330
1F
100
AcDbEntity
  8
22
  6
Continuous
 62
     4
370
    25
100
AcDbLine
 10
-139.8999993726611
 20
-90.19999942928553
 30
0.0
 11
-43.89999794214964
 21
-90.19999942928553
 31
0.0
  0
LINE
  5
556
330
1F
100
AcDbEntity
  8
22
  6
Continuous
 62
     4
370
    25
100
AcDbLine
 10
-43.89999794214964
 20
-90.19999942928553
 30
0.0
 11
-45.39999796450138
 21
-89.79999942332506
 31
0.0
  0
LINE
  5
557
330
1F
100
AcDbEntity
  8
22
  6
Continuous
 62
     4
370
    25
100
AcDbLine
 10
-45.39999796450138
 20
-90.59999943524599
 30
0.0
 11
-43.89999794214964
 21
-90.19999942928553
 31
0.0
  0
LINE
  5
558
330
1F
100
AcDbEntity
  8
22
  6
Continuous
 62
     4
370
    25
100
AcDbLine
 10
-43.89999794214964
 20
-91.19999944418669
 30
0.0
 11
-43.89999794214964
 21
-82.19999931007624
 31
0.0
  0
LINE
  5
559
330
1F
100
AcDbEntity
  8
32
  6
Continuous
 62
     4
370
    25
100
AcDbLine
 10
-6.766664005815983
 20
-94.66999930351972
 30
0.0
 11
-6.766664005815983
 21
-89.97999926547209
 31
0.0
  0
ARC
  5
55A
330
1F
100
AcDbEntity
  8
32
  6
Continuous
 62
     4
370
    25
100
AcDbCircle
 10
-8.296661651450268
 20
-90.08108516021062
 30
0.0
 40
1.533333347241083
100
AcDbArc
 50
3.779999923706063
 51
73.70000000000016
  0
LINE
  5
55B
330
1F
100
AcDbEntity
  8
32
  6
Continuous
 62
     4
370
    25
100
AcDbLine
 10
-7.866305633361506
 20
-88.60938381433357
 30
0.0
 11
-9.306305733497311
 21
-88.10271713892489
 31
0.0
  0
ARC
  5
55C
330
1F
100
AcDbEntity
  8
32
  6
Continuous
 62
     4
370
    25
100
AcDbCircle
 10
-9.19824383467623
 20
-88.00545693119776
 30
0.0
 40
0.1466666702429453
100
AcDbArc
 50
111.909997558594
 51
222.330004882813
  0
LINE
  5
55D
330
1F
100
AcDbEntity
  8
32
  6
Continuous
 62
     4
370
    25
100
AcDbLine
 10
-9.253338103649956
 20
-87.8708888070387
 30
0.0
 11
-8.773338070271354
 21
-87.63755547072513
 31
0.0
  0
LINE
  5
55E
330
1F
100
AcDbEntity
  8
32
  6
Continuous
 62
     4
370
    25
100
AcDbLine
 10
-8.773338070271354
 20
-87.63755547072513
 30
0.0
 11
-8.773338070271354
 21
-87.56088880038284
 31
0.0
  0
ARC
  5
55F
330
1F
100
AcDbEntity
  8
32
  6
Continuous
 62
     4
370
    25
100
AcDbCircle
 10
-9.256211407830822
 20
-87.58197150121437
 30
0.0
 40
0.4833333636323616
100
AcDbArc
 50
2.500000000000005
 51
85.55000000000018
  0
ARC
  5
560
330
1F
100
AcDbEntity
  8
32
  6
Continuous
 62
     4
370
    25
100
AcDbCircle
 10
-9.203317123870722
 20
-87.99996359684062
 30
0.0
 40
0.9000000427166626
100
AcDbArc
 50
90.97999877929706
 51
246.6800048828131
  0
LINE
  5
561
330
1F
100
AcDbEntity
  8
32
  6
Continuous
 62
     4
370
    25
100
AcDbLine
 10
-9.55959727968326
 20
-88.82644077587474
 30
0.0
 11
-7.936263936117797
 21
-89.39644080557773
 31
0.0
  0
ARC
  5
562
330
1F
100
AcDbEntity
  8
32
  6
Continuous
 62
     4
370
    25
100
AcDbCircle
 10
-8.136263910289117
 20
-89.96310750502694
 30
0.0
 40
0.600000001986821
100
AcDbArc
 50
0.0
 51
70.57999877929703
  0
LINE
  5
563
330
1F
100
AcDbEntity
  8
32
  6
Continuous
 62
     4
370
    25
100
AcDbLine
 10
-7.536769509661717
 20
-89.96391026535248
 30
0.0
 11
-7.536769509661717
 21
-95.20391051052626
 31
0.0
  0
ARC
  5
564
330
1F
100
AcDbEntity
  8
32
  6
Continuous
 62
     4
370
    25
100
AcDbCircle
 10
-7.303436173348203
 20
-95.20391066303054
 30
0.0
 40
0.2333333363135655
100
AcDbArc
 50
180.0000000000004
 51
270.0000000000006
  0
LINE
  5
565
330
1F
100
AcDbEntity
  8
32
  6
Continuous
 62
     4
370
    25
100
AcDbLine
 10
-7.303436402104634
 20
-95.43724399934399
 30
0.0
 11
-6.236769687754251
 21
-95.43724399934399
 31
0.0
  0
ARC
  5
566
330
1F
100
AcDbEntity
  8
32
  6
Continuous
 62
     4
370
    25
100
AcDbCircle
 10
-6.23676945899782
 20
-95.20391066303054
 30
0.0
 40
0.2333333363135655
100
AcDbArc
 50
270.0000000000006
 51
0.0000000000008142
  0
LINE
  5
567
330
1F
100
AcDbEntity
  8
32
  6
Continuous
 62
     4
370
    25
100
AcDbLine
 10
-6.003436122684455
 20
-95.20391096803911
 30
0.0
 11
-6.003436122684455
 21
-89.96391072286534
 31
0.0
  0
ARC
  5
568
330
1F
100
AcDbEntity
  8
32
  6
Continuous
 62
     4
370
    25
100
AcDbCircle
 10
-5.403942152179471
 20
-89.96310811417855
 30
0.0
 40
0.600000001986821
100
AcDbArc
 50
109.4199951171877
 51
180.0000000000004
  0
LINE
  5
569
330
1F
100
AcDbEntity
  8
32
  6
Continuous
 62
     4
370
    25
100
AcDbLine
 10
-5.603942126350663
 20
-89.39644102257544
 30
0.0
 11
-3.9806087827852
 21
-88.82644099287246
 31
0.0
  0
ARC
  5
56A
330
1F
100
AcDbEntity
  8
32
  6
Continuous
 62
     4
370
    25
100
AcDbCircle
 10
-4.336887318065909
 20
-87.99996311525672
 30
0.0
 40
0.9000000427166626
100
AcDbArc
 50
293.3199951171881
 51
89.02001953125101
  0
ARC
  5
56B
330
1F
100
AcDbEntity
  8
32
  6
Continuous
 62
     4
370
    25
100
AcDbCircle
 10
-4.283991872200144
 20
-87.58197106940462
 30
0.0
 40
0.4833333636323616
100
AcDbArc
 50
94.45000000000022
 51
177.5000000000004
  0
LINE
  5
56C
330
1F
100
AcDbEntity
  8
32
  6
Continuous
 62
     4
370
    25
100
AcDbLine
 10
-4.76686519598007
 20
-87.560888052972
 30
0.0
 11
-4.76686519598007
 21
-87.6375547233143
 31
0.0
  0
LINE
  5
56D
330
1F
100
AcDbEntity
  8
32
  6
Continuous
 62
     4
370
    25
100
AcDbLine
 10
-4.76686519598007
 20
-87.6375547233143
 30
0.0
 11
-4.286865162601469
 21
-87.87088805962786
 31
0.0
  0
ARC
  5
56E
330
1F
100
AcDbEntity
  8
32
  6
Continuous
 62
     4
370
    25
100
AcDbCircle
 10
-4.34195923791918
 20
-88.0054559711856
 30
0.0
 40
0.1466666702429453
100
AcDbArc
 50
317.6699951171883
 51
68.08999023437599
  0
LINE
  5
56F
330
1F
100
AcDbEntity
  8
32
  6
Continuous
 62
     4
370
    25
100
AcDbLine
 10
-4.233897043299439
 20
-88.1027162978832
 30
0.0
 11
-5.673897143435244
 21
-88.60938297329189
 31
0.0
  0
ARC
  5
570
330
1F
100
AcDbEntity
  8
32
  6
Continuous
 62
     4
370
    25
100
AcDbCircle
 10
-5.24354208723555
 20
-90.08108460044492
 30
0.0
 40
1.533333347241083
100
AcDbArc
 50
106.3000000000002
 51
176.2199951171879
  0
LINE
  5
571
330
1F
100
AcDbEntity
  8
32
  6
Continuous
 62
     4
370
    25
100
AcDbLine
 10
-9.069997436404229
 20
-87.09999938309193
 30
0.0
 11
-4.386663899918396
 21
-87.09999938309193
 31
0.0
  0
LINE
  5
572
330
1F
100
AcDbEntity
  8
32
  6
Continuous
 62
     4
370
    25
100
AcDbLine
 10
-8.766667454938144
 20
-86.59999937564135
 30
0.0
 11
-8.766667454938144
 21
-82.5999993160367
 31
0.0
  0
LINE
  5
573
330
1F
100
AcDbEntity
  8
32
  6
Continuous
 62
     4
370
    25
100
AcDbLine
 10
-8.766667454938144
 20
-83.59999933093786
 30
0.0
 11
-10.76666748474047
 21
-83.29999932646751
 31
0.0
  0
LINE
  5
574
330
1F
100
AcDbEntity
  8
32
  6
Continuous
 62
     4
370
    25
100
AcDbLine
 10
-10.76666748474047
 20
-83.29999932646751
 30
0.0
 11
-10.76666748474047
 21
-83.89999933540821
 31
0.0
  0
LINE
  5
575
330
1F
100
AcDbEntity
  8
32
  6
Continuous
 62
     4
370
    25
100
AcDbLine
 10
-10.76666748474047
 20
-83.89999933540821
 30
0.0
 11
-8.766667454938144
 21
-83.59999933093786
 31
0.0
  0
LINE
  5
576
330
1F
100
AcDbEntity
  8
32
  6
Continuous
 62
     4
370
    25
100
AcDbLine
 10
-8.766667454938144
 20
-83.59999933093786
 30
0.0
 11
-11.76666749964163
 21
-83.59999933093786
 31
0.0
  0
LINE
  5
577
330
1F
100
AcDbEntity
  8
32
  6
Continuous
 62
     4
370
    25
100
AcDbLine
 10
-8.766667454938144
 20
-83.59999933093786
 30
0.0
 11
-4.766667395333499
 21
-83.59999933093786
 31
0.0
  0
LINE
  5
578
330
1F
100
AcDbEntity
  8
32
  6
Continuous
 62
     4
370
    25
100
AcDbLine
 10
-4.766667395333499
 20
-83.59999933093786
 30
0.0
 11
-2.766667365531177
 21
-83.29999932646751
 31
0.0
  0
LINE
  5
579
330
1F
100
AcDbEntity
  8
32
  6
Continuous
 62
     4
370
    25
100
AcDbLine
 10
-2.766667365531177
 20
-83.29999932646751
 30
0.0
 11
-2.766667365531177
 21
-83.89999933540821
 31
0.0
  0
LINE
  5
57A
330
1F
100
AcDbEntity
  8
32
  6
Continuous
 62
     4
370
    25
100
AcDbLine
 10
-2.766667365531177
 20
-83.89999933540821
 30
0.0
 11
-4.766667395333499
 21
-83.59999933093786
 31
0.0
  0
LINE
  5
57B
330
1F
100
AcDbEntity
  8
32
  6
Continuous
 62
     4
370
    25
100
AcDbLine
 10
-4.766667395333499
 20
-83.59999933093786
 30
0.0
 11
-1.766667350630016
 21
-83.59999933093786
 31
0.0
  0
LINE
  5
57C
330
1F
100
AcDbEntity
  8
32
  6
Continuous
 62
     4
370
    25
100
AcDbLine
 10
-4.766667395333499
 20
-82.5999993160367
 30
0.0
 11
-4.766667395333499
 21
-86.59999937564135
 31
0.0
  0
LINE
  5
57D
330
1F
100
AcDbEntity
  8
32
  6
Continuous
 62
     4
370
    25
100
AcDbLine
 10
-7.099997393786904
 20
-86.59999937564135
 30
0.0
 11
-7.466664407650633
 21
-85.03332931598023
 31
0.0
  0
LINE
  5
57E
330
1F
100
AcDbEntity
  8
32
  6
Continuous
 62
     4
370
    25
100
AcDbLine
 10
-7.099997393786904
 20
-86.59999937564135
 30
0.0
 11
-8.26666744748756
 21
-84.59999934583902
 31
0.0
  0
LINE
  5
57F
330
1F
100
AcDbEntity
  8
32
  6
Continuous
 62
     4
370
    25
100
AcDbLine
 10
-11.03333752503007
 20
-79.89999927580357
 30
0.0
 11
-12.20000757873073
 21
-77.89999924600124
 31
0.0
  0
LINE
  5
580
330
1F
100
AcDbEntity
  8
32
  6
Continuous
 62
     4
370
    25
100
AcDbLine
 10
-20.53333747585624
 20
-77.89999924600124
 30
0.0
 11
-12.20000757873073
 21
-77.89999924600124
 31
0.0
  0
LINE
  5
581
330
1F
100
AcDbEntity
  8
32
  6
Continuous
 62
     4
370
    25
100
AcDbLine
 10
-10.09999743849039
 20
-86.59999937564135
 30
0.0
 11
-10.09999743849039
 21
-84.39999934285879
 31
0.0
  0
LINE
  5
582
330
1F
100
AcDbEntity
  8
32
  6
Continuous
 62
     4
370
    25
100
AcDbLine
 10
-10.09999743849039
 20
-82.79999931901693
 30
0.0
 11
-10.09999743849039
 21
-76.59999922662973
 31
0.0
  0
LINE
  5
583
330
1F
100
AcDbEntity
  8
32
  6
Continuous
 62
     4
370
    25
100
AcDbLine
 10
-10.09999743849039
 20
-77.5999992415309
 30
0.0
 11
-8.099997408688068
 21
-77.29999923706055
 31
0.0
  0
LINE
  5
584
330
1F
100
AcDbEntity
  8
32
  6
Continuous
 62
     4
370
    25
100
AcDbLine
 10
-8.099997408688068
 20
-77.89999924600124
 30
0.0
 11
-8.099997408688068
 21
-77.29999923706055
 31
0.0
  0
LINE
  5
585
330
1F
100
AcDbEntity
  8
32
  6
Continuous
 62
     4
370
    25
100
AcDbLine
 10
-8.099997408688068
 20
-77.89999924600124
 30
0.0
 11
-10.09999743849039
 21
-77.5999992415309
 31
0.0
  0
LINE
  5
586
330
1F
100
AcDbEntity
  8
32
  6
Continuous
 62
     4
370
    25
100
AcDbLine
 10
-10.09999743849039
 20
-77.5999992415309
 30
0.0
 11
-3.433327112098482
 21
-77.5999992415309
 31
0.0
  0
LINE
  5
587
330
1F
100
AcDbEntity
  8
32
  6
Continuous
 62
     4
370
    25
100
AcDbLine
 10
-3.433327112098482
 20
-77.5999992415309
 30
0.0
 11
-5.433327141900804
 21
-77.29999923706055
 31
0.0
  0
LINE
  5
588
330
1F
100
AcDbEntity
  8
32
  6
Continuous
 62
     4
370
    25
100
AcDbLine
 10
-5.433327141900804
 20
-77.89999924600124
 30
0.0
 11
-5.433327141900804
 21
-77.29999923706055
 31
0.0
  0
LINE
  5
589
330
1F
100
AcDbEntity
  8
32
  6
Continuous
 62
     4
370
    25
100
AcDbLine
 10
-5.433327141900804
 20
-77.89999924600124
 30
0.0
 11
-3.433327112098482
 21
-77.5999992415309
 31
0.0
  0
LINE
  5
58A
330
1F
100
AcDbEntity
  8
32
  6
Continuous
 62
     4
370
    25
100
AcDbLine
 10
-3.433327112098482
 20
-86.59999937564135
 30
0.0
 11
-3.433327112098482
 21
-84.39999934285879
 31
0.0
  0
LINE
  5
58B
330
1F
100
AcDbEntity
  8
32
  6
Continuous
 62
     4
370
    25
100
AcDbLine
 10
-3.433327112098482
 20
-82.79999931901693
 30
0.0
 11
-3.433327112098482
 21
-76.59999922662973
 31
0.0
  0
LINE
  5
58C
330
1F
100
AcDbEntity
  8
32
  6
Continuous
 62
     4
370
    25
100
AcDbLine
 10
-2.933327104647901
 20
-87.09999938309193
 30
0.0
 11
3.066672984759066
 21
-87.09999938309193
 31
0.0
  0
LINE
  5
58D
330
1F
100
AcDbEntity
  8
32
  6
Continuous
 62
     4
370
    25
100
AcDbLine
 10
1.766672965387556
 20
-89.09999941289425
 30
0.0
 11
2.066672969857905
 21
-87.09999938309193
 31
0.0
  0
LINE
  5
58E
330
1F
100
AcDbEntity
  8
32
  6
Continuous
 62
     4
370
    25
100
AcDbLine
 10
1.766672965387556
 20
-89.09999941289425
 30
0.0
 11
2.366672974328253
 21
-89.09999941289425
 31
0.0
  0
LINE
  5
58F
330
1F
100
AcDbEntity
  8
32
  6
Continuous
 62
     4
370
    25
100
AcDbLine
 10
2.366672974328253
 20
-89.09999941289425
 30
0.0
 11
2.066672969857905
 21
-87.09999938309193
 31
0.0
  0
LINE
  5
590
330
1F
100
AcDbEntity
  8
32
  6
Continuous
 62
     4
370
    25
100
AcDbLine
 10
2.066672969857905
 20
-95.43332928021744
 30
0.0
 11
2.066672969857905
 21
-87.09999938309193
 31
0.0
  0
LINE
  5
591
330
1F
100
AcDbEntity
  8
32
  6
Continuous
 62
     4
370
    25
100
AcDbLine
 10
2.066672969857905
 20
-95.43332928021744
 30
0.0
 11
1.766672965387556
 21
-93.43332925041511
 31
0.0
  0
LINE
  5
592
330
1F
100
AcDbEntity
  8
32
  6
Continuous
 62
     4
370
    25
100
AcDbLine
 10
1.766672965387556
 20
-93.43332925041511
 30
0.0
 11
2.366672974328253
 21
-93.43332925041511
 31
0.0
  0
LINE
  5
593
330
1F
100
AcDbEntity
  8
32
  6
Continuous
 62
     4
370
    25
100
AcDbLine
 10
2.366672974328253
 20
-93.43332925041511
 30
0.0
 11
2.066672969857905
 21
-95.43332928021744
 31
0.0
  0
LINE
  5
594
330
1F
100
AcDbEntity
  8
32
  6
Continuous
 62
     4
370
    25
100
AcDbLine
 10
-4.933327134450224
 20
-95.43332928021744
 30
0.0
 11
3.066672984759066
 21
-95.43332928021744
 31
0.0
  0
LINE
  5
595
330
1F
100
AcDbEntity
  8
32
  6
Continuous
 62
     4
370
    25
100
AcDbLine
 10
-7.533327363928109
 20
-100.9333293621738
 30
0.0
 11
-7.533327363928109
 21
-95.93332928766802
 31
0.0
  0
LINE
  5
596
330
1F
100
AcDbEntity
  8
32
  6
Continuous
 62
     4
370
    25
100
AcDbLine
 10
-7.533327363928109
 20
-99.93332934727268
 30
0.0
 11
-9.533327393730431
 21
-99.63332934280227
 31
0.0
  0
LINE
  5
597
330
1F
100
AcDbEntity
  8
32
  6
Continuous
 62
     4
370
    25
100
AcDbLine
 10
-9.533327393730431
 20
-100.233329351743
 30
0.0
 11
-9.533327393730431
 21
-99.63332934280227
 31
0.0
  0
LINE
  5
598
330
1F
100
AcDbEntity
  8
32
  6
Continuous
 62
     4
370
    25
100
AcDbLine
 10
-9.533327393730431
 20
-100.233329351743
 30
0.0
 11
-7.533327363928109
 21
-99.93332934727268
 31
0.0
  0
LINE
  5
599
330
1F
100
AcDbEntity
  8
32
  6
Continuous
 62
     4
370
    25
100
AcDbLine
 10
-10.53332740863159
 20
-99.93332934727268
 30
0.0
 11
-7.533327363928109
 21
-99.93332934727268
 31
0.0
  0
LINE
  5
59A
330
1F
100
AcDbEntity
  8
32
  6
Continuous
 62
     4
370
    25
100
AcDbLine
 10
-7.533327363928109
 20
-99.93332934727268
 30
0.0
 11
-5.99999737739563
 21
-99.93332934727268
 31
0.0
  0
LINE
  5
59B
330
1F
100
AcDbEntity
  8
32
  6
Continuous
 62
     4
370
    25
100
AcDbLine
 10
-5.99999737739563
 20
-99.93332934727268
 30
0.0
 11
-3.999997347593307
 21
-99.63332934280227
 31
0.0
  0
LINE
  5
59C
330
1F
100
AcDbEntity
  8
32
  6
Continuous
 62
     4
370
    25
100
AcDbLine
 10
-3.999997347593307
 20
-100.233329351743
 30
0.0
 11
-3.999997347593307
 21
-99.63332934280227
 31
0.0
  0
LINE
  5
59D
330
1F
100
AcDbEntity
  8
32
  6
Continuous
 62
     4
370
    25
100
AcDbLine
 10
-3.999997347593307
 20
-100.233329351743
 30
0.0
 11
-5.99999737739563
 21
-99.93332934727268
 31
0.0
  0
LINE
  5
59E
330
1F
100
AcDbEntity
  8
32
  6
Continuous
 62
     4
370
    25
100
AcDbLine
 10
-5.99999737739563
 20
-99.93332934727268
 30
0.0
 11
-2.999997332692146
 21
-99.93332934727268
 31
0.0
  0
LINE
  5
59F
330
1F
100
AcDbEntity
  8
32
  6
Continuous
 62
     4
370
    25
100
AcDbLine
 10
-5.99999737739563
 20
-100.9333293621738
 30
0.0
 11
-5.99999737739563
 21
-95.93332928766802
 31
0.0
  0
TEXT
  5
5A0
330
1F
100
AcDbEntity
  8
32
 62
     2
100
AcDbText
 10
-9.76666747
 20
-82.29999930807907
 30
0.0
 40
2.0
  1
12.5
 41
0.7500000028125
  7
dcStyle0
 72
     5
 11
-3.766667379999999
 21
-82.29999930807907
 31
0.0
100
AcDbText
  0
TEXT
  5
5A1
330
1F
100
AcDbEntity
  8
32
 62
     2
100
AcDbText
 10
-20.03333747
 20
-77.59999923807906
 30
0.0
 40
2.0
  1
ｾﾗﾐｯｸ
 41
0.7500000029999999
  7
dcStyle0
 72
     5
 11
-12.53333735
 21
-77.59999923807906
 31
0.0
100
AcDbText
  0
TEXT
  5
5A2
330
1F
100
AcDbEntity
  8
32
 62
     2
100
AcDbText
 10
-8.26665734
 20
-76.59999922807907
 30
0.0
 40
2.0
  1
20
 41
0.7500000025
  7
dcStyle0
 72
     5
 11
-5.2666573
 21
-76.59999922807907
 31
0.0
100
AcDbText
  0
TEXT
  5
5A3
330
1F
100
AcDbEntity
  8
32
 62
     2
100
AcDbText
 10
1.566672962403828
 20
-94.26665922487398
 30
0.0
 40
2.0
  1
 25 
 50
90.0000001836389
 41
0.7500000028125
  7
dcStyle0
 72
     5
 11
1.566672943173207
 21
-88.26665913487398
 31
0.0
100
AcDbText
  0
TEXT
  5
5A4
330
1F
100
AcDbEntity
  8
32
 62
     2
100
AcDbText
 10
-5.99999738
 20
-99.23332933807907
 30
0.0
 40
2.0
  1
 4.6 
 41
0.750000003
  7
dcStyle0
 72
     5
 11
1.50000274
 21
-99.23332933807907
 31
0.0
100
AcDbText
  0
TEXT
  5
5A5
330
1F
100
AcDbEntity
  8
0
 62
     2
100
AcDbText
 10
-145.4634935004949
 20
-45.92725518552027
 30
0.0
 40
2.5
  1
セラミック充填
 41
0.833333333333334
  7
dcStyle0
 72
     5
 11
-127.9634935004949
 21
-45.92725518552027
 31
0.0
100
AcDbText
  0
LINE
  5
5A6
330
1F
100
AcDbEntity
  8
0
  6
Continuous
 62
     4
370
    25
100
AcDbLine
 10
-117.3804021726747
 20
-63.52565625887747
 30
0.0
 11
-122.9114206946365
 21
-53.94565116123518
 31
0.0
  0
INSERT
  5
5AD
330
1F
100
AcDbEntity
  8
0
 62
     4
100
AcDbBlockReference
  2
_OPEN30
 10
-117.3804021726747
 20
-63.52565625887747
 30
0.0
 41
3.000002787824364
 42
2.999989273978464
 50
300.0
  0
LINE
  5
5AE
330
1F
100
AcDbEntity
  8
0
  6
Continuous
 62
     4
370
    25
100
AcDbLine
 10
-126.9634935004949
 20
-46.92725518552027
 30
0.0
 11
-146.4634935004949
 21
-46.92725518552027
 31
0.0
  0
LINE
  5
5AF
330
1F
100
AcDbEntity
  8
0
  6
Continuous
 62
     4
370
    25
100
AcDbLine
 10
-124.80158205902
 20
-50.67179564361923
 30
0.0
 11
-126.9634935004949
 21
-46.92725518552027
 31
0.0
  0
VIEWPORT
  5
77
330
1B
100
AcDbEntity
 67
     1
  8
0
100
AcDbViewport
 10
-4.799997359514236
 20
-11.29999825358391
 30
0.0
 40
1063.200015842915
 41
703.2000104784966
 68
     1
 69
     1
 12
-4.799997359514236
 22
-11.29999825358391
 13
0.0
 23
0.0
 14
0.5
 24
0.5
 15
0.0
 25
0.0
 16
0.0
 26
0.0
 36
1.0
 17
0.0
 27
0.0
 37
0.0
 42
50.0
 43
0.0
 44
0.0
 45
703.2000104784966
 50
0.0
 51
0.0
 72
   100
 90
   557152
  1

281
     0
 71
     1
 74
     0
110
0.0
120
0.0
130
0.0
111
1.0
121
0.0
131
0.0
112
0.0
122
1.0
132
0.0
 79
     0
146
0.0
  0
ENDSEC
  0
SECTION
  2
OBJECTS
  0
DICTIONARY
  5
C
330
0
100
AcDbDictionary
281
     1
  3
ACAD_GROUP
350
D
  3
ACAD_LAYOUT
350
1A
  3
ACAD_MATERIAL
350
3B
  3
ACAD_MLEADERSTYLE
350
5D4
  3
ACAD_MLINESTYLE
350
17
  3
ACAD_PLOTSETTINGS
350
19
  3
ACAD_PLOTSTYLENAME
350
E
  3
ACAD_SCALELIST
350
5B0
  3
ACAD_VISUALSTYLE
350
2A
  3
AcDbVariableDictionary
350
5D2
  0
DICTIONARY
  5
D
102
{ACAD_REACTORS
330
C
102
}
330
C
100
AcDbDictionary
281
     1
  0
DICTIONARY
  5
1A
102
{ACAD_REACTORS
330
C
102
}
330
C
100
AcDbDictionary
281
     1
  3
Layout1
350
1E
  3
Layout2
350
26
  3
Model
350
22
  0
DICTIONARY
  5
3B
102
{ACAD_REACTORS
330
C
102
}
330
C
100
AcDbDictionary
281
     1
  3
ByBlock
350
3D
  3
ByLayer
350
3C
  3
Global
350
3E
  0
DICTIONARY
  5
5D4
102
{ACAD_REACTORS
330
C
102
}
330
C
100
AcDbDictionary
281
     1
  0
DICTIONARY
  5
17
102
{ACAD_REACTORS
330
C
102
}
330
C
100
AcDbDictionary
281
     1
  3
Standard
350
18
  0
DICTIONARY
  5
19
102
{ACAD_REACTORS
330
C
102
}
330
C
100
AcDbDictionary
281
     1
  0
ACDBDICTIONARYWDFLT
  5
E
102
{ACAD_REACTORS
330
C
102
}
330
C
100
AcDbDictionary
281
     1
  3
Normal
350
F
100
AcDbDictionaryWithDefault
340
F
  0
DICTIONARY
  5
5B0
102
{ACAD_REACTORS
330
C
102
}
330
C
100
AcDbDictionary
281
     1
  3
A0
350
5B1
  3
A1
350
5B2
  3
A2
350
5B3
  3
A3
350
5B4
  3
A4
350
5B5
  3
A5
350
5B6
  3
A6
350
5B7
  3
A7
350
5B8
  3
A8
350
5B9
  3
A9
350
5BA
  3
B0
350
5BB
  3
B1
350
5BC
  3
B2
350
5BD
  3
B3
350
5BE
  3
B4
350
5BF
  3
B5
350
5C0
  3
B6
350
5C1
  3
B7
350
5C2
  3
B8
350
5C3
  3
B9
350
5C4
  3
C0
350
5C5
  3
C1
350
5C6
  3
C2
350
5C7
  3
C3
350
5C8
  3
C4
350
5C9
  3
C5
350
5CA
  3
C6
350
5CB
  3
C7
350
5CC
  3
C8
350
5CD
  3
C9
350
5CE
  3
D0
350
5CF
  3
D1
350
5D0
  3
D2
350
5D1
  0
DICTIONARY
  5
2A
102
{ACAD_REACTORS
330
C
102
}
330
C
100
AcDbDictionary
281
     1
  3
2dWireframe
350
2F
  3
3D Hidden
350
31
  3
3dWireframe
350
30
  3
Basic
350
32
  3
Brighten
350
36
  3
ColorChange
350
3A
  3
Conceptual
350
34
  3
Dim
350
35
  3
Facepattern
350
39
  3
Flat
350
2B
  3
FlatWithEdges
350
2C
  3
Gouraud
350
2D
  3
GouraudWithEdges
350
2E
  3
Linepattern
350
38
  3
Realistic
350
33
  3
Thicken
350
37
  0
DICTIONARY
  5
5D2
102
{ACAD_REACTORS
330
C
102
}
330
C
100
AcDbDictionary
281
     1
  3
CANNOSCALE
350
5D5
  3
DIMASSOC
350
5D6
  3
HIDETEXT
350
5D7
  0
LAYOUT
  5
1E
102
{ACAD_REACTORS
330
1A
102
}
330
1A
100
AcDbPlotSettings
  1

  2
none_device
  4

  6

 40
0.0
 41
0.0
 42
0.0
 43
0.0
 44
0.0
 45
0.0
 46
0.0
 47
0.0
 48
0.0
 49
0.0
140
0.0
141
0.0
142
1.0
143
1.0
 70
   688
 72
     0
 73
     0
 74
     5
  7

 75
    16
147
1.0
148
0.0
149
0.0
100
AcDbLayout
  1
Layout1
 70
     0
 71
     1
 10
0.0
 20
0.0
 11
12.0
 21
9.0
 12
0.0
 22
0.0
 32
0.0
 14
1.000000000000000E+20
 24
1.000000000000000E+20
 34
1.000000000000000E+20
 15
-1.000000000000000E+20
 25
-1.000000000000000E+20
 35
-1.000000000000000E+20
146
0.0
 13
0.0
 23
0.0
 33
0.0
 16
1.0
 26
0.0
 36
0.0
 17
0.0
 27
1.0
 37
0.0
 76
     0
330
1B
331
77
  0
LAYOUT
  5
26
102
{ACAD_REACTORS
330
1A
102
}
330
1A
100
AcDbPlotSettings
  1

  2
none_device
  4

  6

 40
0.0
 41
0.0
 42
0.0
 43
0.0
 44
0.0
 45
0.0
 46
0.0
 47
0.0
 48
0.0
 49
0.0
140
0.0
141
0.0
142
1.0
143
1.0
 70
   688
 72
     0
 73
     0
 74
     5
  7

 75
    16
147
1.0
148
0.0
149
0.0
100
AcDbLayout
  1
Layout2
 70
     1
 71
     2
 10
0.0
 20
0.0
 11
0.0
 21
0.0
 12
0.0
 22
0.0
 32
0.0
 14
0.0
 24
0.0
 34
0.0
 15
0.0
 25
0.0
 35
0.0
146
0.0
 13
0.0
 23
0.0
 33
0.0
 16
1.0
 26
0.0
 36
0.0
 17
0.0
 27
1.0
 37
0.0
 76
     0
330
23
  0
LAYOUT
  5
22
102
{ACAD_REACTORS
330
1A
102
}
330
1A
100
AcDbPlotSettings
  1

  2
none_device
  4

  6

 40
0.0
 41
0.0
 42
0.0
 43
0.0
 44
0.0
 45
0.0
 46
0.0
 47
0.0
 48
0.0
 49
0.0
140
0.0
141
0.0
142
1.0
143
1.0
 70
  1712
 72
     0
 73
     0
 74
     0
  7

 75
     0
147
1.0
148
0.0
149
0.0
100
AcDbLayout
  1
Model
 70
     1
 71
     0
 10
-182.0
 20
-128.5
 11
182.0
 21
128.5
 12
0.0
 22
0.0
 32
0.0
 14
-536.4000052809715
 24
-362.9000034928322
 34
0.0
 15
526.800010561943
 25
340.3000069856644
 35
0.0
146
0.0
 13
0.0
 23
0.0
 33
0.0
 16
1.0
 26
0.0
 36
0.0
 17
0.0
 27
1.0
 37
0.0
 76
     0
330
1F
331
29
  0
MATERIAL
  5
3D
102
{ACAD_REACTORS
330
3B
102
}
102
{ACAD_XDICTIONARY
360
5FA
102
}
330
3B
100
AcDbMaterial
  1
ByBlock
  0
MATERIAL
  5
3C
102
{ACAD_REACTORS
330
3B
102
}
102
{ACAD_XDICTIONARY
360
5F8
102
}
330
3B
100
AcDbMaterial
  1
ByLayer
  0
MATERIAL
  5
3E
102
{ACAD_REACTORS
330
3B
102
}
102
{ACAD_XDICTIONARY
360
5FC
102
}
330
3B
100
AcDbMaterial
  1
Global
  0
MLINESTYLE
  5
18
102
{ACAD_REACTORS
330
17
102
}
330
17
100
AcDbMlineStyle
  2
Standard
 70
     0
  3

 62
   256
 51
90.0
 52
90.0
 71
     2
 49
0.5
 62
   256
  6
BYLAYER
 49
-0.5
 62
   256
  6
BYLAYER
  0
ACDBPLACEHOLDER
  5
F
102
{ACAD_REACTORS
330
E
102
}
330
E
  0
SCALE
  5
5B1
102
{ACAD_REACTORS
330
5B0
102
}
330
5B0
100
AcDbScale
 70
     0
300
1:1
140
1.0
141
1.0
290
     1
  0
SCALE
  5
5B2
102
{ACAD_REACTORS
330
5B0
102
}
330
5B0
100
AcDbScale
 70
     0
300
1:2
140
1.0
141
2.0
290
     0
  0
SCALE
  5
5B3
102
{ACAD_REACTORS
330
5B0
102
}
330
5B0
100
AcDbScale
 70
     0
300
1:4
140
1.0
141
4.0
290
     0
  0
SCALE
  5
5B4
102
{ACAD_REACTORS
330
5B0
102
}
330
5B0
100
AcDbScale
 70
     0
300
1:5
140
1.0
141
5.0
290
     0
  0
SCALE
  5
5B5
102
{ACAD_REACTORS
330
5B0
102
}
330
5B0
100
AcDbScale
 70
     0
300
1:8
140
1.0
141
8.0
290
     0
  0
SCALE
  5
5B6
102
{ACAD_REACTORS
330
5B0
102
}
330
5B0
100
AcDbScale
 70
     0
300
1:10
140
1.0
141
10.0
290
     0
  0
SCALE
  5
5B7
102
{ACAD_REACTORS
330
5B0
102
}
330
5B0
100
AcDbScale
 70
     0
300
1:16
140
1.0
141
16.0
290
     0
  0
SCALE
  5
5B8
102
{ACAD_REACTORS
330
5B0
102
}
330
5B0
100
AcDbScale
 70
     0
300
1:20
140
1.0
141
20.0
290
     0
  0
SCALE
  5
5B9
102
{ACAD_REACTORS
330
5B0
102
}
330
5B0
100
AcDbScale
 70
     0
300
1:30
140
1.0
141
30.0
290
     0
  0
SCALE
  5
5BA
102
{ACAD_REACTORS
330
5B0
102
}
330
5B0
100
AcDbScale
 70
     0
300
1:40
140
1.0
141
40.0
290
     0
  0
SCALE
  5
5BB
102
{ACAD_REACTORS
330
5B0
102
}
330
5B0
100
AcDbScale
 70
     0
300
1:50
140
1.0
141
50.0
290
     0
  0
SCALE
  5
5BC
102
{ACAD_REACTORS
330
5B0
102
}
330
5B0
100
AcDbScale
 70
     0
300
1:100
140
1.0
141
100.0
290
     0
  0
SCALE
  5
5BD
102
{ACAD_REACTORS
330
5B0
102
}
330
5B0
100
AcDbScale
 70
     0
300
2:1
140
2.0
141
1.0
290
     0
  0
SCALE
  5
5BE
102
{ACAD_REACTORS
330
5B0
102
}
330
5B0
100
AcDbScale
 70
     0
300
4:1
140
4.0
141
1.0
290
     0
  0
SCALE
  5
5BF
102
{ACAD_REACTORS
330
5B0
102
}
330
5B0
100
AcDbScale
 70
     0
300
8:1
140
8.0
141
1.0
290
     0
  0
SCALE
  5
5C0
102
{ACAD_REACTORS
330
5B0
102
}
330
5B0
100
AcDbScale
 70
     0
300
10:1
140
10.0
141
1.0
290
     0
  0
SCALE
  5
5C1
102
{ACAD_REACTORS
330
5B0
102
}
330
5B0
100
AcDbScale
 70
     0
300
100:1
140
100.0
141
1.0
290
     0
  0
SCALE
  5
5C2
102
{ACAD_REACTORS
330
5B0
102
}
330
5B0
100
AcDbScale
 70
     0
300
1/128" = 1'-0"
140
0.0078125
141
12.0
290
     0
  0
SCALE
  5
5C3
102
{ACAD_REACTORS
330
5B0
102
}
330
5B0
100
AcDbScale
 70
     0
300
1/64" = 1'-0"
140
0.015625
141
12.0
290
     0
  0
SCALE
  5
5C4
102
{ACAD_REACTORS
330
5B0
102
}
330
5B0
100
AcDbScale
 70
     0
300
1/32" = 1'-0"
140
0.03125
141
12.0
290
     0
  0
SCALE
  5
5C5
102
{ACAD_REACTORS
330
5B0
102
}
330
5B0
100
AcDbScale
 70
     0
300
1/16" = 1'-0"
140
0.0625
141
12.0
290
     0
  0
SCALE
  5
5C6
102
{ACAD_REACTORS
330
5B0
102
}
330
5B0
100
AcDbScale
 70
     0
300
3/32" = 1'-0"
140
0.09375
141
12.0
290
     0
  0
SCALE
  5
5C7
102
{ACAD_REACTORS
330
5B0
102
}
330
5B0
100
AcDbScale
 70
     0
300
1/8" = 1'-0"
140
0.125
141
12.0
290
     0
  0
SCALE
  5
5C8
102
{ACAD_REACTORS
330
5B0
102
}
330
5B0
100
AcDbScale
 70
     0
300
3/16" = 1'-0"
140
0.1875
141
12.0
290
     0
  0
SCALE
  5
5C9
102
{ACAD_REACTORS
330
5B0
102
}
330
5B0
100
AcDbScale
 70
     0
300
1/4" = 1'-0"
140
0.25
141
12.0
290
     0
  0
SCALE
  5
5CA
102
{ACAD_REACTORS
330
5B0
102
}
330
5B0
100
AcDbScale
 70
     0
300
3/8" = 1'-0"
140
0.375
141
12.0
290
     0
  0
SCALE
  5
5CB
102
{ACAD_REACTORS
330
5B0
102
}
330
5B0
100
AcDbScale
 70
     0
300
1/2" = 1'-0"
140
0.5
141
12.0
290
     0
  0
SCALE
  5
5CC
102
{ACAD_REACTORS
330
5B0
102
}
330
5B0
100
AcDbScale
 70
     0
300
3/4" = 1'-0"
140
0.75
141
12.0
290
     0
  0
SCALE
  5
5CD
102
{ACAD_REACTORS
330
5B0
102
}
330
5B0
100
AcDbScale
 70
     0
300
1" = 1'-0"
140
1.0
141
12.0
290
     0
  0
SCALE
  5
5CE
102
{ACAD_REACTORS
330
5B0
102
}
330
5B0
100
AcDbScale
 70
     0
300
1-1/2" = 1'-0"
140
1.5
141
12.0
290
     0
  0
SCALE
  5
5CF
102
{ACAD_REACTORS
330
5B0
102
}
330
5B0
100
AcDbScale
 70
     0
300
3" = 1'-0"
140
3.0
141
12.0
290
     0
  0
SCALE
  5
5D0
102
{ACAD_REACTORS
330
5B0
102
}
330
5B0
100
AcDbScale
 70
     0
300
6" = 1'-0"
140
6.0
141
12.0
290
     0
  0
SCALE
  5
5D1
102
{ACAD_REACTORS
330
5B0
102
}
330
5B0
100
AcDbScale
 70
     0
300
1'-0" = 1'-0"
140
12.0
141
12.0
290
     0
  0
VISUALSTYLE
  5
2F
102
{ACAD_REACTORS
330
2A
102
}
102
{ACAD_XDICTIONARY
360
5E0
102
}
330
2A
100
AcDbVisualStyle
  2
2dWireframe
 70
     4
 71
     0
 72
     2
 73
     0
 90
        0
 40
-0.6
 41
-30.0
 62
     5
 63
     7
 74
     1
 91
        4
 64
     7
 65
   257
 75
     1
175
     1
 42
1.0
 92
        0
 66
   257
 43
1.0
 76
     1
 77
     6
 78
     2
 67
     7
 79
     5
170
     0
171
     0
290
     0
174
     0
 93
        1
 44
0.0
173
     0
291
     0
 45
0.0
1001
ACAD
1000
AcDbSavedByObjectVersion
1070
     0
  0
VISUALSTYLE
  5
31
102
{ACAD_REACTORS
330
2A
102
}
102
{ACAD_XDICTIONARY
360
5E4
102
}
330
2A
100
AcDbVisualStyle
  2
3D Hidden
 70
     6
 71
     1
 72
     2
 73
     2
 90
        0
 40
-0.6
 41
-30.0
 62
     5
 63
     7
 74
     2
 91
        2
 64
     7
 65
   257
 75
     2
175
     1
 42
40.0
 92
        0
 66
   257
 43
1.0
 76
     1
 77
     6
 78
     2
 67
     7
 79
     3
170
     0
171
     0
290
     0
174
     0
 93
        1
 44
0.0
173
     0
291
     0
 45
0.0
1001
ACAD
1000
AcDbSavedByObjectVersion
1070
     0
  0
VISUALSTYLE
  5
30
102
{ACAD_REACTORS
330
2A
102
}
102
{ACAD_XDICTIONARY
360
5E2
102
}
330
2A
100
AcDbVisualStyle
  2
3dWireframe
 70
     5
 71
     0
 72
     2
 73
     0
 90
        0
 40
-0.6
 41
-30.0
 62
     5
 63
     7
 74
     1
 91
        4
 64
     7
 65
   257
 75
     1
175
     1
 42
1.0
 92
        0
 66
   257
 43
1.0
 76
     1
 77
     6
 78
     2
 67
     7
 79
     5
170
     0
171
     0
290
     0
174
     0
 93
        1
 44
0.0
173
     0
291
     0
 45
0.0
1001
ACAD
1000
AcDbSavedByObjectVersion
1070
     0
  0
VISUALSTYLE
  5
32
102
{ACAD_REACTORS
330
2A
102
}
102
{ACAD_XDICTIONARY
360
5E6
102
}
330
2A
100
AcDbVisualStyle
  2
Basic
 70
     7
 71
     1
 72
     0
 73
     1
 90
        0
 40
-0.6
 41
-30.0
 62
     5
 63
     7
 74
     0
 91
        4
 64
     7
 65
   257
 75
     1
175
     1
 42
1.0
 92
        8
 66
     7
 43
1.0
 76
     1
 77
     6
 78
     2
 67
     7
 79
     5
170
     0
171
     0
290
     0
174
     0
 93
        1
 44
0.0
173
     0
291
     1
 45
0.0
1001
ACAD
1000
AcDbSavedByObjectVersion
1070
     0
  0
VISUALSTYLE
  5
36
102
{ACAD_REACTORS
330
2A
102
}
102
{ACAD_XDICTIONARY
360
5EE
102
}
330
2A
100
AcDbVisualStyle
  2
Brighten
 70
    12
 71
     2
 72
     2
 73
     0
 90
        0
 40
-0.6
 41
-30.0
 62
     5
 63
     7
 74
     1
 91
        4
 64
     7
 65
   257
 75
     1
175
     1
 42
1.0
 92
        8
 66
     7
 43
1.0
 76
     1
 77
     6
 78
     2
 67
     7
 79
     5
170
     0
171
     0
290
     0
174
     0
 93
        1
 44
50.0
173
     0
291
     1
 45
0.0
1001
ACAD
1000
AcDbSavedByObjectVersion
1070
     0
  0
VISUALSTYLE
  5
3A
102
{ACAD_REACTORS
330
2A
102
}
102
{ACAD_XDICTIONARY
360
5F6
102
}
330
2A
100
AcDbVisualStyle
  2
ColorChange
 70
    16
 71
     2
 72
     2
 73
     3
 90
        0
 40
-0.6
 41
-30.0
 62
     5
 63
     8
 74
     1
 91
        4
 64
     7
 65
   257
 75
     1
175
     1
 42
1.0
 92
        8
 66
     8
 43
1.0
 76
     1
 77
     6
 78
     2
 67
     7
 79
     5
170
     0
171
     0
290
     0
174
     0
 93
        1
 44
0.0
173
     0
291
     1
 45
0.0
1001
ACAD
1000
AcDbSavedByObjectVersion
1070
     0
  0
VISUALSTYLE
  5
34
102
{ACAD_REACTORS
330
2A
102
}
102
{ACAD_XDICTIONARY
360
5EA
102
}
330
2A
100
AcDbVisualStyle
  2
Conceptual
 70
     9
 71
     3
 72
     2
 73
     0
 90
        0
 40
-0.6
 41
-30.0
 62
     5
 63
     7
 74
     2
 91
        2
 64
     7
 65
   257
 75
     1
175
     1
 42
40.0
 92
        8
 66
     7
 43
1.0
 76
     1
 77
     6
 78
     2
 67
     7
 79
     3
170
     0
171
     0
290
     0
174
     0
 93
        1
 44
0.0
173
     0
291
     0
 45
0.0
1001
ACAD
1000
AcDbSavedByObjectVersion
1070
     0
  0
VISUALSTYLE
  5
35
102
{ACAD_REACTORS
330
2A
102
}
102
{ACAD_XDICTIONARY
360
5EC
102
}
330
2A
100
AcDbVisualStyle
  2
Dim
 70
    11
 71
     2
 72
     2
 73
     0
 90
        0
 40
-0.6
 41
-30.0
 62
     5
 63
     7
 74
     1
 91
        4
 64
     7
 65
   257
 75
     1
175
     1
 42
1.0
 92
        8
 66
     7
 43
1.0
 76
     1
 77
     6
 78
     2
 67
     7
 79
     5
170
     0
171
     0
290
     0
174
     0
 93
        1
 44
-50.0
173
     0
291
     1
 45
0.0
1001
ACAD
1000
AcDbSavedByObjectVersion
1070
     0
  0
VISUALSTYLE
  5
39
102
{ACAD_REACTORS
330
2A
102
}
102
{ACAD_XDICTIONARY
360
5F4
102
}
330
2A
100
AcDbVisualStyle
  2
Facepattern
 70
    15
 71
     2
 72
     2
 73
     0
 90
        0
 40
-0.6
 41
-30.0
 62
     5
 63
     7
 74
     1
 91
        4
 64
     7
 65
   257
 75
     1
175
     1
 42
1.0
 92
        8
 66
     7
 43
1.0
 76
     1
 77
     6
 78
     2
 67
     7
 79
     5
170
     0
171
     0
290
     0
174
     0
 93
        1
 44
0.0
173
     0
291
     1
 45
0.0
1001
ACAD
1000
AcDbSavedByObjectVersion
1070
     0
  0
VISUALSTYLE
  5
2B
102
{ACAD_REACTORS
330
2A
102
}
102
{ACAD_XDICTIONARY
360
5D8
102
}
330
2A
100
AcDbVisualStyle
  2
Flat
 70
     0
 71
     2
 72
     1
 73
     1
 90
        2
 40
-0.6
 41
30.0
 62
     5
 63
     7
 74
     0
 91
        4
 64
     7
 65
   257
 75
     1
175
     1
 42
1.0
 92
        8
 66
     7
 43
1.0
 76
     1
 77
     6
 78
     2
 67
     7
 79
     5
170
     0
171
     0
290
     0
174
     0
 93
       13
 44
0.0
173
     0
291
     1
 45
0.0
1001
ACAD
1000
AcDbSavedByObjectVersion
1070
     0
  0
VISUALSTYLE
  5
2C
102
{ACAD_REACTORS
330
2A
102
}
102
{ACAD_XDICTIONARY
360
5DA
102
}
330
2A
100
AcDbVisualStyle
  2
FlatWithEdges
 70
     1
 71
     2
 72
     1
 73
     1
 90
        2
 40
-0.6
 41
30.0
 62
     5
 63
     7
 74
     1
 91
        4
 64
     7
 65
   257
 75
     1
175
     1
 42
1.0
 92
        0
 66
   257
 43
1.0
 76
     1
 77
     6
 78
     2
 67
     7
 79
     5
170
     0
171
     0
290
     0
174
     0
 93
       13
 44
0.0
173
     0
291
     1
 45
0.0
1001
ACAD
1000
AcDbSavedByObjectVersion
1070
     0
  0
VISUALSTYLE
  5
2D
102
{ACAD_REACTORS
330
2A
102
}
102
{ACAD_XDICTIONARY
360
5DC
102
}
330
2A
100
AcDbVisualStyle
  2
Gouraud
 70
     2
 71
     2
 72
     2
 73
     1
 90
        2
 40
-0.6
 41
30.0
 62
     5
 63
     7
 74
     0
 91
        4
 64
     7
 65
   257
 75
     1
175
     1
 42
1.0
 92
        0
 66
     7
 43
1.0
 76
     1
 77
     6
 78
     2
 67
     7
 79
     5
170
     0
171
     0
290
     0
174
     0
 93
       13
 44
0.0
173
     0
291
     1
 45
0.0
1001
ACAD
1000
AcDbSavedByObjectVersion
1070
     0
  0
VISUALSTYLE
  5
2E
102
{ACAD_REACTORS
330
2A
102
}
102
{ACAD_XDICTIONARY
360
5DE
102
}
330
2A
100
AcDbVisualStyle
  2
GouraudWithEdges
 70
     3
 71
     2
 72
     2
 73
     1
 90
        2
 40
-0.6
 41
30.0
 62
     5
 63
     7
 74
     1
 91
        4
 64
     7
 65
   257
 75
     1
175
     1
 42
1.0
 92
        0
 66
   257
 43
1.0
 76
     1
 77
     6
 78
     2
 67
     7
 79
     5
170
     0
171
     0
290
     0
174
     0
 93
       13
 44
0.0
173
     0
291
     1
 45
0.0
1001
ACAD
1000
AcDbSavedByObjectVersion
1070
     0
  0
VISUALSTYLE
  5
38
102
{ACAD_REACTORS
330
2A
102
}
102
{ACAD_XDICTIONARY
360
5F2
102
}
330
2A
100
AcDbVisualStyle
  2
Linepattern
 70
    14
 71
     2
 72
     2
 73
     0
 90
        0
 40
-0.6
 41
-30.0
 62
     5
 63
     7
 74
     1
 91
        4
 64
     7
 65
   257
 75
     7
175
     7
 42
1.0
 92
        8
 66
     7
 43
1.0
 76
     1
 77
     6
 78
     2
 67
     7
 79
     5
170
     0
171
     0
290
     0
174
     0
 93
        1
 44
0.0
173
     0
291
     1
 45
0.0
1001
ACAD
1000
AcDbSavedByObjectVersion
1070
     0
  0
VISUALSTYLE
  5
33
102
{ACAD_REACTORS
330
2A
102
}
102
{ACAD_XDICTIONARY
360
5E8
102
}
330
2A
100
AcDbVisualStyle
  2
Realistic
 70
     8
 71
     2
 72
     2
 73
     0
 90
        0
 40
-0.6
 41
-30.0
 62
     5
 63
     7
 74
     1
 91
        0
 64
     7
 65
   257
 75
     1
175
     1
 42
1.0
 92
        8
 66
     8
 43
1.0
 76
     1
 77
     6
 78
     2
 67
     7
 79
     5
170
     0
171
     0
290
     0
174
     0
 93
       13
 44
0.0
173
     0
291
     0
 45
0.0
1001
ACAD
1000
AcDbSavedByObjectVersion
1070
     0
  0
VISUALSTYLE
  5
37
102
{ACAD_REACTORS
330
2A
102
}
102
{ACAD_XDICTIONARY
360
5F0
102
}
330
2A
100
AcDbVisualStyle
  2
Thicken
 70
    13
 71
     2
 72
     2
 73
     0
 90
        0
 40
-0.6
 41
-30.0
 62
     5
 63
     7
 74
     1
 91
        4
 64
     7
 65
   257
 75
     1
175
     1
 42
1.0
 92
       12
 66
     7
 43
1.0
 76
     1
 77
     6
 78
     2
 67
     7
 79
     5
170
     0
171
     0
290
     0
174
     0
 93
        1
 44
0.0
173
     0
291
     1
 45
0.0
1001
ACAD
1000
AcDbSavedByObjectVersion
1070
     0
  0
DICTIONARYVAR
  5
5D5
102
{ACAD_REACTORS
330
5D2
102
}
330
5D2
100
DictionaryVariables
280
     0
  1
1:1
  0
DICTIONARYVAR
  5
5D6
102
{ACAD_REACTORS
330
5D2
102
}
330
5D2
100
DictionaryVariables
280
     0
  1
2
  0
DICTIONARYVAR
  5
5D7
102
{ACAD_REACTORS
330
5D2
102
}
330
5D2
100
DictionaryVariables
280
     0
  1
1
  0
DICTIONARY
  5
5FA
330
3D
100
AcDbDictionary
280
     1
281
     1
  3
ACAD_XREC_ROUNDTRIP
360
5FB
  0
DICTIONARY
  5
5F8
330
3C
100
AcDbDictionary
280
     1
281
     1
  3
ACAD_XREC_ROUNDTRIP
360
5F9
  0
DICTIONARY
  5
5FC
330
3E
100
AcDbDictionary
280
     1
281
     1
  3
ACAD_XREC_ROUNDTRIP
360
5FD
  0
DICTIONARY
  5
5E0
330
2F
100
AcDbDictionary
280
     1
281
     1
  3
ACAD_XREC_ROUNDTRIP
360
5E1
  0
DICTIONARY
  5
5E4
330
31
100
AcDbDictionary
280
     1
281
     1
  3
ACAD_XREC_ROUNDTRIP
360
5E5
  0
DICTIONARY
  5
5E2
330
30
100
AcDbDictionary
280
     1
281
     1
  3
ACAD_XREC_ROUNDTRIP
360
5E3
  0
DICTIONARY
  5
5E6
330
32
100
AcDbDictionary
280
     1
281
     1
  3
ACAD_XREC_ROUNDTRIP
360
5E7
  0
DICTIONARY
  5
5EE
330
36
100
AcDbDictionary
280
     1
281
     1
  3
ACAD_XREC_ROUNDTRIP
360
5EF
  0
DICTIONARY
  5
5F6
330
3A
100
AcDbDictionary
280
     1
281
     1
  3
ACAD_XREC_ROUNDTRIP
360
5F7
  0
DICTIONARY
  5
5EA
330
34
100
AcDbDictionary
280
     1
281
     1
  3
ACAD_XREC_ROUNDTRIP
360
5EB
  0
DICTIONARY
  5
5EC
330
35
100
AcDbDictionary
280
     1
281
     1
  3
ACAD_XREC_ROUNDTRIP
360
5ED
  0
DICTIONARY
  5
5F4
330
39
100
AcDbDictionary
280
     1
281
     1
  3
ACAD_XREC_ROUNDTRIP
360
5F5
  0
DICTIONARY
  5
5D8
330
2B
100
AcDbDictionary
280
     1
281
     1
  3
ACAD_XREC_ROUNDTRIP
360
5D9
  0
DICTIONARY
  5
5DA
330
2C
100
AcDbDictionary
280
     1
281
     1
  3
ACAD_XREC_ROUNDTRIP
360
5DB
  0
DICTIONARY
  5
5DC
330
2D
100
AcDbDictionary
280
     1
281
     1
  3
ACAD_XREC_ROUNDTRIP
360
5DD
  0
DICTIONARY
  5
5DE
330
2E
100
AcDbDictionary
280
     1
281
     1
  3
ACAD_XREC_ROUNDTRIP
360
5DF
  0
DICTIONARY
  5
5F2
330
38
100
AcDbDictionary
280
     1
281
     1
  3
ACAD_XREC_ROUNDTRIP
360
5F3
  0
DICTIONARY
  5
5E8
330
33
100
AcDbDictionary
280
     1
281
     1
  3
ACAD_XREC_ROUNDTRIP
360
5E9
  0
DICTIONARY
  5
5F0
330
37
100
AcDbDictionary
280
     1
281
     1
  3
ACAD_XREC_ROUNDTRIP
360
5F1
  0
XRECORD
  5
5FB
102
{ACAD_REACTORS
330
5FA
102
}
330
5FA
100
AcDbXrecord
280
     1
102
MATERIAL
148
0.0
149
0.0
149
0.0
 93
        0
 94
      127
282
     0
 72
     1
 77
     1
171
     1
175
     1
179
     1
273
     0
  0
XRECORD
  5
5F9
102
{ACAD_REACTORS
330
5F8
102
}
330
5F8
100
AcDbXrecord
280
     1
102
MATERIAL
148
0.0
149
0.0
149
0.0
 93
        0
 94
      127
282
     0
 72
     1
 77
     1
171
     1
175
     1
179
     1
273
     0
  0
XRECORD
  5
5FD
102
{ACAD_REACTORS
330
5FC
102
}
330
5FC
100
AcDbXrecord
280
     1
102
MATERIAL
148
0.0
149
0.0
149
0.0
 93
        0
 94
      127
282
     0
 72
     1
 77
     1
171
     1
175
     1
179
     1
273
     0
  0
XRECORD
  5
5E1
102
{ACAD_REACTORS
330
5E0
102
}
330
5E0
100
AcDbXrecord
280
     1
102
RTVSPropertyOp0
 70
     1
102
RTVSPropertyOp1
 70
     1
102
RTVSPropertyOp2
 70
     1
102
RTVSPropertyOp3
 70
     1
102
RTVSPropertyOp4
 70
     1
102
RTVSPropertyOp5
 70
     1
102
RTVSPropertyOp6
 70
     1
102
RTVSPropertyOp7
 70
     1
102
RTVSPropertyOp8
 70
     1
102
RTVSPropertyOp9
 70
     1
102
RTVSPropertyOp10
 70
     1
102
RTVSPropertyOp11
 70
     1
102
RTVSPropertyOp12
 70
     1
102
RTVSPropertyOp13
 70
     1
102
RTVSPropertyOp14
 70
     1
102
RTVSPropertyOp15
 70
     1
102
RTVSPropertyOp16
 70
     1
102
RTVSPropertyOp17
 70
     1
102
RTVSPropertyOp18
 70
     1
102
RTVSPropertyOp19
 70
     1
102
RTVSPropertyOp20
 70
     1
102
RTVSPropertyOp21
 70
     1
102
RTVSPropertyOp22
 70
     1
102
RTVSPropertyOp23
 70
     1
102
RTVSPropertyOp24
 70
     1
102
RTVSPropertyOp25
 70
     1
102
RTVSPropertyOp26
 70
     1
102
RTVSPropertyOp27
 70
     1
  0
XRECORD
  5
5E5
102
{ACAD_REACTORS
330
5E4
102
}
330
5E4
100
AcDbXrecord
280
     1
102
RTVSPropertyOp0
 70
     1
102
RTVSPropertyOp1
 70
     1
102
RTVSPropertyOp2
 70
     1
102
RTVSPropertyOp3
 70
     1
102
RTVSPropertyOp4
 70
     1
102
RTVSPropertyOp5
 70
     1
102
RTVSPropertyOp6
 70
     1
102
RTVSPropertyOp7
 70
     1
102
RTVSPropertyOp8
 70
     1
102
RTVSPropertyOp9
 70
     1
102
RTVSPropertyOp10
 70
     1
102
RTVSPropertyOp11
 70
     1
102
RTVSPropertyOp12
 70
     1
102
RTVSPropertyOp13
 70
     1
102
RTVSPropertyOp14
 70
     1
102
RTVSPropertyOp15
 70
     1
102
RTVSPropertyOp16
 70
     1
102
RTVSPropertyOp17
 70
     1
102
RTVSPropertyOp18
 70
     1
102
RTVSPropertyOp19
 70
     1
102
RTVSPropertyOp20
 70
     1
102
RTVSPropertyOp21
 70
     1
102
RTVSPropertyOp22
 70
     1
102
RTVSPropertyOp23
 70
     1
102
RTVSPropertyOp24
 70
     1
102
RTVSPropertyOp25
 70
     1
102
RTVSPropertyOp26
 70
     1
102
RTVSPropertyOp27
 70
     1
  0
XRECORD
  5
5E3
102
{ACAD_REACTORS
330
5E2
102
}
330
5E2
100
AcDbXrecord
280
     1
102
RTVSPropertyOp0
 70
     1
102
RTVSPropertyOp1
 70
     1
102
RTVSPropertyOp2
 70
     1
102
RTVSPropertyOp3
 70
     1
102
RTVSPropertyOp4
 70
     1
102
RTVSPropertyOp5
 70
     1
102
RTVSPropertyOp6
 70
     1
102
RTVSPropertyOp7
 70
     1
102
RTVSPropertyOp8
 70
     1
102
RTVSPropertyOp9
 70
     1
102
RTVSPropertyOp10
 70
     1
102
RTVSPropertyOp11
 70
     1
102
RTVSPropertyOp12
 70
     1
102
RTVSPropertyOp13
 70
     1
102
RTVSPropertyOp14
 70
     1
102
RTVSPropertyOp15
 70
     1
102
RTVSPropertyOp16
 70
     1
102
RTVSPropertyOp17
 70
     1
102
RTVSPropertyOp18
 70
     1
102
RTVSPropertyOp19
 70
     1
102
RTVSPropertyOp20
 70
     1
102
RTVSPropertyOp21
 70
     1
102
RTVSPropertyOp22
 70
     1
102
RTVSPropertyOp23
 70
     1
102
RTVSPropertyOp24
 70
     1
102
RTVSPropertyOp25
 70
     1
102
RTVSPropertyOp26
 70
     1
102
RTVSPropertyOp27
 70
     1
  0
XRECORD
  5
5E7
102
{ACAD_REACTORS
330
5E6
102
}
330
5E6
100
AcDbXrecord
280
     1
102
RTVSPropertyOp0
 70
     1
102
RTVSPropertyOp1
 70
     1
102
RTVSPropertyOp2
 70
     1
102
RTVSPropertyOp3
 70
     1
102
RTVSPropertyOp4
 70
     1
102
RTVSPropertyOp5
 70
     1
102
RTVSPropertyOp6
 70
     1
102
RTVSPropertyOp7
 70
     1
102
RTVSPropertyOp8
 70
     1
102
RTVSPropertyOp9
 70
     1
102
RTVSPropertyOp10
 70
     1
102
RTVSPropertyOp11
 70
     1
102
RTVSPropertyOp12
 70
     1
102
RTVSPropertyOp13
 70
     1
102
RTVSPropertyOp14
 70
     1
102
RTVSPropertyOp15
 70
     1
102
RTVSPropertyOp16
 70
     1
102
RTVSPropertyOp17
 70
     1
102
RTVSPropertyOp18
 70
     1
102
RTVSPropertyOp19
 70
     1
102
RTVSPropertyOp20
 70
     1
102
RTVSPropertyOp21
 70
     1
102
RTVSPropertyOp22
 70
     1
102
RTVSPropertyOp23
 70
     1
102
RTVSPropertyOp24
 70
     1
102
RTVSPropertyOp25
 70
     1
102
RTVSPropertyOp26
 70
     1
102
RTVSPropertyOp27
 70
     1
  0
XRECORD
  5
5EF
102
{ACAD_REACTORS
330
5EE
102
}
330
5EE
100
AcDbXrecord
280
     1
102
RTVSPropertyOp0
 70
     1
102
RTVSPropertyOp1
 70
     1
102
RTVSPropertyOp2
 70
     1
102
RTVSPropertyOp3
 70
     1
102
RTVSPropertyOp4
 70
     1
102
RTVSPropertyOp5
 70
     1
102
RTVSPropertyOp6
 70
     1
102
RTVSPropertyOp7
 70
     1
102
RTVSPropertyOp8
 70
     1
102
RTVSPropertyOp9
 70
     1
102
RTVSPropertyOp10
 70
     1
102
RTVSPropertyOp11
 70
     1
102
RTVSPropertyOp12
 70
     1
102
RTVSPropertyOp13
 70
     1
102
RTVSPropertyOp14
 70
     1
102
RTVSPropertyOp15
 70
     1
102
RTVSPropertyOp16
 70
     1
102
RTVSPropertyOp17
 70
     1
102
RTVSPropertyOp18
 70
     1
102
RTVSPropertyOp19
 70
     1
102
RTVSPropertyOp20
 70
     1
102
RTVSPropertyOp21
 70
     1
102
RTVSPropertyOp22
 70
     1
102
RTVSPropertyOp23
 70
     1
102
RTVSPropertyOp24
 70
     1
102
RTVSPropertyOp25
 70
     1
102
RTVSPropertyOp26
 70
     1
102
RTVSPropertyOp27
 70
     1
  0
XRECORD
  5
5F7
102
{ACAD_REACTORS
330
5F6
102
}
330
5F6
100
AcDbXrecord
280
     1
102
RTVSPropertyOp0
 70
     1
102
RTVSPropertyOp1
 70
     1
102
RTVSPropertyOp2
 70
     1
102
RTVSPropertyOp3
 70
     1
102
RTVSPropertyOp4
 70
     1
102
RTVSPropertyOp5
 70
     1
102
RTVSPropertyOp6
 70
     1
102
RTVSPropertyOp7
 70
     1
102
RTVSPropertyOp8
 70
     1
102
RTVSPropertyOp9
 70
     1
102
RTVSPropertyOp10
 70
     1
102
RTVSPropertyOp11
 70
     1
102
RTVSPropertyOp12
 70
     1
102
RTVSPropertyOp13
 70
     1
102
RTVSPropertyOp14
 70
     1
102
RTVSPropertyOp15
 70
     1
102
RTVSPropertyOp16
 70
     1
102
RTVSPropertyOp17
 70
     1
102
RTVSPropertyOp18
 70
     1
102
RTVSPropertyOp19
 70
     1
102
RTVSPropertyOp20
 70
     1
102
RTVSPropertyOp21
 70
     1
102
RTVSPropertyOp22
 70
     1
102
RTVSPropertyOp23
 70
     1
102
RTVSPropertyOp24
 70
     1
102
RTVSPropertyOp25
 70
     1
102
RTVSPropertyOp26
 70
     1
102
RTVSPropertyOp27
 70
     1
  0
XRECORD
  5
5EB
102
{ACAD_REACTORS
330
5EA
102
}
330
5EA
100
AcDbXrecord
280
     1
102
RTVSPropertyOp0
 70
     1
102
RTVSPropertyOp1
 70
     1
102
RTVSPropertyOp2
 70
     1
102
RTVSPropertyOp3
 70
     1
102
RTVSPropertyOp4
 70
     1
102
RTVSPropertyOp5
 70
     1
102
RTVSPropertyOp6
 70
     1
102
RTVSPropertyOp7
 70
     1
102
RTVSPropertyOp8
 70
     1
102
RTVSPropertyOp9
 70
     1
102
RTVSPropertyOp10
 70
     1
102
RTVSPropertyOp11
 70
     1
102
RTVSPropertyOp12
 70
     1
102
RTVSPropertyOp13
 70
     1
102
RTVSPropertyOp14
 70
     1
102
RTVSPropertyOp15
 70
     1
102
RTVSPropertyOp16
 70
     1
102
RTVSPropertyOp17
 70
     1
102
RTVSPropertyOp18
 70
     1
102
RTVSPropertyOp19
 70
     1
102
RTVSPropertyOp20
 70
     1
102
RTVSPropertyOp21
 70
     1
102
RTVSPropertyOp22
 70
     1
102
RTVSPropertyOp23
 70
     1
102
RTVSPropertyOp24
 70
     1
102
RTVSPropertyOp25
 70
     1
102
RTVSPropertyOp26
 70
     1
102
RTVSPropertyOp27
 70
     1
  0
XRECORD
  5
5ED
102
{ACAD_REACTORS
330
5EC
102
}
330
5EC
100
AcDbXrecord
280
     1
102
RTVSPropertyOp0
 70
     1
102
RTVSPropertyOp1
 70
     1
102
RTVSPropertyOp2
 70
     1
102
RTVSPropertyOp3
 70
     1
102
RTVSPropertyOp4
 70
     1
102
RTVSPropertyOp5
 70
     1
102
RTVSPropertyOp6
 70
     1
102
RTVSPropertyOp7
 70
     1
102
RTVSPropertyOp8
 70
     1
102
RTVSPropertyOp9
 70
     1
102
RTVSPropertyOp10
 70
     1
102
RTVSPropertyOp11
 70
     1
102
RTVSPropertyOp12
 70
     1
102
RTVSPropertyOp13
 70
     1
102
RTVSPropertyOp14
 70
     1
102
RTVSPropertyOp15
 70
     1
102
RTVSPropertyOp16
 70
     1
102
RTVSPropertyOp17
 70
     1
102
RTVSPropertyOp18
 70
     1
102
RTVSPropertyOp19
 70
     1
102
RTVSPropertyOp20
 70
     1
102
RTVSPropertyOp21
 70
     1
102
RTVSPropertyOp22
 70
     1
102
RTVSPropertyOp23
 70
     1
102
RTVSPropertyOp24
 70
     1
102
RTVSPropertyOp25
 70
     1
102
RTVSPropertyOp26
 70
     1
102
RTVSPropertyOp27
 70
     1
  0
XRECORD
  5
5F5
102
{ACAD_REACTORS
330
5F4
102
}
330
5F4
100
AcDbXrecord
280
     1
102
RTVSPropertyOp0
 70
     1
102
RTVSPropertyOp1
 70
     1
102
RTVSPropertyOp2
 70
     1
102
RTVSPropertyOp3
 70
     1
102
RTVSPropertyOp4
 70
     1
102
RTVSPropertyOp5
 70
     1
102
RTVSPropertyOp6
 70
     1
102
RTVSPropertyOp7
 70
     1
102
RTVSPropertyOp8
 70
     1
102
RTVSPropertyOp9
 70
     1
102
RTVSPropertyOp10
 70
     1
102
RTVSPropertyOp11
 70
     1
102
RTVSPropertyOp12
 70
     1
102
RTVSPropertyOp13
 70
     1
102
RTVSPropertyOp14
 70
     1
102
RTVSPropertyOp15
 70
     1
102
RTVSPropertyOp16
 70
     1
102
RTVSPropertyOp17
 70
     1
102
RTVSPropertyOp18
 70
     1
102
RTVSPropertyOp19
 70
     1
102
RTVSPropertyOp20
 70
     1
102
RTVSPropertyOp21
 70
     1
102
RTVSPropertyOp22
 70
     1
102
RTVSPropertyOp23
 70
     1
102
RTVSPropertyOp24
 70
     1
102
RTVSPropertyOp25
 70
     1
102
RTVSPropertyOp26
 70
     1
102
RTVSPropertyOp27
 70
     1
  0
XRECORD
  5
5D9
102
{ACAD_REACTORS
330
5D8
102
}
330
5D8
100
AcDbXrecord
280
     1
102
RTVSPropertyOp0
 70
     1
102
RTVSPropertyOp1
 70
     1
102
RTVSPropertyOp2
 70
     1
102
RTVSPropertyOp3
 70
     1
102
RTVSPropertyOp4
 70
     1
102
RTVSPropertyOp5
 70
     1
102
RTVSPropertyOp6
 70
     1
102
RTVSPropertyOp7
 70
     1
102
RTVSPropertyOp8
 70
     1
102
RTVSPropertyOp9
 70
     1
102
RTVSPropertyOp10
 70
     1
102
RTVSPropertyOp11
 70
     1
102
RTVSPropertyOp12
 70
     1
102
RTVSPropertyOp13
 70
     1
102
RTVSPropertyOp14
 70
     1
102
RTVSPropertyOp15
 70
     1
102
RTVSPropertyOp16
 70
     1
102
RTVSPropertyOp17
 70
     1
102
RTVSPropertyOp18
 70
     1
102
RTVSPropertyOp19
 70
     1
102
RTVSPropertyOp20
 70
     1
102
RTVSPropertyOp21
 70
     1
102
RTVSPropertyOp22
 70
     1
102
RTVSPropertyOp23
 70
     1
102
RTVSPropertyOp24
 70
     1
102
RTVSPropertyOp25
 70
     1
102
RTVSPropertyOp26
 70
     1
102
RTVSPropertyOp27
 70
     1
  0
XRECORD
  5
5DB
102
{ACAD_REACTORS
330
5DA
102
}
330
5DA
100
AcDbXrecord
280
     1
102
RTVSPropertyOp0
 70
     1
102
RTVSPropertyOp1
 70
     1
102
RTVSPropertyOp2
 70
     1
102
RTVSPropertyOp3
 70
     1
102
RTVSPropertyOp4
 70
     1
102
RTVSPropertyOp5
 70
     1
102
RTVSPropertyOp6
 70
     1
102
RTVSPropertyOp7
 70
     1
102
RTVSPropertyOp8
 70
     1
102
RTVSPropertyOp9
 70
     1
102
RTVSPropertyOp10
 70
     1
102
RTVSPropertyOp11
 70
     1
102
RTVSPropertyOp12
 70
     1
102
RTVSPropertyOp13
 70
     1
102
RTVSPropertyOp14
 70
     1
102
RTVSPropertyOp15
 70
     1
102
RTVSPropertyOp16
 70
     1
102
RTVSPropertyOp17
 70
     1
102
RTVSPropertyOp18
 70
     1
102
RTVSPropertyOp19
 70
     1
102
RTVSPropertyOp20
 70
     1
102
RTVSPropertyOp21
 70
     1
102
RTVSPropertyOp22
 70
     1
102
RTVSPropertyOp23
 70
     1
102
RTVSPropertyOp24
 70
     1
102
RTVSPropertyOp25
 70
     1
102
RTVSPropertyOp26
 70
     1
102
RTVSPropertyOp27
 70
     1
  0
XRECORD
  5
5DD
102
{ACAD_REACTORS
330
5DC
102
}
330
5DC
100
AcDbXrecord
280
     1
102
RTVSPropertyOp0
 70
     1
102
RTVSPropertyOp1
 70
     1
102
RTVSPropertyOp2
 70
     1
102
RTVSPropertyOp3
 70
     1
102
RTVSPropertyOp4
 70
     1
102
RTVSPropertyOp5
 70
     1
102
RTVSPropertyOp6
 70
     1
102
RTVSPropertyOp7
 70
     1
102
RTVSPropertyOp8
 70
     1
102
RTVSPropertyOp9
 70
     1
102
RTVSPropertyOp10
 70
     1
102
RTVSPropertyOp11
 70
     1
102
RTVSPropertyOp12
 70
     1
102
RTVSPropertyOp13
 70
     1
102
RTVSPropertyOp14
 70
     1
102
RTVSPropertyOp15
 70
     1
102
RTVSPropertyOp16
 70
     1
102
RTVSPropertyOp17
 70
     1
102
RTVSPropertyOp18
 70
     1
102
RTVSPropertyOp19
 70
     1
102
RTVSPropertyOp20
 70
     1
102
RTVSPropertyOp21
 70
     1
102
RTVSPropertyOp22
 70
     1
102
RTVSPropertyOp23
 70
     1
102
RTVSPropertyOp24
 70
     1
102
RTVSPropertyOp25
 70
     1
102
RTVSPropertyOp26
 70
     1
102
RTVSPropertyOp27
 70
     1
  0
XRECORD
  5
5DF
102
{ACAD_REACTORS
330
5DE
102
}
330
5DE
100
AcDbXrecord
280
     1
102
RTVSPropertyOp0
 70
     1
102
RTVSPropertyOp1
 70
     1
102
RTVSPropertyOp2
 70
     1
102
RTVSPropertyOp3
 70
     1
102
RTVSPropertyOp4
 70
     1
102
RTVSPropertyOp5
 70
     1
102
RTVSPropertyOp6
 70
     1
102
RTVSPropertyOp7
 70
     1
102
RTVSPropertyOp8
 70
     1
102
RTVSPropertyOp9
 70
     1
102
RTVSPropertyOp10
 70
     1
102
RTVSPropertyOp11
 70
     1
102
RTVSPropertyOp12
 70
     1
102
RTVSPropertyOp13
 70
     1
102
RTVSPropertyOp14
 70
     1
102
RTVSPropertyOp15
 70
     1
102
RTVSPropertyOp16
 70
     1
102
RTVSPropertyOp17
 70
     1
102
RTVSPropertyOp18
 70
     1
102
RTVSPropertyOp19
 70
     1
102
RTVSPropertyOp20
 70
     1
102
RTVSPropertyOp21
 70
     1
102
RTVSPropertyOp22
 70
     1
102
RTVSPropertyOp23
 70
     1
102
RTVSPropertyOp24
 70
     1
102
RTVSPropertyOp25
 70
     1
102
RTVSPropertyOp26
 70
     1
102
RTVSPropertyOp27
 70
     1
  0
XRECORD
  5
5F3
102
{ACAD_REACTORS
330
5F2
102
}
330
5F2
100
AcDbXrecord
280
     1
102
RTVSPropertyOp0
 70
     1
102
RTVSPropertyOp1
 70
     1
102
RTVSPropertyOp2
 70
     1
102
RTVSPropertyOp3
 70
     1
102
RTVSPropertyOp4
 70
     1
102
RTVSPropertyOp5
 70
     1
102
RTVSPropertyOp6
 70
     1
102
RTVSPropertyOp7
 70
     1
102
RTVSPropertyOp8
 70
     1
102
RTVSPropertyOp9
 70
     1
102
RTVSPropertyOp10
 70
     1
102
RTVSPropertyOp11
 70
     1
102
RTVSPropertyOp12
 70
     1
102
RTVSPropertyOp13
 70
     1
102
RTVSPropertyOp14
 70
     1
102
RTVSPropertyOp15
 70
     1
102
RTVSPropertyOp16
 70
     1
102
RTVSPropertyOp17
 70
     1
102
RTVSPropertyOp18
 70
     1
102
RTVSPropertyOp19
 70
     1
102
RTVSPropertyOp20
 70
     1
102
RTVSPropertyOp21
 70
     1
102
RTVSPropertyOp22
 70
     1
102
RTVSPropertyOp23
 70
     1
102
RTVSPropertyOp24
 70
     1
102
RTVSPropertyOp25
 70
     1
102
RTVSPropertyOp26
 70
     1
102
RTVSPropertyOp27
 70
     1
  0
XRECORD
  5
5E9
102
{ACAD_REACTORS
330
5E8
102
}
330
5E8
100
AcDbXrecord
280
     1
102
RTVSPropertyOp0
 70
     1
102
RTVSPropertyOp1
 70
     1
102
RTVSPropertyOp2
 70
     1
102
RTVSPropertyOp3
 70
     1
102
RTVSPropertyOp4
 70
     1
102
RTVSPropertyOp5
 70
     1
102
RTVSPropertyOp6
 70
     1
102
RTVSPropertyOp7
 70
     1
102
RTVSPropertyOp8
 70
     1
102
RTVSPropertyOp9
 70
     1
102
RTVSPropertyOp10
 70
     1
102
RTVSPropertyOp11
 70
     1
102
RTVSPropertyOp12
 70
     1
102
RTVSPropertyOp13
 70
     1
102
RTVSPropertyOp14
 70
     1
102
RTVSPropertyOp15
 70
     1
102
RTVSPropertyOp16
 70
     1
102
RTVSPropertyOp17
 70
     1
102
RTVSPropertyOp18
 70
     1
102
RTVSPropertyOp19
 70
     1
102
RTVSPropertyOp20
 70
     1
102
RTVSPropertyOp21
 70
     1
102
RTVSPropertyOp22
 70
     1
102
RTVSPropertyOp23
 70
     1
102
RTVSPropertyOp24
 70
     1
102
RTVSPropertyOp25
 70
     1
102
RTVSPropertyOp26
 70
     1
102
RTVSPropertyOp27
 70
     1
  0
XRECORD
  5
5F1
102
{ACAD_REACTORS
330
5F0
102
}
330
5F0
100
AcDbXrecord
280
     1
102
RTVSPropertyOp0
 70
     1
102
RTVSPropertyOp1
 70
     1
102
RTVSPropertyOp2
 70
     1
102
RTVSPropertyOp3
 70
     1
102
RTVSPropertyOp4
 70
     1
102
RTVSPropertyOp5
 70
     1
102
RTVSPropertyOp6
 70
     1
102
RTVSPropertyOp7
 70
     1
102
RTVSPropertyOp8
 70
     1
102
RTVSPropertyOp9
 70
     1
102
RTVSPropertyOp10
 70
     1
102
RTVSPropertyOp11
 70
     1
102
RTVSPropertyOp12
 70
     1
102
RTVSPropertyOp13
 70
     1
102
RTVSPropertyOp14
 70
     1
102
RTVSPropertyOp15
 70
     1
102
RTVSPropertyOp16
 70
     1
102
RTVSPropertyOp17
 70
     1
102
RTVSPropertyOp18
 70
     1
102
RTVSPropertyOp19
 70
     1
102
RTVSPropertyOp20
 70
     1
102
RTVSPropertyOp21
 70
     1
102
RTVSPropertyOp22
 70
     1
102
RTVSPropertyOp23
 70
     1
102
RTVSPropertyOp24
 70
     1
102
RTVSPropertyOp25
 70
     1
102
RTVSPropertyOp26
 70
     1
102
RTVSPropertyOp27
 70
     1
  0
ENDSEC
  0
EOF
