  0
SECTION
  2
HEADER
  9
$ACADVER
  1
AC1015
  9
$ACADMAINTVER
 70
     6
  9
$DWGCODEPAGE
  3
ANSI_932
  9
$INSBASE
 10
0.0
 20
0.0
 30
0.0
  9
$EXTMIN
 10
-536.4000052809715
 20
-362.9000034928322
 30
0.0
  9
$EXTMAX
 10
526.800010561943
 20
340.3000069856644
 30
0.0
  9
$LIMMIN
 10
-182.0
 20
-128.5
  9
$LIMMAX
 10
182.0
 20
128.5
  9
$ORTHOMODE
 70
     0
  9
$REGENMODE
 70
     1
  9
$FILLMODE
 70
     1
  9
$QTEXTMODE
 70
     0
  9
$MIRRTEXT
 70
     1
  9
$LTSCALE
 40
0.25
  9
$ATTMODE
 70
     1
  9
$TEXTSIZE
 40
0.2
  9
$TRACEWID
 40
0.05
  9
$TEXTSTYLE
  7
Standard
  9
$CLAYER
  8
0
  9
$CELTYPE
  6
ByLayer
  9
$CECOLOR
 62
   256
  9
$CELTSCALE
 40
1.0
  9
$DISPSILH
 70
     0
  9
$DIMSCALE
 40
1.0
  9
$DIMASZ
 40
3.000001882570243
  9
$DIMEXO
 40
1.0
  9
$DIMDLI
 40
10.0
  9
$DIMRND
 40
0.0
  9
$DIMDLE
 40
0.0
  9
$DIMEXE
 40
1.0
  9
$DIMTP
 40
0.0
  9
$DIMTM
 40
0.0
  9
$DIMTXT
 40
3.0
  9
$DIMCEN
 40
0.0
  9
$DIMTSZ
 40
0.0
  9
$DIMTOL
 70
     0
  9
$DIMLIM
 70
     0
  9
$DIMTIH
 70
     0
  9
$DIMTOH
 70
     0
  9
$DIMSE1
 70
     0
  9
$DIMSE2
 70
     0
  9
$DIMTAD
 70
     1
  9
$DIMZIN
 70
     8
  9
$DIMBLK
  1

  9
$DIMASO
 70
     1
  9
$DIMSHO
 70
     1
  9
$DIMPOST
  1

  9
$DIMAPOST
  1

  9
$DIMALT
 70
     0
  9
$DIMALTD
 70
     2
  9
$DIMALTF
 40
25.4
  9
$DIMLFAC
 40
1.0
  9
$DIMTOFL
 70
     0
  9
$DIMTVP
 40
0.0
  9
$DIMTIX
 70
     0
  9
$DIMSOXD
 70
     0
  9
$DIMSAH
 70
     0
  9
$DIMBLK1
  1

  9
$DIMBLK2
  1

  9
$DIMSTYLE
  2
Standard
  9
$DIMCLRD
 70
     0
  9
$DIMCLRE
 70
     0
  9
$DIMCLRT
 70
     0
  9
$DIMTFAC
 40
0.65
  9
$DIMGAP
 40
0.09
  9
$DIMJUST
 70
     0
  9
$DIMSD1
 70
     0
  9
$DIMSD2
 70
     0
  9
$DIMTOLJ
 70
     0
  9
$DIMTZIN
 70
     0
  9
$DIMALTZ
 70
     0
  9
$DIMALTTZ
 70
     0
  9
$DIMUPT
 70
     0
  9
$DIMDEC
 70
     2
  9
$DIMTDEC
 70
     2
  9
$DIMALTU
 70
     2
  9
$DIMALTTD
 70
     2
  9
$DIMTXSTY
  7
Standard
  9
$DIMAUNIT
 70
     0
  9
$DIMADEC
 70
     2
  9
$DIMALTRND
 40
0.0
  9
$DIMAZIN
 70
     2
  9
$DIMDSEP
 70
    46
  9
$DIMATFIT
 70
     3
  9
$DIMFRAC
 70
     0
  9
$DIMLDRBLK
  1

  9
$DIMLUNIT
 70
     2
  9
$DIMLWD
 70
    -2
  9
$DIMLWE
 70
    -2
  9
$DIMTMOVE
 70
     0
  9
$LUNITS
 70
     2
  9
$LUPREC
 70
     4
  9
$SKETCHINC
 40
0.1
  9
$FILLETRAD
 40
0.5
  9
$AUNITS
 70
     0
  9
$AUPREC
 70
     0
  9
$MENU
  1
.
  9
$ELEVATION
 40
0.0
  9
$PELEVATION
 40
0.0
  9
$THICKNESS
 40
0.0
  9
$LIMCHECK
 70
     0
  9
$CHAMFERA
 40
0.5
  9
$CHAMFERB
 40
0.5
  9
$CHAMFERC
 40
1.0
  9
$CHAMFERD
 40
0.0
  9
$SKPOLY
 70
     0
  9
$TDCREATE
 40
2459607.014993322
  9
$TDUCREATE
 40
2459606.639993322
  9
$TDUPDATE
 40
2459607.014993333
  9
$TDUUPDATE
 40
2459606.639993333
  9
$TDINDWG
 40
0.0000000116
  9
$TDUSRTIMER
 40
0.0000000116
  9
$USRTIMER
 70
     1
  9
$ANGBASE
 50
0.0
  9
$ANGDIR
 70
     0
  9
$PDMODE
 70
     0
  9
$PDSIZE
 40
1.0
  9
$PLINEWID
 40
0.0
  9
$SPLFRAME
 70
     0
  9
$SPLINETYPE
 70
     6
  9
$SPLINESEGS
 70
     8
  9
$HANDSEED
  5
5A6
  9
$SURFTAB1
 70
     6
  9
$SURFTAB2
 70
     6
  9
$SURFTYPE
 70
     6
  9
$SURFU
 70
     6
  9
$SURFV
 70
     6
  9
$UCSBASE
  2

  9
$UCSNAME
  2

  9
$UCSORG
 10
0.0
 20
0.0
 30
0.0
  9
$UCSXDIR
 10
1.0
 20
0.0
 30
0.0
  9
$UCSYDIR
 10
0.0
 20
1.0
 30
0.0
  9
$UCSORTHOREF
  2

  9
$UCSORTHOVIEW
 70
     0
  9
$UCSORGTOP
 10
0.0
 20
0.0
 30
0.0
  9
$UCSORGBOTTOM
 10
0.0
 20
0.0
 30
0.0
  9
$UCSORGLEFT
 10
0.0
 20
0.0
 30
0.0
  9
$UCSORGRIGHT
 10
0.0
 20
0.0
 30
0.0
  9
$UCSORGFRONT
 10
0.0
 20
0.0
 30
0.0
  9
$UCSORGBACK
 10
0.0
 20
0.0
 30
0.0
  9
$PUCSBASE
  2

  9
$PUCSNAME
  2

  9
$PUCSORG
 10
0.0
 20
0.0
 30
0.0
  9
$PUCSXDIR
 10
1.0
 20
0.0
 30
0.0
  9
$PUCSYDIR
 10
0.0
 20
1.0
 30
0.0
  9
$PUCSORTHOREF
  2

  9
$PUCSORTHOVIEW
 70
     0
  9
$PUCSORGTOP
 10
0.0
 20
0.0
 30
0.0
  9
$PUCSORGBOTTOM
 10
0.0
 20
0.0
 30
0.0
  9
$PUCSORGLEFT
 10
0.0
 20
0.0
 30
0.0
  9
$PUCSORGRIGHT
 10
0.0
 20
0.0
 30
0.0
  9
$PUCSORGFRONT
 10
0.0
 20
0.0
 30
0.0
  9
$PUCSORGBACK
 10
0.0
 20
0.0
 30
0.0
  9
$USERI1
 70
     0
  9
$USERI2
 70
     0
  9
$USERI3
 70
     0
  9
$USERI4
 70
     0
  9
$USERI5
 70
     0
  9
$USERR1
 40
0.0
  9
$USERR2
 40
0.0
  9
$USERR3
 40
0.0
  9
$USERR4
 40
0.0
  9
$USERR5
 40
0.0
  9
$WORLDVIEW
 70
     1
  9
$SHADEDGE
 70
     3
  9
$SHADEDIF
 70
    70
  9
$TILEMODE
 70
     1
  9
$MAXACTVP
 70
    64
  9
$PINSBASE
 10
0.0
 20
0.0
 30
0.0
  9
$PLIMCHECK
 70
     0
  9
$PEXTMIN
 10
1.000000000000000E+20
 20
1.000000000000000E+20
 30
1.000000000000000E+20
  9
$PEXTMAX
 10
-1.000000000000000E+20
 20
-1.000000000000000E+20
 30
-1.000000000000000E+20
  9
$PLIMMIN
 10
0.0
 20
0.0
  9
$PLIMMAX
 10
12.0
 20
9.0
  9
$UNITMODE
 70
     0
  9
$VISRETAIN
 70
     0
  9
$PLINEGEN
 70
     1
  9
$PSLTSCALE
 70
     0
  9
$TREEDEPTH
 70
  3020
  9
$CMLSTYLE
  2
Standard
  9
$CMLJUST
 70
     0
  9
$CMLSCALE
 40
1.0
  9
$PROXYGRAPHICS
 70
     0
  9
$MEASUREMENT
 70
     1
  9
$CELWEIGHT
370
    -1
  9
$ENDCAPS
280
     0
  9
$JOINSTYLE
280
     0
  9
$LWDISPLAY
290
     1
  9
$INSUNITS
 70
     4
  9
$HYPERLINKBASE
  1

  9
$STYLESHEET
  1

  9
$XEDIT
290
     1
  9
$CEPSNTYPE
380
     0
  9
$PSTYLEMODE
290
     1
  9
$FINGERPRINTGUID
  2
{FA5A9D07-C401-4F9B-A4CC-AB740F6A2C2F}
  9
$VERSIONGUID
  2
{FAEB1C32-E019-11D5-929B-00C0DF256EC4}
  9
$EXTNAMES
290
     1
  9
$PSVPSCALE
 40
0.0
  9
$OLESTARTUP
290
     0
  0
ENDSEC
  0
SECTION
  2
CLASSES
  0
CLASS
  1
ACDBDICTIONARYWDFLT
  2
AcDbDictionaryWithDefault
  3
ObjectDBX Classes
 90
        0
280
     0
281
     0
  0
CLASS
  1
VISUALSTYLE
  2
AcDbVisualStyle
  3
ObjectDBX Classes
 90
     4095
280
     0
281
     0
  0
CLASS
  1
MATERIAL
  2
AcDbMaterial
  3
ObjectDBX Classes
 90
     1153
280
     0
281
     0
  0
CLASS
  1
SCALE
  2
AcDbScale
  3
ObjectDBX Classes
 90
     1153
280
     0
281
     0
  0
CLASS
  1
DICTIONARYVAR
  2
AcDbDictionaryVar
  3
ObjectDBX Classes
 90
        0
280
     0
281
     0
  0
CLASS
  1
ACDBPLACEHOLDER
  2
AcDbPlaceHolder
  3
ObjectDBX Classes
 90
        0
280
     0
281
     0
  0
CLASS
  1
LAYOUT
  2
AcDbLayout
  3
ObjectDBX Classes
 90
        0
280
     0
281
     0
  0
ENDSEC
  0
SECTION
  2
TABLES
  0
TABLE
  2
VPORT
  5
8
330
0
100
AcDbSymbolTable
 70
     1
  0
VPORT
  5
29
330
8
100
AcDbSymbolTableRecord
100
AcDbViewportTableRecord
  2
*Active
 70
     0
 10
0.0
 20
0.0
 11
1.0
 21
1.0
 12
-4.79999735951424
 22
-11.29999825358391
 13
0.0
 23
0.0
 14
0.5
 24
0.5
 15
0.5
 25
0.5
 16
0.0
 26
0.0
 36
1.0
 17
0.0
 27
0.0
 37
0.0
 40
239.0880035626888
 41
1.511945392491467
 42
50.0
 43
0.0
 44
0.0
 50
0.0
 51
0.0
 71
     0
 72
  1000
 73
     1
 74
     1
 75
     0
 76
     0
 77
     0
 78
     0
281
     0
 65
     1
110
0.0
120
0.0
130
0.0
111
1.0
121
0.0
131
0.0
112
0.0
122
1.0
132
0.0
 79
     0
146
0.0
  0
ENDTAB
  0
TABLE
  2
LTYPE
  5
5
330
0
100
AcDbSymbolTable
 70
    53
  0
LTYPE
  5
14
330
5
100
AcDbSymbolTableRecord
100
AcDbLinetypeTableRecord
  2
ByBlock
 70
     0
  3

 72
    65
 73
     0
 40
0.0
  0
LTYPE
  5
15
330
5
100
AcDbSymbolTableRecord
100
AcDbLinetypeTableRecord
  2
ByLayer
 70
     0
  3

 72
    65
 73
     0
 40
0.0
  0
LTYPE
  5
16
330
5
100
AcDbSymbolTableRecord
100
AcDbLinetypeTableRecord
  2
Continuous
 70
     0
  3
Solid line
 72
    65
 73
     0
 40
0.0
  0
LTYPE
  5
40
330
5
100
AcDbSymbolTableRecord
100
AcDbLinetypeTableRecord
  2
HIDDENX2
 70
     0
  3
Hidden (2x) ____ ____ ____ ____ ____ ____ ____ 
 72
    65
 73
     2
 40
19.05
 49
12.7
 74
     0
 49
-6.35
 74
     0
  0
LTYPE
  5
41
330
5
100
AcDbSymbolTableRecord
100
AcDbLinetypeTableRecord
  2
HIDDEN
 70
     0
  3
Hidden __ __ __ __ __ __ __ __ __ __ __ __ __ __
 72
    65
 73
     2
 40
9.524999999999999
 49
6.35
 74
     0
 49
-3.175
 74
     0
  0
LTYPE
  5
42
330
5
100
AcDbSymbolTableRecord
100
AcDbLinetypeTableRecord
  2
HIDDEN2
 70
     0
  3
Hidden (.5x) _ _ _ _ _ _ _ _ _ _ _ _ _ _ _ _ _ 
 72
    65
 73
     2
 40
4.762499999999999
 49
3.175
 74
     0
 49
-1.5875
 74
     0
  0
LTYPE
  5
43
330
5
100
AcDbSymbolTableRecord
100
AcDbLinetypeTableRecord
  2
DASHED
 70
     0
  3
Dashed __ __ __ __ __ __ __ __ __ __ __ __ __ _
 72
    65
 73
     2
 40
19.05
 49
12.7
 74
     0
 49
-6.35
 74
     0
  0
LTYPE
  5
44
330
5
100
AcDbSymbolTableRecord
100
AcDbLinetypeTableRecord
  2
DASHED2
 70
     0
  3
Dashed (.5x) _ _ _ _ _ _ _ _ _ _ _ _ _ _ _ _ _ 
 72
    65
 73
     2
 40
9.524999999999999
 49
6.35
 74
     0
 49
-3.175
 74
     0
  0
LTYPE
  5
45
330
5
100
AcDbSymbolTableRecord
100
AcDbLinetypeTableRecord
  2
DASHEDX2
 70
     0
  3
Dashed (2x) ____  ____  ____  ____  ____  ___
 72
    65
 73
     2
 40
38.09999999999999
 49
25.4
 74
     0
 49
-12.7
 74
     0
  0
LTYPE
  5
46
330
5
100
AcDbSymbolTableRecord
100
AcDbLinetypeTableRecord
  2
DOTX2
 70
     0
  3
Dot (2x) .  .  .  .  .  .  .  .  .  .  .  .  .  .
 72
    65
 73
     2
 40
12.7
 49
0.0
 74
     0
 49
-12.7
 74
     0
  0
LTYPE
  5
47
330
5
100
AcDbSymbolTableRecord
100
AcDbLinetypeTableRecord
  2
DOT
 70
     0
  3
Dot . . . . . . . . . . . . . . . . . . . . . . . .
 72
    65
 73
     2
 40
6.35
 49
0.0
 74
     0
 49
-6.35
 74
     0
  0
LTYPE
  5
48
330
5
100
AcDbSymbolTableRecord
100
AcDbLinetypeTableRecord
  2
DOT2
 70
     0
  3
Dot (.5x) ........................................
 72
    65
 73
     2
 40
3.175
 49
0.0
 74
     0
 49
-3.175
 74
     0
  0
LTYPE
  5
49
330
5
100
AcDbSymbolTableRecord
100
AcDbLinetypeTableRecord
  2
CENTERX2
 70
     0
  3
Center (2x) ________  __  ________  __  _____
 72
    65
 73
     4
 40
101.6
 49
63.5
 74
     0
 49
-12.7
 74
     0
 49
12.7
 74
     0
 49
-12.7
 74
     0
  0
LTYPE
  5
4A
330
5
100
AcDbSymbolTableRecord
100
AcDbLinetypeTableRecord
  2
CENTER
 70
     0
  3
Center ____ _ ____ _ ____ _ ____ _ ____ _ ____
 72
    65
 73
     4
 40
50.8
 49
31.75
 74
     0
 49
-6.35
 74
     0
 49
6.35
 74
     0
 49
-6.35
 74
     0
  0
LTYPE
  5
4B
330
5
100
AcDbSymbolTableRecord
100
AcDbLinetypeTableRecord
  2
CENTER2
 70
     0
  3
Center (.5x) ___ _ ___ _ ___ _ ___ _ ___ _ ___
 72
    65
 73
     4
 40
28.575
 49
19.05
 74
     0
 49
-3.175
 74
     0
 49
3.175
 74
     0
 49
-3.175
 74
     0
  0
LTYPE
  5
4C
330
5
100
AcDbSymbolTableRecord
100
AcDbLinetypeTableRecord
  2
DASHDOTX2
 70
     0
  3
Dash dot (2x) ____  .  ____  .  ____  .  ___
 72
    65
 73
     4
 40
50.8
 49
25.4
 74
     0
 49
-12.7
 74
     0
 49
0.0
 74
     0
 49
-12.7
 74
     0
  0
LTYPE
  5
4D
330
5
100
AcDbSymbolTableRecord
100
AcDbLinetypeTableRecord
  2
DASHDOT
 70
     0
  3
Dash dot __ . __ . __ . __ . __ . __ . __ . __
 72
    65
 73
     4
 40
25.4
 49
12.7
 74
     0
 49
-6.35
 74
     0
 49
0.0
 74
     0
 49
-6.35
 74
     0
  0
LTYPE
  5
4E
330
5
100
AcDbSymbolTableRecord
100
AcDbLinetypeTableRecord
  2
DASHDOT2
 70
     0
  3
Dash dot (.5x) _._._._._._._._._._._._._._._.
 72
    65
 73
     4
 40
12.7
 49
6.35
 74
     0
 49
-3.175
 74
     0
 49
0.0
 74
     0
 49
-3.175
 74
     0
  0
LTYPE
  5
4F
330
5
100
AcDbSymbolTableRecord
100
AcDbLinetypeTableRecord
  2
DIVIDEX2
 70
     0
  3
Divide (2x) ________  .  .  ________  .  .  _
 72
    65
 73
     6
 40
63.5
 49
25.4
 74
     0
 49
-12.7
 74
     0
 49
0.0
 74
     0
 49
-12.7
 74
     0
 49
0.0
 74
     0
 49
-12.7
 74
     0
  0
LTYPE
  5
50
330
5
100
AcDbSymbolTableRecord
100
AcDbLinetypeTableRecord
  2
DIVIDE
 70
     0
  3
Divide ____ . . ____ . . ____ . . ____ . . ____
 72
    65
 73
     6
 40
31.75
 49
12.7
 74
     0
 49
-6.35
 74
     0
 49
0.0
 74
     0
 49
-6.35
 74
     0
 49
0.0
 74
     0
 49
-6.35
 74
     0
  0
LTYPE
  5
51
330
5
100
AcDbSymbolTableRecord
100
AcDbLinetypeTableRecord
  2
DIVIDE2
 70
     0
  3
Divide (.5x) __..__..__..__..__..__..__..__.._
 72
    65
 73
     6
 40
15.875
 49
6.35
 74
     0
 49
-3.175
 74
     0
 49
0.0
 74
     0
 49
-3.175
 74
     0
 49
0.0
 74
     0
 49
-3.175
 74
     0
  0
LTYPE
  5
52
330
5
100
AcDbSymbolTableRecord
100
AcDbLinetypeTableRecord
  2
BORDERX2
 70
     0
  3
Border (2x) ____  ____  .  ____  ____  .  ___
 72
    65
 73
     6
 40
88.89999999999999
 49
25.4
 74
     0
 49
-12.7
 74
     0
 49
25.4
 74
     0
 49
-12.7
 74
     0
 49
0.0
 74
     0
 49
-12.7
 74
     0
  0
LTYPE
  5
53
330
5
100
AcDbSymbolTableRecord
100
AcDbLinetypeTableRecord
  2
BORDER
 70
     0
  3
Border __ __ . __ __ . __ __ . __ __ . __ __ .
 72
    65
 73
     6
 40
44.45
 49
12.7
 74
     0
 49
-6.35
 74
     0
 49
12.7
 74
     0
 49
-6.35
 74
     0
 49
0.0
 74
     0
 49
-6.35
 74
     0
  0
LTYPE
  5
54
330
5
100
AcDbSymbolTableRecord
100
AcDbLinetypeTableRecord
  2
BORDER2
 70
     0
  3
Border (.5x) __.__.__.__.__.__.__.__.__.__.__.
 72
    65
 73
     6
 40
22.225
 49
6.35
 74
     0
 49
-3.175
 74
     0
 49
6.35
 74
     0
 49
-3.175
 74
     0
 49
0.0
 74
     0
 49
-3.175
 74
     0
  0
LTYPE
  5
55
330
5
100
AcDbSymbolTableRecord
100
AcDbLinetypeTableRecord
  2
PHANTOMX2
 70
     0
  3
Phantom (2x) ____________    ____    ____   _
 72
    65
 73
     6
 40
127.0
 49
63.5
 74
     0
 49
-12.7
 74
     0
 49
12.7
 74
     0
 49
-12.7
 74
     0
 49
12.7
 74
     0
 49
-12.7
 74
     0
  0
LTYPE
  5
56
330
5
100
AcDbSymbolTableRecord
100
AcDbLinetypeTableRecord
  2
PHANTOM
 70
     0
  3
Phantom ______  __  __  ______  __  __  ______ 
 72
    65
 73
     6
 40
63.5
 49
31.75
 74
     0
 49
-6.35
 74
     0
 49
6.35
 74
     0
 49
-6.35
 74
     0
 49
6.35
 74
     0
 49
-6.35
 74
     0
  0
LTYPE
  5
57
330
5
100
AcDbSymbolTableRecord
100
AcDbLinetypeTableRecord
  2
PHANTOM2
 70
     0
  3
Phantom (.5x) ___ _ _ ___ _ _ ___ _ _ ___ _ _
 72
    65
 73
     6
 40
31.75
 49
15.875
 74
     0
 49
-3.175
 74
     0
 49
3.175
 74
     0
 49
-3.175
 74
     0
 49
3.175
 74
     0
 49
-3.175
 74
     0
  0
LTYPE
  5
58
330
5
100
AcDbSymbolTableRecord
100
AcDbLinetypeTableRecord
  2
ACAD_ISO06W100
 70
     0
  3
ISO long-dash triple-dot ____ ... ____ ... ____
 72
    65
 73
     8
 40
36.0
 49
24.0
 74
     0
 49
-3.0
 74
     0
 49
0.0
 74
     0
 49
-3.0
 74
     0
 49
0.0
 74
     0
 49
-3.0
 74
     0
 49
0.0
 74
     0
 49
-3.0
 74
     0
  0
LTYPE
  5
59
330
5
100
AcDbSymbolTableRecord
100
AcDbLinetypeTableRecord
  2
ACAD_ISO13W100
 70
     0
  3
ISO double-dash double-dot __ __ . . __ __ . . _
 72
    65
 73
     8
 40
36.0
 49
12.0
 74
     0
 49
-3.0
 74
     0
 49
12.0
 74
     0
 49
-3.0
 74
     0
 49
0.0
 74
     0
 49
-3.0
 74
     0
 49
0.0
 74
     0
 49
-3.0
 74
     0
  0
LTYPE
  5
5A
330
5
100
AcDbSymbolTableRecord
100
AcDbLinetypeTableRecord
  2
ACAD_ISO14W100
 70
     0
  3
ISO dash triple-dot __ . . . __ . . . __ . . . _
 72
    65
 73
     8
 40
24.0
 49
12.0
 74
     0
 49
-3.0
 74
     0
 49
0.0
 74
     0
 49
-3.0
 74
     0
 49
0.0
 74
     0
 49
-3.0
 74
     0
 49
0.0
 74
     0
 49
-3.0
 74
     0
  0
LTYPE
  5
5B
330
5
100
AcDbSymbolTableRecord
100
AcDbLinetypeTableRecord
  2
ACAD_ISO02W100
 70
     0
  3
ISO dash __ __ __ __ __ __ __ __ __ __ __ __ __
 72
    65
 73
     2
 40
15.0
 49
12.0
 74
     0
 49
-3.0
 74
     0
  0
LTYPE
  5
5C
330
5
100
AcDbSymbolTableRecord
100
AcDbLinetypeTableRecord
  2
ACAD_ISO03W100
 70
     0
  3
ISO dash space __    __    __    __    __    __
 72
    65
 73
     2
 40
30.0
 49
12.0
 74
     0
 49
-18.0
 74
     0
  0
LTYPE
  5
5D
330
5
100
AcDbSymbolTableRecord
100
AcDbLinetypeTableRecord
  2
ACAD_ISO04W100
 70
     0
  3
ISO long-dash dot ____ . ____ . ____ . ____ . _
 72
    65
 73
     4
 40
30.0
 49
24.0
 74
     0
 49
-3.0
 74
     0
 49
0.0
 74
     0
 49
-3.0
 74
     0
  0
LTYPE
  5
5E
330
5
100
AcDbSymbolTableRecord
100
AcDbLinetypeTableRecord
  2
ACAD_ISO05W100
 70
     0
  3
ISO long-dash double-dot ____ .. ____ .. ____ . 
 72
    65
 73
     6
 40
33.0
 49
24.0
 74
     0
 49
-3.0
 74
     0
 49
0.0
 74
     0
 49
-3.0
 74
     0
 49
0.0
 74
     0
 49
-3.0
 74
     0
  0
LTYPE
  5
5F
330
5
100
AcDbSymbolTableRecord
100
AcDbLinetypeTableRecord
  2
ACAD_ISO07W100
 70
     0
  3
ISO dot . . . . . . . . . . . . . . . . . . . . 
 72
    65
 73
     2
 40
3.0
 49
0.0
 74
     0
 49
-3.0
 74
     0
  0
LTYPE
  5
60
330
5
100
AcDbSymbolTableRecord
100
AcDbLinetypeTableRecord
  2
ACAD_ISO08W100
 70
     0
  3
ISO long-dash short-dash ____ __ ____ __ ____ _
 72
    65
 73
     4
 40
36.0
 49
24.0
 74
     0
 49
-3.0
 74
     0
 49
6.0
 74
     0
 49
-3.0
 74
     0
  0
LTYPE
  5
61
330
5
100
AcDbSymbolTableRecord
100
AcDbLinetypeTableRecord
  2
ACAD_ISO09W100
 70
     0
  3
ISO long-dash double-short-dash ____ __ __ ____
 72
    65
 73
     6
 40
45.0
 49
24.0
 74
     0
 49
-3.0
 74
     0
 49
6.0
 74
     0
 49
-3.0
 74
     0
 49
6.0
 74
     0
 49
-3.0
 74
     0
  0
LTYPE
  5
62
330
5
100
AcDbSymbolTableRecord
100
AcDbLinetypeTableRecord
  2
ACAD_ISO10W100
 70
     0
  3
ISO dash dot __ . __ . __ . __ . __ . __ . __ . 
 72
    65
 73
     4
 40
18.0
 49
12.0
 74
     0
 49
-3.0
 74
     0
 49
0.0
 74
     0
 49
-3.0
 74
     0
  0
LTYPE
  5
63
330
5
100
AcDbSymbolTableRecord
100
AcDbLinetypeTableRecord
  2
ACAD_ISO11W100
 70
     0
  3
ISO double-dash dot __ __ . __ __ . __ __ . __ _
 72
    65
 73
     6
 40
33.0
 49
12.0
 74
     0
 49
-3.0
 74
     0
 49
12.0
 74
     0
 49
-3.0
 74
     0
 49
0.0
 74
     0
 49
-3.0
 74
     0
  0
LTYPE
  5
64
330
5
100
AcDbSymbolTableRecord
100
AcDbLinetypeTableRecord
  2
ACAD_ISO12W100
 70
     0
  3
ISO dash double-dot __ . . __ . . __ . . __ . . 
 72
    65
 73
     6
 40
21.0
 49
12.0
 74
     0
 49
-3.0
 74
     0
 49
0.0
 74
     0
 49
-3.0
 74
     0
 49
0.0
 74
     0
 49
-3.0
 74
     0
  0
LTYPE
  5
65
330
5
100
AcDbSymbolTableRecord
100
AcDbLinetypeTableRecord
  2
ACAD_ISO15W100
 70
     0
  3
ISO double-dash triple-dot __ __ . . . __ __ . .
 72
    65
 73
    10
 40
39.0
 49
12.0
 74
     0
 49
-3.0
 74
     0
 49
12.0
 74
     0
 49
-3.0
 74
     0
 49
0.0
 74
     0
 49
-3.0
 74
     0
 49
0.0
 74
     0
 49
-3.0
 74
     0
 49
0.0
 74
     0
 49
-3.0
 74
     0
  0
LTYPE
  5
66
330
5
100
AcDbSymbolTableRecord
100
AcDbLinetypeTableRecord
  2
JIS_02_0.7
 70
     0
  3
HIDDEN0.75 _ _ _ _ _ _ _ _ _ _ _ _ _ _ _ _ _ 
 72
    65
 73
     2
 40
1.35
 49
0.75
 74
     0
 49
-0.6
 74
     0
  0
LTYPE
  5
67
330
5
100
AcDbSymbolTableRecord
100
AcDbLinetypeTableRecord
  2
JIS_02_1.0
 70
     0
  3
HIDDEN01 _ _ _ _ _ _ _ _ _ _ _ _ _ _ _ _ _ 
 72
    65
 73
     2
 40
2.0
 49
1.0
 74
     0
 49
-1.0
 74
     0
  0
LTYPE
  5
68
330
5
100
AcDbSymbolTableRecord
100
AcDbLinetypeTableRecord
  2
JIS_02_1.2
 70
     0
  3
HIDDEN01.25  _ _ _ _ _ _ _ _ _ _ _ _ _ _ _ _ _ 
 72
    65
 73
     2
 40
2.5
 49
1.25
 74
     0
 49
-1.25
 74
     0
  0
LTYPE
  5
69
330
5
100
AcDbSymbolTableRecord
100
AcDbLinetypeTableRecord
  2
JIS_02_2.0
 70
     0
  3
HIDDEN02 __ __ __ __ __ __ __ __ __ __ __ 
 72
    65
 73
     2
 40
3.0
 49
2.0
 74
     0
 49
-1.0
 74
     0
  0
LTYPE
  5
6A
330
5
100
AcDbSymbolTableRecord
100
AcDbLinetypeTableRecord
  2
JIS_02_4.0
 70
     0
  3
HIDDEN04 ____ ____ ____ ____ ____ ____ ____ 
 72
    65
 73
     2
 40
5.5
 49
4.0
 74
     0
 49
-1.5
 74
     0
  0
LTYPE
  5
6B
330
5
100
AcDbSymbolTableRecord
100
AcDbLinetypeTableRecord
  2
JIS_08_11
 70
     0
  3
1SASEN11 ___ _ ___ _ ___ _ ___ _ ___ _ ___
 72
    65
 73
     4
 40
12.8
 49
11.0
 74
     0
 49
-0.6
 74
     0
 49
0.6
 74
     0
 49
-0.6
 74
     0
  0
LTYPE
  5
6C
330
5
100
AcDbSymbolTableRecord
100
AcDbLinetypeTableRecord
  2
JIS_08_15
 70
     0
  3
1SASEN15 ____ _ ____ _ ____ _ ____ _ ____ 
 72
    65
 73
     4
 40
17.25
 49
15.0
 74
     0
 49
-0.75
 74
     0
 49
0.75
 74
     0
 49
-0.75
 74
     0
  0
LTYPE
  5
6D
330
5
100
AcDbSymbolTableRecord
100
AcDbLinetypeTableRecord
  2
JIS_08_25
 70
     0
  3
1SASEN25 ________  __  ________  __  _____
 72
    65
 73
     4
 40
28.0
 49
25.0
 74
     0
 49
-1.125
 74
     0
 49
0.75
 74
     0
 49
-1.125
 74
     0
  0
LTYPE
  5
6E
330
5
100
AcDbSymbolTableRecord
100
AcDbLinetypeTableRecord
  2
JIS_08_37
 70
     0
  3
1SASEN37 ________  __  ________  __  _____
 72
    65
 73
     4
 40
40.5
 49
37.5
 74
     0
 49
-1.125
 74
     0
 49
0.75
 74
     0
 49
-1.125
 74
     0
  0
LTYPE
  5
6F
330
5
100
AcDbSymbolTableRecord
100
AcDbLinetypeTableRecord
  2
JIS_08_50
 70
     0
  3
1SASEN50 _______________  __  ____________
 72
    65
 73
     4
 40
53.0
 49
50.0
 74
     0
 49
-1.125
 74
     0
 49
0.75
 74
     0
 49
-1.125
 74
     0
  0
LTYPE
  5
70
330
5
100
AcDbSymbolTableRecord
100
AcDbLinetypeTableRecord
  2
JIS_09_08
 70
     0
  3
2SASEN8 __ _ _ __ _ _ __ _ _ __ _ _ __ _ _ 
 72
    65
 73
     6
 40
10.75
 49
8.0
 74
     0
 49
-0.55
 74
     0
 49
0.55
 74
     0
 49
-0.55
 74
     0
 49
0.55
 74
     0
 49
-0.55
 74
     0
  0
LTYPE
  5
71
330
5
100
AcDbSymbolTableRecord
100
AcDbLinetypeTableRecord
  2
JIS_09_15
 70
     0
  3
2SASEN15 ___ _ _ ___ _ _ ___ _ _ ___ _ _ ___ 
 72
    65
 73
     6
 40
18.9
 49
15.0
 74
     0
 49
-0.9
 74
     0
 49
0.6
 74
     0
 49
-0.9
 74
     0
 49
0.6
 74
     0
 49
-0.9
 74
     0
  0
LTYPE
  5
72
330
5
100
AcDbSymbolTableRecord
100
AcDbLinetypeTableRecord
  2
JIS_09_29
 70
     0
  3
2SASEN29 ______　__  __  ______　__  __  ___
 72
    65
 73
     6
 40
34.0
 49
29.0
 74
     0
 49
-1.2
 74
     0
 49
0.7
 74
     0
 49
-1.2
 74
     0
 49
0.7
 74
     0
 49
-1.2
 74
     0
  0
LTYPE
  5
73
330
5
100
AcDbSymbolTableRecord
100
AcDbLinetypeTableRecord
  2
JIS_09_50
 70
     0
  3
2SASEN50 ____________　__  __  _____________
 72
    65
 73
     6
 40
55.0
 49
50.0
 74
     0
 49
-1.2
 74
     0
 49
0.7
 74
     0
 49
-1.2
 74
     0
 49
0.7
 74
     0
 49
-1.2
 74
     0
  0
ENDTAB
  0
TABLE
  2
LAYER
  5
2
330
0
100
AcDbSymbolTable
 70
     4
  0
LAYER
  5
10
330
2
100
AcDbSymbolTableRecord
100
AcDbLayerTableRecord
  2
0
 70
     0
 62
     7
  6
Continuous
370
    -3
390
F
  0
LAYER
  5
74
330
2
100
AcDbSymbolTableRecord
100
AcDbLayerTableRecord
  2
16
 70
     0
 62
     7
  6
Continuous
370
    -3
390
F
  0
LAYER
  5
75
330
2
100
AcDbSymbolTableRecord
100
AcDbLayerTableRecord
  2
22
 70
     0
 62
     7
  6
Continuous
370
    -3
390
F
  0
LAYER
  5
76
330
2
100
AcDbSymbolTableRecord
100
AcDbLayerTableRecord
  2
32
 70
     0
 62
     7
  6
Continuous
370
    -3
390
F
  0
ENDTAB
  0
TABLE
  2
STYLE
  5
3
330
0
100
AcDbSymbolTable
 70
     2
  0
STYLE
  5
11
330
3
100
AcDbSymbolTableRecord
100
AcDbTextStyleTableRecord
  2
Standard
 70
     0
 40
0.0
 41
1.0
 50
0.0
 71
     0
 42
0.2
  3
txt.shx
  4
bigfont.shx
  0
STYLE
  5
9A
330
3
100
AcDbSymbolTableRecord
100
AcDbTextStyleTableRecord
  2
dcStyle0
 70
     0
 40
0.0
 41
0.8333333354938274
 50
0.0
 71
     0
 42
0.2
  3
txt.shx
  4
bigfont
  0
ENDTAB
  0
TABLE
  2
VIEW
  5
6
330
0
100
AcDbSymbolTable
 70
     0
  0
ENDTAB
  0
TABLE
  2
UCS
  5
7
330
0
100
AcDbSymbolTable
 70
     0
  0
ENDTAB
  0
TABLE
  2
APPID
  5
9
330
0
100
AcDbSymbolTable
 70
     2
  0
APPID
  5
12
330
9
100
AcDbSymbolTableRecord
100
AcDbRegAppTableRecord
  2
ACAD
 70
     0
  0
APPID
  5
3F
330
9
100
AcDbSymbolTableRecord
100
AcDbRegAppTableRecord
  2
DaFusionOut
 70
     0
  0
ENDTAB
  0
TABLE
  2
DIMSTYLE
  5
A
330
0
100
AcDbSymbolTable
 70
     1
100
AcDbDimStyleTable
  0
DIMSTYLE
105
27
330
A
100
AcDbSymbolTableRecord
100
AcDbDimStyleTableRecord
  2
Standard
 70
     0
178
     0
340
11
  0
ENDTAB
  0
TABLE
  2
BLOCK_RECORD
  5
1
330
0
100
AcDbSymbolTable
 70
     1
  0
BLOCK_RECORD
  5
1F
330
1
100
AcDbSymbolTableRecord
100
AcDbBlockTableRecord
  2
*Model_Space
340
22
  0
BLOCK_RECORD
  5
1B
330
1
100
AcDbSymbolTableRecord
100
AcDbBlockTableRecord
  2
*Paper_Space
340
1E
  0
BLOCK_RECORD
  5
23
330
1
100
AcDbSymbolTableRecord
100
AcDbBlockTableRecord
  2
*Paper_Space0
340
26
  0
ENDTAB
  0
ENDSEC
  0
SECTION
  2
BLOCKS
  0
BLOCK
  5
20
330
1F
100
AcDbEntity
  8
0
100
AcDbBlockBegin
  2
*Model_Space
 70
     0
 10
0.0
 20
0.0
 30
0.0
  3
*Model_Space
  1

  0
ENDBLK
  5
21
330
1F
100
AcDbEntity
  8
0
100
AcDbBlockEnd
  0
BLOCK
  5
1C
330
1B
100
AcDbEntity
 67
     1
  8
0
100
AcDbBlockBegin
  2
*Paper_Space
 70
     0
 10
0.0
 20
0.0
 30
0.0
  3
*Paper_Space
  1

  0
ENDBLK
  5
1D
330
1B
100
AcDbEntity
 67
     1
  8
0
100
AcDbBlockEnd
  0
BLOCK
  5
24
330
23
100
AcDbEntity
  8
0
100
AcDbBlockBegin
  2
*Paper_Space0
 70
     0
 10
0.0
 20
0.0
 30
0.0
  3
*Paper_Space0
  1

  0
ENDBLK
  5
25
330
23
100
AcDbEntity
  8
0
100
AcDbBlockEnd
  0
ENDSEC
  0
SECTION
  2
ENTITIES
  0
LINE
  5
78
330
1F
100
AcDbEntity
  8
0
  6
Continuous
 62
   150
370
    25
100
AcDbLine
 10
-173.5999998748302
 20
-114.0999997854233
 30
0.0
 11
-173.5999998748302
 21
105.9000034928322
 31
0.0
  0
LINE
  5
79
330
1F
100
AcDbEntity
  8
0
  6
Continuous
 62
   150
370
    25
100
AcDbLine
 10
-173.5999998748302
 20
105.9000034928322
 30
0.0
 11
172.4000052809715
 21
105.9000034928322
 31
0.0
  0
LINE
  5
7A
330
1F
100
AcDbEntity
  8
0
  6
Continuous
 62
   150
370
    25
100
AcDbLine
 10
172.4000052809715
 20
105.9000034928322
 30
0.0
 11
172.4000052809715
 21
-114.0999997854233
 31
0.0
  0
LINE
  5
7B
330
1F
100
AcDbEntity
  8
0
  6
Continuous
 62
   150
370
    25
100
AcDbLine
 10
172.4000052809715
 20
-114.0999997854233
 30
0.0
 11
-173.5999998748302
 21
-114.0999997854233
 31
0.0
  0
LINE
  5
7C
330
1F
100
AcDbEntity
  8
0
  6
Continuous
 62
   150
370
    25
100
AcDbLine
 10
172.4000052809715
 20
-84.09999933838844
 30
0.0
 11
10.40000286698341
 21
-84.09999933838844
 31
0.0
  0
LINE
  5
7D
330
1F
100
AcDbEntity
  8
0
  6
Continuous
 62
   150
370
    25
100
AcDbLine
 10
10.40000286698341
 20
-84.09999933838844
 30
0.0
 11
10.40000286698341
 21
-114.0999997854233
 31
0.0
  0
LINE
  5
7E
330
1F
100
AcDbEntity
  8
0
  6
Continuous
 62
   150
370
    25
100
AcDbLine
 10
10.40000286698341
 20
-97.09999953210354
 30
0.0
 11
96.40000414848328
 21
-97.09999953210354
 31
0.0
  0
LINE
  5
7F
330
1F
100
AcDbEntity
  8
0
  6
Continuous
 62
   150
370
    25
100
AcDbLine
 10
96.40000414848328
 20
-88.59999940544367
 30
0.0
 11
10.40000286698341
 21
-88.59999940544367
 31
0.0
  0
LINE
  5
80
330
1F
100
AcDbEntity
  8
0
  6
Continuous
 62
   150
370
    25
100
AcDbLine
 10
23.40000306069851
 20
-84.09999933838844
 30
0.0
 11
23.40000306069851
 21
-97.09999953210354
 31
0.0
  0
LINE
  5
81
330
1F
100
AcDbEntity
  8
0
  6
Continuous
 62
   150
370
    25
100
AcDbLine
 10
36.4000032544136
 20
-97.09999953210354
 30
0.0
 11
36.4000032544136
 21
-84.09999933838844
 31
0.0
  0
LINE
  5
82
330
1F
100
AcDbEntity
  8
0
  6
Continuous
 62
   150
370
    25
100
AcDbLine
 10
49.4000034481287
 20
-84.09999933838844
 30
0.0
 11
49.4000034481287
 21
-97.09999953210354
 31
0.0
  0
LINE
  5
83
330
1F
100
AcDbEntity
  8
0
  6
Continuous
 62
   150
370
    25
100
AcDbLine
 10
75.40000383555889
 20
-97.09999953210354
 30
0.0
 11
75.40000383555889
 21
-84.09999933838844
 31
0.0
  0
LINE
  5
84
330
1F
100
AcDbEntity
  8
0
  6
Continuous
 62
   150
370
    25
100
AcDbLine
 10
96.40000414848328
 20
-84.09999933838844
 30
0.0
 11
96.40000414848328
 21
-114.0999997854233
 31
0.0
  0
LINE
  5
85
330
1F
100
AcDbEntity
  8
0
  6
Continuous
 62
   150
370
    25
100
AcDbLine
 10
101.4000042229891
 20
-114.0999997854233
 30
0.0
 11
101.4000042229891
 21
-100.5999995842576
 31
0.0
  0
LINE
  5
86
330
1F
100
AcDbEntity
  8
0
  6
Continuous
 62
   150
370
    25
100
AcDbLine
 10
96.40000414848328
 20
-100.5999995842576
 30
0.0
 11
172.4000052809715
 21
-100.5999995842576
 31
0.0
  0
LINE
  5
87
330
1F
100
AcDbEntity
  8
0
  6
Continuous
 62
   150
370
    25
100
AcDbLine
 10
168.4000052213669
 20
-94.59999949485064
 30
0.0
 11
100.4000042080879
 21
-94.59999949485064
 31
0.0
  0
LINE
  5
88
330
1F
100
AcDbEntity
  8
0
  6
Continuous
 62
   150
370
    25
100
AcDbLine
 10
19.40000300109386
 20
-109.1999997124076
 30
0.0
 11
23.90000306814909
 21
-106.6999996751547
 31
0.0
  0
LINE
  5
89
330
1F
100
AcDbEntity
  8
0
  6
Continuous
 62
   150
370
    25
100
AcDbLine
 10
23.90000306814909
 20
-106.6999996751547
 30
0.0
 11
28.40000313520432
 21
-109.1999997124076
 31
0.0
  0
LINE
  5
8A
330
1F
100
AcDbEntity
  8
0
  6
Continuous
 62
   150
370
    25
100
AcDbLine
 10
28.40000313520432
 20
-109.1999997124076
 30
0.0
 11
23.90000306814909
 21
-111.6999997496605
 31
0.0
  0
LINE
  5
8B
330
1F
100
AcDbEntity
  8
0
  6
Continuous
 62
   150
370
    25
100
AcDbLine
 10
23.90000306814909
 20
-111.6999997496605
 30
0.0
 11
19.40000300109386
 21
-109.1999997124076
 31
0.0
  0
LINE
  5
8C
330
1F
100
AcDbEntity
  8
0
  6
Continuous
 62
   150
370
    25
100
AcDbLine
 10
23.40000306069851
 20
-107.6999996900558
 30
0.0
 11
24.40000307559967
 21
-107.6999996900558
 31
0.0
  0
LINE
  5
8D
330
1F
100
AcDbEntity
  8
0
  6
Continuous
 62
   150
370
    25
100
AcDbLine
 10
24.40000307559967
 20
-107.6999996900558
 30
0.0
 11
24.40000307559967
 21
-110.6999997347593
 31
0.0
  0
LINE
  5
8E
330
1F
100
AcDbEntity
  8
0
  6
Continuous
 62
   150
370
    25
100
AcDbLine
 10
24.40000307559967
 20
-110.6999997347593
 30
0.0
 11
23.40000306069851
 21
-110.6999997347593
 31
0.0
  0
LINE
  5
8F
330
1F
100
AcDbEntity
  8
0
  6
Continuous
 62
   150
370
    25
100
AcDbLine
 10
23.40000306069851
 20
-110.6999997347593
 30
0.0
 11
23.40000306069851
 21
-107.6999996900558
 31
0.0
  0
LINE
  5
90
330
1F
100
AcDbEntity
  8
0
  6
Continuous
 62
   150
370
    25
100
AcDbLine
 10
23.40000306069851
 20
-107.6999996900558
 30
0.0
 11
23.60000306367874
 21
-107.6999996900558
 31
0.0
  0
LINE
  5
91
330
1F
100
AcDbEntity
  8
0
  6
Continuous
 62
   150
370
    25
100
AcDbLine
 10
23.60000306367874
 20
-107.6999996900558
 30
0.0
 11
23.60000306367874
 21
-110.6999997347593
 31
0.0
  0
LINE
  5
92
330
1F
100
AcDbEntity
  8
0
  6
Continuous
 62
   150
370
    25
100
AcDbLine
 10
23.60000306367874
 20
-110.6999997347593
 30
0.0
 11
23.80000306665897
 21
-110.6999997347593
 31
0.0
  0
LINE
  5
93
330
1F
100
AcDbEntity
  8
0
  6
Continuous
 62
   150
370
    25
100
AcDbLine
 10
23.80000306665897
 20
-110.6999997347593
 30
0.0
 11
23.80000306665897
 21
-107.6999996900558
 31
0.0
  0
LINE
  5
94
330
1F
100
AcDbEntity
  8
0
  6
Continuous
 62
   150
370
    25
100
AcDbLine
 10
23.80000306665897
 20
-107.6999996900558
 30
0.0
 11
24.00000306963921
 21
-107.6999996900558
 31
0.0
  0
LINE
  5
95
330
1F
100
AcDbEntity
  8
0
  6
Continuous
 62
   150
370
    25
100
AcDbLine
 10
24.00000306963921
 20
-107.6999996900558
 30
0.0
 11
24.00000306963921
 21
-110.6999997347593
 31
0.0
  0
LINE
  5
96
330
1F
100
AcDbEntity
  8
0
  6
Continuous
 62
   150
370
    25
100
AcDbLine
 10
24.00000306963921
 20
-110.6999997347593
 30
0.0
 11
24.20000307261944
 21
-110.6999997347593
 31
0.0
  0
LINE
  5
97
330
1F
100
AcDbEntity
  8
0
  6
Continuous
 62
   150
370
    25
100
AcDbLine
 10
24.20000307261944
 20
-110.6999997347593
 30
0.0
 11
24.20000307261944
 21
-107.6999996900558
 31
0.0
  0
LINE
  5
98
330
1F
100
AcDbEntity
  8
0
  6
Continuous
 62
   150
370
    25
100
AcDbLine
 10
24.20000307261944
 20
-107.6999996900558
 30
0.0
 11
24.40000307559967
 21
-107.6999996900558
 31
0.0
  0
LINE
  5
99
330
1F
100
AcDbEntity
  8
0
  6
Continuous
 62
   150
370
    25
100
AcDbLine
 10
24.40000307559967
 20
-107.6999996900558
 30
0.0
 11
24.40000307559967
 21
-110.6999997347593
 31
0.0
  0
TEXT
  5
9B
330
1F
100
AcDbEntity
  8
0
 62
   150
100
AcDbText
 10
12.4000029
 20
-87.8999994
 30
0.0
 40
3.0
  1
担　当
 41
0.8333333354938274
  7
dcStyle0
 72
     5
 11
21.40000304
 21
-87.8999994
 31
0.0
100
AcDbText
  0
TEXT
  5
9C
330
1F
100
AcDbEntity
  8
0
 62
   150
100
AcDbText
 10
25.40000309
 20
-87.8999994
 30
0.0
 40
3.0
  1
製　図
 41
0.833333335493827
  7
dcStyle0
 72
     5
 11
34.40000323
 21
-87.8999994
 31
0.0
100
AcDbText
  0
TEXT
  5
9D
330
1F
100
AcDbEntity
  8
0
 62
   150
100
AcDbText
 10
38.40000328
 20
-87.8999994
 30
0.0
 40
3.0
  1
検　図
 41
0.833333335493827
  7
dcStyle0
 72
     5
 11
47.40000342
 21
-87.8999994
 31
0.0
100
AcDbText
  0
TEXT
  5
9E
330
1F
100
AcDbEntity
  8
0
 62
   150
100
AcDbText
 10
56.40000355
 20
-87.8999994
 30
0.0
 40
3.0
  1
尺　　度
 41
0.8333333354166672
  7
dcStyle0
 72
     5
 11
68.40000373000001
 21
-87.8999994
 31
0.0
100
AcDbText
  0
TEXT
  5
9F
330
1F
100
AcDbEntity
  8
0
 62
   150
100
AcDbText
 10
79.9000039
 20
-87.8999994
 30
0.0
 40
3.0
  1
作　　図
 41
0.8333333354166668
  7
dcStyle0
 72
     5
 11
91.90000408
 21
-87.8999994
 31
0.0
100
AcDbText
  0
TEXT
  5
A0
330
1F
100
AcDbEntity
  8
0
 62
   150
100
AcDbText
 10
97.40000416
 20
-87.8999994
 30
0.0
 40
3.0
  1
工事名
 41
0.833333335493827
  7
dcStyle0
 72
     5
 11
106.4000043
 21
-87.8999994
 31
0.0
100
AcDbText
  0
TEXT
  5
A1
330
1F
100
AcDbEntity
  8
0
 62
   150
100
AcDbText
 10
97.40000416
 20
-99.39999957
 30
0.0
 40
2.5
  1
図面番号
 41
0.8333333354166671
  7
dcStyle0
 72
     5
 11
107.40000431
 21
-99.39999957
 31
0.0
100
AcDbText
  0
TEXT
  5
A2
330
1F
100
AcDbEntity
  8
0
 62
   150
100
AcDbText
 10
97.40000416
 20
-104.09999964
 30
0.0
 40
2.5
  1
図
 41
0.8333333333333334
  7
dcStyle0
 72
     5
 11
99.90000416
 21
-104.09999964
 31
0.0
100
AcDbText
  0
TEXT
  5
A3
330
1F
100
AcDbEntity
  8
0
 62
   150
100
AcDbText
 10
97.40000416
 20
-107.09999968
 30
0.0
 40
2.5
  1
面
 41
0.8333333333333334
  7
dcStyle0
 72
     5
 11
99.90000416
 21
-107.09999968
 31
0.0
100
AcDbText
  0
TEXT
  5
A4
330
1F
100
AcDbEntity
  8
0
 62
   150
100
AcDbText
 10
97.40000416
 20
-110.09999973
 30
0.0
 40
2.5
  1
名
 41
0.8333333333333334
  7
dcStyle0
 72
     5
 11
99.90000416
 21
-110.09999973
 31
0.0
100
AcDbText
  0
TEXT
  5
A5
330
1F
100
AcDbEntity
  8
0
 62
   150
100
AcDbText
 10
97.40000416
 20
-113.09999977
 30
0.0
 40
2.5
  1
称
 41
0.8333333333333334
  7
dcStyle0
 72
     5
 11
99.90000416
 21
-113.09999977
 31
0.0
100
AcDbText
  0
TEXT
  5
A6
330
1F
100
AcDbEntity
  8
0
 62
   150
100
AcDbText
 10
80.60000391
 20
-94.09999949
 30
0.0
 40
2.5
  1
年
 41
0.8333333333333334
  7
dcStyle0
 72
     5
 11
83.10000391
 21
-94.09999949
 31
0.0
100
AcDbText
  0
TEXT
  5
A7
330
1F
100
AcDbEntity
  8
0
 62
   150
100
AcDbText
 10
87.10000401
 20
-94.09999949
 30
0.0
 40
2.5
  1
月
 41
0.8333333333333334
  7
dcStyle0
 72
     5
 11
89.60000401
 21
-94.09999949
 31
0.0
100
AcDbText
  0
TEXT
  5
A8
330
1F
100
AcDbEntity
  8
0
 62
   150
100
AcDbText
 10
93.60000411
 20
-94.09999949
 30
0.0
 40
2.5
  1
日
 41
0.8333333333333334
  7
dcStyle0
 72
     5
 11
96.10000411
 21
-94.09999949
 31
0.0
100
AcDbText
  0
TEXT
  5
A9
330
1F
100
AcDbEntity
  8
0
 62
   222
100
AcDbText
 10
24.90000308
 20
-103.89999963
 30
0.0
 40
4.0
  1
タイヘイグレーチング
 41
1.041666666041667
  7
dcStyle0
 72
     5
 11
74.90000380000001
 21
-103.89999963
 31
0.0
100
AcDbText
  0
TEXT
  5
AA
330
1F
100
AcDbEntity
  8
0
 62
   222
100
AcDbText
 10
30.15000316
 20
-111.39999975
 30
0.0
 40
5.0
  1
石田鉄工株式会社
 41
0.8461538481952661
  7
dcStyle0
 72
     5
 11
74.15000384999999
 21
-111.39999975
 31
0.0
100
AcDbText
  0
LINE
  5
AB
330
1F
100
AcDbEntity
  8
22
  6
Continuous
 62
     2
370
    25
100
AcDbLine
 10
-182.0
 20
-128.5
 30
0.0
 11
-178.9999999552965
 21
-128.5
 31
0.0
  0
LINE
  5
AC
330
1F
100
AcDbEntity
  8
22
  6
Continuous
 62
     2
370
    25
100
AcDbLine
 10
-178.9999999552965
 20
-128.5
 30
0.0
 11
-178.9999999552965
 21
-125.4999999552965
 31
0.0
  0
LINE
  5
AD
330
1F
100
AcDbEntity
  8
22
  6
Continuous
 62
     2
370
    25
100
AcDbLine
 10
-178.9999999552965
 20
-125.4999999552965
 30
0.0
 11
-182.0
 21
-125.4999999552965
 31
0.0
  0
LINE
  5
AE
330
1F
100
AcDbEntity
  8
22
  6
Continuous
 62
     2
370
    25
100
AcDbLine
 10
-182.0
 20
-125.4999999552965
 30
0.0
 11
-182.0
 21
-128.5
 31
0.0
  0
LINE
  5
AF
330
1F
100
AcDbEntity
  8
22
  6
Continuous
 62
     2
370
    25
100
AcDbLine
 10
-182.0
 20
-128.5
 30
0.0
 11
-178.9999999552965
 21
-128.5
 31
0.0
  0
LINE
  5
B0
330
1F
100
AcDbEntity
  8
22
  6
Continuous
 62
     2
370
    25
100
AcDbLine
 10
-178.9999999552965
 20
-128.5
 30
0.0
 11
-178.9999999552965
 21
-125.4999999552965
 31
0.0
  0
LINE
  5
B1
330
1F
100
AcDbEntity
  8
22
  6
Continuous
 62
     2
370
    25
100
AcDbLine
 10
-178.9999999552965
 20
-125.4999999552965
 30
0.0
 11
-182.0
 21
-125.4999999552965
 31
0.0
  0
LINE
  5
B2
330
1F
100
AcDbEntity
  8
22
  6
Continuous
 62
     2
370
    25
100
AcDbLine
 10
-182.0
 20
-125.4999999552965
 30
0.0
 11
-182.0
 21
-128.5
 31
0.0
  0
LINE
  5
B3
330
1F
100
AcDbEntity
  8
22
  6
Continuous
 62
     2
370
    25
100
AcDbLine
 10
-182.0
 20
-128.5
 30
0.0
 11
-178.9999999552965
 21
-128.5
 31
0.0
  0
LINE
  5
B4
330
1F
100
AcDbEntity
  8
22
  6
Continuous
 62
     2
370
    25
100
AcDbLine
 10
-178.9999999552965
 20
-128.5
 30
0.0
 11
-178.9999999552965
 21
-125.4999999552965
 31
0.0
  0
LINE
  5
B5
330
1F
100
AcDbEntity
  8
22
  6
Continuous
 62
     2
370
    25
100
AcDbLine
 10
-178.9999999552965
 20
-125.4999999552965
 30
0.0
 11
-182.0
 21
-125.4999999552965
 31
0.0
  0
LINE
  5
B6
330
1F
100
AcDbEntity
  8
22
  6
Continuous
 62
     2
370
    25
100
AcDbLine
 10
-182.0
 20
-125.4999999552965
 30
0.0
 11
-182.0
 21
-128.5
 31
0.0
  0
TEXT
  5
B7
330
1F
100
AcDbEntity
  8
22
 62
     2
100
AcDbText
 10
102.40000424
 20
-104.49999966
 30
0.0
 40
3.2
  1
TYKHC
 41
0.9375000009375004
  7
dcStyle0
 72
     5
 11
117.40000448
 21
-104.49999966
 31
0.0
100
AcDbText
  0
TEXT
  5
B8
330
1F
100
AcDbEntity
  8
22
 62
     2
100
AcDbText
 10
117.40000446
 20
-104.49999966
 30
0.0
 40
3.2
  1
 360 
 41
0.7812500027343743
  7
dcStyle0
 72
     5
 11
129.90000466
 21
-104.49999966
 31
0.0
100
AcDbText
  0
TEXT
  5
B9
330
1F
100
AcDbEntity
  8
22
 62
     2
100
AcDbText
 10
127.40000461
 20
-104.49999966
 30
0.0
 40
3.0
  1
×
 41
0.6944444444444445
  7
dcStyle0
 72
     5
 11
129.90000461
 21
-104.49999966
 31
0.0
100
AcDbText
  0
TEXT
  5
BA
330
1F
100
AcDbEntity
  8
22
 62
     2
100
AcDbText
 10
128.90000463
 20
-104.49999966
 30
0.0
 40
3.0
  1
 494 
 41
0.8333333355555547
  7
dcStyle0
 72
     5
 11
141.40000483
 21
-104.49999966
 31
0.0
100
AcDbText
  0
TEXT
  5
BB
330
1F
100
AcDbEntity
  8
22
 62
     2
100
AcDbText
 10
138.90000478
 20
-104.49999966
 30
0.0
 40
3.0
  1
×
 41
0.6944444444444445
  7
dcStyle0
 72
     5
 11
141.40000478
 21
-104.49999966
 31
0.0
100
AcDbText
  0
TEXT
  5
BC
330
1F
100
AcDbEntity
  8
22
 62
     2
100
AcDbText
 10
140.4000048
 20
-104.49999966
 30
0.0
 40
3.0
  1
 32 
 41
0.8333333354166671
  7
dcStyle0
 72
     5
 11
150.40000495
 21
-104.49999966
 31
0.0
100
AcDbText
  0
TEXT
  5
BD
330
1F
100
AcDbEntity
  8
22
 62
     2
100
AcDbText
 10
147.90000492
 20
-104.49999966
 30
0.0
 40
3.0
  1
/
 41
0.8333333333333334
  7
dcStyle0
 72
     5
 11
150.40000492
 21
-104.49999966
 31
0.0
100
AcDbText
  0
TEXT
  5
BE
330
1F
100
AcDbEntity
  8
22
 62
     2
100
AcDbText
 10
147.90000492
 20
-104.49999966
 30
0.0
 40
3.0
  1
 90 
 41
0.8333333354166671
  7
dcStyle0
 72
     5
 11
157.90000507
 21
-104.49999966
 31
0.0
100
AcDbText
  0
TEXT
  5
BF
330
1F
100
AcDbEntity
  8
22
 62
     2
100
AcDbText
 10
25.65000309
 20
-94.59999949000002
 30
0.0
 40
3.0
  1
岡本　
 41
0.8536585384889945
  7
dcStyle0
 72
     5
 11
36.15000325
 21
-94.59999949000002
 31
0.0
100
AcDbText
  0
TEXT
  5
C0
330
1F
100
AcDbEntity
  8
22
 62
     2
100
AcDbText
 10
56.70000356000001
 20
-94.09999949000002
 30
0.0
 40
3.0
  1
1/
 41
1.000000000000001
  7
dcStyle0
 72
     5
 11
62.70000365000001
 21
-94.09999949000002
 31
0.0
100
AcDbText
  0
TEXT
  5
C1
330
1F
100
AcDbEntity
  8
22
 62
     2
100
AcDbText
 10
59.7000036
 20
-94.09999949000002
 30
0.0
 40
3.0
  1
 5 
 41
0.9999999999999998
  7
dcStyle0
 72
     5
 11
68.70000374
 21
-94.09999949000002
 31
0.0
100
AcDbText
  0
TEXT
  5
C2
330
1F
100
AcDbEntity
  8
22
 62
     2
100
AcDbText
 10
112.00000438
 20
-99.59999958000003
 30
0.0
 40
3.0
  1
TYKHC32-250A T-20
 41
0.8333333354248367
  7
dcStyle0
 72
     5
 11
154.50000502
 21
-99.59999958000003
 31
0.0
100
AcDbText
  0
TEXT
  5
C3
330
1F
100
AcDbEntity
  8
22
 62
     2
100
AcDbText
 10
73.95000381
 20
-70.2999992
 30
0.0
 40
3.5
  1
＜表面処理＞
 41
0.7446808537799908
  7
dcStyle0
 72
     5
 11
94.95000411
 21
-70.2999992
 31
0.0
100
AcDbText
  0
TEXT
  5
C4
330
1F
100
AcDbEntity
  8
22
 62
     2
100
AcDbText
 10
78.95000389
 20
-75.29999928000001
 30
0.0
 40
3.5
  1
本体：溶融亜鉛メッキ
 41
0.7446808537256675
  7
dcStyle0
 72
     5
 11
113.95000438
 21
-75.29999928000001
 31
0.0
100
AcDbText
  0
TEXT
  5
C5
330
1F
100
AcDbEntity
  8
22
 62
     2
100
AcDbText
 10
115.20000467
 20
-75.29999928000001
 30
0.0
 40
3.5
  1
（セラミック充填）
 41
0.7446808539610686
  7
dcStyle0
 72
     5
 11
146.70000515
 21
-75.29999928000001
 31
0.0
100
AcDbText
  0
TEXT
  5
C6
330
1F
100
AcDbEntity
  8
22
 62
     2
100
AcDbText
 10
93.2000041
 20
93.70000325000001
 30
0.0
 40
4.0
  1
◇　荷　重　計　算　◇
 41
0.833333335542929
  7
dcStyle0
 72
     5
 11
137.2000048
 21
93.70000325000001
 31
0.0
100
AcDbText
  0
TEXT
  5
C7
330
1F
100
AcDbEntity
  8
22
 62
     2
100
AcDbText
 10
63.85000366000001
 20
83.70000311000001
 30
0.0
 40
3.3
  1
設計条件
 41
0.8583691004600374
  7
dcStyle0
 72
     5
 11
79.85000389
 21
83.70000311000001
 31
0.0
100
AcDbText
  0
TEXT
  5
C8
330
1F
100
AcDbEntity
  8
22
 62
     2
100
AcDbText
 10
69.10000373999999
 20
77.70000302000001
 30
0.0
 40
3.3
  1
荷　　重：　
 41
0.8413461557530508
  7
dcStyle0
 72
     5
 11
90.10000403999999
 21
77.70000302000001
 31
0.0
100
AcDbText
  0
TEXT
  5
C9
330
1F
100
AcDbEntity
  8
22
 62
     2
100
AcDbText
 10
90.10000405
 20
77.70000302
 30
0.0
 40
3.0
  1
T-
  7
dcStyle0
 72
     5
 11
96.10000414
 21
77.70000302
 31
0.0
100
AcDbText
  0
TEXT
  5
CA
330
1F
100
AcDbEntity
  8
22
 62
     2
100
AcDbText
 10
94.10000411
 20
77.70000302
 30
0.0
 40
3.0
  1
 20 
 41
0.8333333354166671
  7
dcStyle0
 72
     5
 11
104.10000426
 21
77.70000302
 31
0.0
100
AcDbText
  0
TEXT
  5
CB
330
1F
100
AcDbEntity
  8
22
 62
     2
100
AcDbText
 10
104.00000426
 20
77.70000302000001
 30
0.0
 40
3.3
  1
（後輪一輪荷重：
 41
0.8413461558960686
  7
dcStyle0
 72
     5
 11
132.00000469
 21
77.70000302000001
 31
0.0
100
AcDbText
  0
TEXT
  5
CC
330
1F
100
AcDbEntity
  8
22
 62
     2
100
AcDbText
 10
132.00000468
 20
77.70000302
 30
0.0
 40
3.0
  1
8000
 41
0.8333333354166671
  7
dcStyle0
 72
     5
 11
142.00000483
 21
77.70000302
 31
0.0
100
AcDbText
  0
TEXT
  5
CD
330
1F
100
AcDbEntity
  8
22
 62
     2
100
AcDbText
 10
142.00000483
 20
77.70000302
 30
0.0
 40
3.0
  1
Kg
 41
0.5000000033333338
  7
dcStyle0
 72
     5
 11
145.00000487
 21
77.70000302
 31
0.0
100
AcDbText
  0
TEXT
  5
CE
330
1F
100
AcDbEntity
  8
22
 62
     2
100
AcDbText
 10
145.00000487
 20
77.70000302000001
 30
0.0
 40
3.3
  1
）
 41
0.8333333333333363
  7
dcStyle0
 72
     5
 11
148.30000487
 21
77.70000302000001
 31
0.0
100
AcDbText
  0
TEXT
  5
CF
330
1F
100
AcDbEntity
  8
22
 62
     2
100
AcDbText
 10
69.10000373999999
 20
72.70000294
 30
0.0
 40
3.3
  1
載荷寸法：　
 41
0.8413461557530508
  7
dcStyle0
 72
     5
 11
90.10000403999999
 21
72.70000294
 31
0.0
100
AcDbText
  0
TEXT
  5
D0
330
1F
100
AcDbEntity
  8
22
 62
     2
100
AcDbText
 10
90.10000405
 20
72.70000293999999
 30
0.0
 40
3.0
  1
200
 41
0.8333333355555551
  7
dcStyle0
 72
     5
 11
97.60000416999999
 21
72.70000293999999
 31
0.0
100
AcDbText
  0
TEXT
  5
D1
330
1F
100
AcDbEntity
  8
22
 62
     2
100
AcDbText
 10
97.60000417000002
 20
72.70000293999999
 30
0.0
 40
3.0
  1
mm
 41
0.6666666700000008
  7
dcStyle0
 72
     5
 11
101.60000423
 21
72.70000293999999
 31
0.0
100
AcDbText
  0
TEXT
  5
D2
330
1F
100
AcDbEntity
  8
22
 62
     2
100
AcDbText
 10
101.50000422
 20
72.70000294
 30
0.0
 40
3.3
  1
×
 41
0.8333333333333326
  7
dcStyle0
 72
     5
 11
104.80000422
 21
72.70000294
 31
0.0
100
AcDbText
  0
TEXT
  5
D3
330
1F
100
AcDbEntity
  8
22
 62
     2
100
AcDbText
 10
105.00000428
 20
72.70000293999999
 30
0.0
 40
3.0
  1
500
 41
0.8333333355555551
  7
dcStyle0
 72
     5
 11
112.5000044
 21
72.70000293999999
 31
0.0
100
AcDbText
  0
TEXT
  5
D4
330
1F
100
AcDbEntity
  8
22
 62
     2
100
AcDbText
 10
112.50000439
 20
72.70000293999999
 30
0.0
 40
3.0
  1
mm
 41
0.6666666700000008
  7
dcStyle0
 72
     5
 11
116.50000445
 21
72.70000293999999
 31
0.0
100
AcDbText
  0
TEXT
  5
D5
330
1F
100
AcDbEntity
  8
22
 62
     2
100
AcDbText
 10
116.40000445
 20
72.70000294
 30
0.0
 40
3.3
  1
　（等分布負載）
 41
0.8413461558960683
  7
dcStyle0
 72
     5
 11
144.40000488
 21
72.70000294
 31
0.0
100
AcDbText
  0
TEXT
  5
D6
330
1F
100
AcDbEntity
  8
22
 62
     2
100
AcDbText
 10
69.10000373999999
 20
67.70000287
 30
0.0
 40
3.3
  1
許容応力：　
 41
0.8413461557530508
  7
dcStyle0
 72
     5
 11
90.10000403999999
 21
67.70000287
 31
0.0
100
AcDbText
  0
TEXT
  5
D7
330
1F
100
AcDbEntity
  8
22
 62
     2
100
AcDbText
 10
90.10000405
 20
67.70000287
 30
0.0
 40
3.3
  1
σｂ＝
 41
0.6313131350372407
  7
dcStyle0
 72
     5
 11
97.60000416999999
 21
67.70000287
 31
0.0
100
AcDbText
  0
TEXT
  5
D8
330
1F
100
AcDbEntity
  8
22
 62
     2
100
AcDbText
 10
97.60000417000002
 20
67.70000286999999
 30
0.0
 40
3.0
  1
 
 41
0.8333333333333334
  7
dcStyle0
 72
     5
 11
100.10000417
 21
67.70000286999999
 31
0.0
100
AcDbText
  0
TEXT
  5
D9
330
1F
100
AcDbEntity
  8
22
 62
     2
100
AcDbText
 10
98.10000417000002
 20
67.70000286999999
 30
0.0
 40
3.0
  1
 18.0
 41
0.8333333355555557
  7
dcStyle0
 72
     5
 11
110.60000437
 21
67.70000286999999
 31
0.0
100
AcDbText
  0
TEXT
  5
DA
330
1F
100
AcDbEntity
  8
22
 62
     2
100
AcDbText
 10
110.70000436
 20
67.70000286999999
 30
0.0
 40
3.0
  1
Kg
 41
0.6666666700000008
  7
dcStyle0
 72
     5
 11
114.70000442
 21
67.70000286999999
 31
0.0
100
AcDbText
  0
TEXT
  5
DB
330
1F
100
AcDbEntity
  8
22
 62
     2
100
AcDbText
 10
114.45000442
 20
67.70000286999999
 30
0.0
 40
3.0
  1
／
 41
0.8333333333333334
  7
dcStyle0
 72
     5
 11
117.45000442
 21
67.70000286999999
 31
0.0
100
AcDbText
  0
TEXT
  5
DC
330
1F
100
AcDbEntity
  8
22
 62
     2
100
AcDbText
 10
117.95000447
 20
67.70000286999999
 30
0.0
 40
3.0
  1
mm
 41
0.6666666700000008
  7
dcStyle0
 72
     5
 11
121.95000453
 21
67.70000286999999
 31
0.0
100
AcDbText
  0
TEXT
  5
DD
330
1F
100
AcDbEntity
  8
22
 62
     2
100
AcDbText
 10
121.95000453
 20
69.70000289999999
 30
0.0
 40
1.8
  1
2
 41
0.8333333333333333
  7
dcStyle0
 72
     5
 11
123.45000453
 21
69.70000289999999
 31
0.0
100
AcDbText
  0
TEXT
  5
DE
330
1F
100
AcDbEntity
  8
22
 62
     2
100
AcDbText
 10
124.45000457
 20
67.70000287
 30
0.0
 40
3.3
  1
（ＳＳ４００使用）
 41
0.7575757602965681
  7
dcStyle0
 72
     5
 11
151.45000497
 21
67.70000287
 31
0.0
100
AcDbText
  0
TEXT
  5
DF
330
1F
100
AcDbEntity
  8
22
 62
     2
100
AcDbText
 10
69.10000373999999
 20
57.70000272000001
 30
0.0
 40
3.3
  1
スパン　：　
 41
0.8413461557530508
  7
dcStyle0
 72
     5
 11
90.10000403999999
 21
57.70000272000001
 31
0.0
100
AcDbText
  0
TEXT
  5
E0
330
1F
100
AcDbEntity
  8
22
 62
     2
100
AcDbText
 10
90.10000405
 20
57.70000272
 30
0.0
 40
3.0
  1
L = 
 41
0.8333333354166671
  7
dcStyle0
 72
     5
 11
100.1000042
 21
57.70000272
 31
0.0
100
AcDbText
  0
TEXT
  5
E1
330
1F
100
AcDbEntity
  8
22
 62
     2
100
AcDbText
 10
98.10000417000002
 20
57.70000272
 30
0.0
 40
3.0
  1
 270 
 41
0.8333333355555557
  7
dcStyle0
 72
     5
 11
110.60000437
 21
57.70000272
 31
0.0
100
AcDbText
  0
TEXT
  5
E2
330
1F
100
AcDbEntity
  8
22
 62
     2
100
AcDbText
 10
110.60000436
 20
57.70000272
 30
0.0
 40
3.0
  1
mm
 41
0.6666666700000008
  7
dcStyle0
 72
     5
 11
114.60000442
 21
57.70000272
 31
0.0
100
AcDbText
  0
TEXT
  5
E3
330
1F
100
AcDbEntity
  8
22
 62
     2
100
AcDbText
 10
79.10000389000001
 20
49.7000026
 30
0.0
 40
3.3
  1
　Ｗ　：主部材が支える最大後輪一輪荷重
 41
0.8413461559738495
  7
dcStyle0
 72
     5
 11
145.60000495
 21
49.7000026
 31
0.0
100
AcDbText
  0
TEXT
  5
E4
330
1F
100
AcDbEntity
  8
22
 62
     2
100
AcDbText
 10
145.60000488
 20
49.7000026
 30
0.0
 40
3.0
  1
(Kg)
 41
0.6666666700000008
  7
dcStyle0
 72
     5
 11
153.600005
 21
49.7000026
 31
0.0
100
AcDbText
  0
TEXT
  5
E5
330
1F
100
AcDbEntity
  8
22
 62
     2
100
AcDbText
 10
79.10000389000001
 20
45.70000254000001
 30
0.0
 40
3.3
  1
　Ｎ　：荷重を受ける主部材本数
 41
0.8413461558293267
  7
dcStyle0
 72
     5
 11
131.60000467
 21
45.70000254000001
 31
0.0
100
AcDbText
  0
TEXT
  5
E6
330
1F
100
AcDbEntity
  8
22
 62
     2
100
AcDbText
 10
79.10000389000001
 20
41.70000248
 30
0.0
 40
3.3
  1
〔Ｚ〕：主部材断面係数
 41
0.8413461559264054
  7
dcStyle0
 72
     5
 11
117.60000449
 21
41.70000248
 31
0.0
100
AcDbText
  0
TEXT
  5
E7
330
1F
100
AcDbEntity
  8
22
 62
     2
100
AcDbText
 10
79.10000389000001
 20
37.70000242
 30
0.0
 40
3.3
  1
　Ｓ　：溝幅方向載荷寸法
 41
0.8413461560073039
  7
dcStyle0
 72
     5
 11
121.10000457
 21
37.70000242
 31
0.0
100
AcDbText
  0
TEXT
  5
E8
330
1F
100
AcDbEntity
  8
22
 62
     2
100
AcDbText
 10
63.85000366000001
 20
32.70000235000001
 30
0.0
 40
3.3
  1
荷重計算
 41
0.8583691004600374
  7
dcStyle0
 72
     5
 11
79.85000389
 21
32.70000235000001
 31
0.0
100
AcDbText
  0
TEXT
  5
E9
330
1F
100
AcDbEntity
  8
22
 62
     2
100
AcDbText
 10
69.10000373999999
 20
25.70000224
 30
0.0
 40
3.3
  1
側　溝
 41
0.8413461558801774
  7
dcStyle0
 72
     5
 11
79.60000389999999
 21
25.70000224
 31
0.0
100
AcDbText
  0
TEXT
  5
EA
330
1F
100
AcDbEntity
  8
22
 62
     2
100
AcDbText
 10
79.5000039
 20
25.70000224
 30
0.0
 40
3.3
  1
　（溝幅≦載荷寸法Ｓの場合）
 41
0.8413461557802923
  7
dcStyle0
 72
     5
 11
128.50000461
 21
25.70000224
 31
0.0
100
AcDbText
  0
TEXT
  5
EB
330
1F
100
AcDbEntity
  8
22
 62
     2
100
AcDbText
 10
69.20000374
 20
15.70000209
 30
0.0
 40
3.0
  1
Ｗ　＝
 41
0.6944444478395059
  7
dcStyle0
 72
     5
 11
76.70000386
 21
15.70000209
 31
0.0
100
AcDbText
  0
TEXT
  5
EC
330
1F
100
AcDbEntity
  8
22
 62
     2
100
AcDbText
 10
80.20000390999999
 20
18.20000213
 30
0.0
 40
3.3
  1
８
 41
0.8333333333333326
  7
dcStyle0
 72
     5
 11
83.50000390999999
 21
18.20000213
 31
0.0
100
AcDbText
  0
TEXT
  5
ED
330
1F
100
AcDbEntity
  8
22
 62
     2
100
AcDbText
 10
83.50000396000002
 20
18.20000213
 30
0.0
 40
3.3
  1
σｂ
 41
0.6313131345717272
  7
dcStyle0
 72
     5
 11
88.50000403000001
 21
18.20000213
 31
0.0
100
AcDbText
  0
TEXT
  5
EE
330
1F
100
AcDbEntity
  8
22
 62
     2
100
AcDbText
 10
88.50000403
 20
18.20000213
 30
0.0
 40
3.3
  1
Ｚ
 41
0.8333333333333326
  7
dcStyle0
 72
     5
 11
91.80000403
 21
18.20000213
 31
0.0
100
AcDbText
  0
TEXT
  5
EF
330
1F
100
AcDbEntity
  8
22
 62
     2
100
AcDbText
 10
79.70000390000001
 20
13.20000204999999
 30
0.0
 40
3.0
  1
 L 
  7
dcStyle0
 72
     5
 11
91.70000408000001
 21
13.20000204999999
 31
0.0
100
AcDbText
  0
TEXT
  5
F0
330
1F
100
AcDbEntity
  8
22
 62
     2
100
AcDbText
 10
92.20000409
 20
15.70000209
 30
0.0
 40
3.3
  1
×
 41
0.7575757575757576
  7
dcStyle0
 72
     5
 11
95.20000409
 21
15.70000209
 31
0.0
100
AcDbText
  0
TEXT
  5
F1
330
1F
100
AcDbEntity
  8
22
 62
     2
100
AcDbText
 10
97.20000416
 20
18.20000213
 30
0.0
 40
3.0
  1
S
  7
dcStyle0
 72
     5
 11
100.20000416
 21
18.20000213
 31
0.0
100
AcDbText
  0
TEXT
  5
F2
330
1F
100
AcDbEntity
  8
22
 62
     2
100
AcDbText
 10
97.20000416
 20
13.20000204999999
 30
0.0
 40
3.0
  1
L
  7
dcStyle0
 72
     5
 11
100.20000416
 21
13.20000204999999
 31
0.0
100
AcDbText
  0
TEXT
  5
F3
330
1F
100
AcDbEntity
  8
22
 62
     2
100
AcDbText
 10
101.20000422
 20
15.70000209
 30
0.0
 40
3.3
  1
＝
 41
0.7575757575757576
  7
dcStyle0
 72
     5
 11
104.20000422
 21
15.70000209
 31
0.0
100
AcDbText
  0
TEXT
  5
F4
330
1F
100
AcDbEntity
  8
22
 62
     2
100
AcDbText
 10
106.7000043
 20
18.20000213
 30
0.0
 40
3.0
  1
8
 41
0.8333333333333334
  7
dcStyle0
 72
     5
 11
109.2000043
 21
18.20000213
 31
0.0
100
AcDbText
  0
TEXT
  5
F5
330
1F
100
AcDbEntity
  8
22
 62
     2
100
AcDbText
 10
109.20000434
 20
18.20000213
 30
0.0
 40
3.3
  1
×
 41
0.7575757575757576
  7
dcStyle0
 72
     5
 11
112.20000434
 21
18.20000213
 31
0.0
100
AcDbText
  0
TEXT
  5
F6
330
1F
100
AcDbEntity
  8
22
 62
     2
100
AcDbText
 10
110.20000435
 20
18.20000213
 30
0.0
 40
3.0
  1
 18 
 41
0.8333333354166671
  7
dcStyle0
 72
     5
 11
120.2000045
 21
18.20000213
 31
0.0
100
AcDbText
  0
TEXT
  5
F7
330
1F
100
AcDbEntity
  8
22
 62
     2
100
AcDbText
 10
118.20000447
 20
18.20000213
 30
0.0
 40
3.3
  1
×
 41
0.7575757575757576
  7
dcStyle0
 72
     5
 11
121.20000447
 21
18.20000213
 31
0.0
100
AcDbText
  0
TEXT
  5
F8
330
1F
100
AcDbEntity
  8
22
 62
     2
100
AcDbText
 10
119.20000449
 20
18.20000213
 30
0.0
 40
3.0
  1
 500 
 41
0.8333333355555547
  7
dcStyle0
 72
     5
 11
131.70000469
 21
18.20000213
 31
0.0
100
AcDbText
  0
TEXT
  5
F9
330
1F
100
AcDbEntity
  8
22
 62
     2
100
AcDbText
 10
128.60000463
 20
18.20000213
 30
0.0
 40
3.3
  1
×
 41
0.8333333333333363
  7
dcStyle0
 72
     5
 11
131.90000463
 21
18.20000213
 31
0.0
100
AcDbText
  0
TEXT
  5
FA
330
1F
100
AcDbEntity
  8
22
 62
     2
100
AcDbText
 10
132.10000468
 20
18.20000213
 30
0.0
 40
3.0
  1
Z
 41
0.8333333333333334
  7
dcStyle0
 72
     5
 11
134.60000468
 21
18.20000213
 31
0.0
100
AcDbText
  0
TEXT
  5
FB
330
1F
100
AcDbEntity
  8
22
 62
     2
100
AcDbText
 10
112.70000439
 20
13.20000204999999
 30
0.0
 40
3.0
  1
 270 
 41
0.8333333355555557
  7
dcStyle0
 72
     5
 11
125.20000459
 21
13.20000204999999
 31
0.0
100
AcDbText
  0
TEXT
  5
FC
330
1F
100
AcDbEntity
  8
22
 62
     2
100
AcDbText
 10
123.20000455
 20
15.20000208
 30
0.0
 40
1.8
  1
2
 41
0.8333333333333333
  7
dcStyle0
 72
     5
 11
124.70000455
 21
15.20000208
 31
0.0
100
AcDbText
  0
TEXT
  5
FD
330
1F
100
AcDbEntity
  8
22
 62
     2
100
AcDbText
 10
138.20000477
 20
15.70000209
 30
0.0
 40
3.3
  1
＝
 41
0.7575757575757576
  7
dcStyle0
 72
     5
 11
141.20000477
 21
15.70000209
 31
0.0
100
AcDbText
  0
TEXT
  5
FE
330
1F
100
AcDbEntity
  8
22
 62
     2
100
AcDbText
 10
143.20000485
 20
15.70000209
 30
0.0
 40
3.0
  1
 0.988
 41
0.8333333351851846
  7
dcStyle0
 72
     5
 11
158.20000505
 21
15.70000209
 31
0.0
100
AcDbText
  0
TEXT
  5
FF
330
1F
100
AcDbEntity
  8
22
 62
     2
100
AcDbText
 10
158.20000507
 20
15.70000209
 30
0.0
 40
3.3
  1
×
 41
0.7575757575757576
  7
dcStyle0
 72
     5
 11
161.20000507
 21
15.70000209
 31
0.0
100
AcDbText
  0
TEXT
  5
100
330
1F
100
AcDbEntity
  8
22
 62
     2
100
AcDbText
 10
161.20000511
 20
15.70000209
 30
0.0
 40
3.0
  1
Z
 41
0.8333333333333334
  7
dcStyle0
 72
     5
 11
163.70000511
 21
15.70000209
 31
0.0
100
AcDbText
  0
TEXT
  5
101
330
1F
100
AcDbEntity
  8
22
 62
     2
100
AcDbText
 10
69.20000374
 20
5.700001939999997
 30
0.0
 40
3.3
  1
Ｚ　＝　Ｎ　〔Ｚ〕　＝
 41
0.6313131346986858
  7
dcStyle0
 72
     5
 11
96.70000414
 21
5.700001939999997
 31
0.0
100
AcDbText
  0
TEXT
  5
102
330
1F
100
AcDbEntity
  8
22
 62
     2
100
AcDbText
 10
96.70000415
 20
5.700001939999996
 30
0.0
 40
3.0
  1
 8 
 41
0.8333333355555551
  7
dcStyle0
 72
     5
 11
104.20000427
 21
5.700001939999996
 31
0.0
100
AcDbText
  0
TEXT
  5
103
330
1F
100
AcDbEntity
  8
22
 62
     2
100
AcDbText
 10
102.20000423
 20
5.700001939999997
 30
0.0
 40
3.3
  1
×
 41
0.7575757575757576
  7
dcStyle0
 72
     5
 11
105.20000423
 21
5.700001939999997
 31
0.0
100
AcDbText
  0
TEXT
  5
104
330
1F
100
AcDbEntity
  8
22
 62
     2
100
AcDbText
 10
105.20000428
 20
5.700001939999996
 30
0.0
 40
3.0
  1
  1.189
 41
0.8333333352380955
  7
dcStyle0
 72
     5
 11
122.70000452
 21
5.700001939999996
 31
0.0
100
AcDbText
  0
TEXT
  5
105
330
1F
100
AcDbEntity
  8
22
 62
     2
100
AcDbText
 10
122.60000454
 20
5.700001939999997
 30
0.0
 40
3.3
  1
×
 41
0.8333333333333326
  7
dcStyle0
 72
     5
 11
125.90000454
 21
5.700001939999997
 31
0.0
100
AcDbText
  0
TEXT
  5
106
330
1F
100
AcDbEntity
  8
22
 62
     2
100
AcDbText
 10
126.10000459
 20
5.700001939999996
 30
0.0
 40
3.0
  1
10
 41
0.83333333527778
  7
dcStyle0
 72
     5
 11
131.10000466
 21
5.700001939999996
 31
0.0
100
AcDbText
  0
TEXT
  5
107
330
1F
100
AcDbEntity
  8
22
 62
     2
100
AcDbText
 10
131.10000467
 20
7.700001969999997
 30
0.0
 40
1.8
  1
3
 41
0.8333333333333333
  7
dcStyle0
 72
     5
 11
132.60000467
 21
7.700001969999997
 31
0.0
100
AcDbText
  0
TEXT
  5
108
330
1F
100
AcDbEntity
  8
22
 62
     2
100
AcDbText
 10
133.6000047
 20
5.700001939999996
 30
0.0
 40
3.0
  1
=
  7
dcStyle0
 72
     5
 11
136.6000047
 21
5.700001939999996
 31
0.0
100
AcDbText
  0
TEXT
  5
109
330
1F
100
AcDbEntity
  8
22
 62
     2
100
AcDbText
 10
136.60000475
 20
5.700001939999996
 30
0.0
 40
3.0
  1
  9.51
 41
0.8333333351851846
  7
dcStyle0
 72
     5
 11
151.60000495
 21
5.700001939999996
 31
0.0
100
AcDbText
  0
TEXT
  5
10A
330
1F
100
AcDbEntity
  8
22
 62
     2
100
AcDbText
 10
151.50000497
 20
5.700001939999997
 30
0.0
 40
3.3
  1
×
 41
0.8333333333333363
  7
dcStyle0
 72
     5
 11
154.80000497
 21
5.700001939999997
 31
0.0
100
AcDbText
  0
TEXT
  5
10B
330
1F
100
AcDbEntity
  8
22
 62
     2
100
AcDbText
 10
155.00000502
 20
5.700001939999996
 30
0.0
 40
3.0
  1
10
 41
0.8333333352777776
  7
dcStyle0
 72
     5
 11
160.00000509
 21
5.700001939999996
 31
0.0
100
AcDbText
  0
TEXT
  5
10C
330
1F
100
AcDbEntity
  8
22
 62
     2
100
AcDbText
 10
160.0000051
 20
7.700001969999997
 30
0.0
 40
1.8
  1
3
 41
0.8333333333333333
  7
dcStyle0
 72
     5
 11
161.5000051
 21
7.700001969999997
 31
0.0
100
AcDbText
  0
TEXT
  5
10D
330
1F
100
AcDbEntity
  8
22
 62
     2
100
AcDbText
 10
64.20000367
 20
-2.299998180000003
 30
0.0
 40
3.3
  1
∴　Ｗ　＝
 41
0.6313131350372412
  7
dcStyle0
 72
     5
 11
76.70000387
 21
-2.299998180000003
 31
0.0
100
AcDbText
  0
TEXT
  5
10E
330
1F
100
AcDbEntity
  8
22
 62
     2
100
AcDbText
 10
76.70000385000002
 20
-2.299998180000003
 30
0.0
 40
3.0
  1
 0.988
 41
0.8333333351851854
  7
dcStyle0
 72
     5
 11
91.70000405000002
 21
-2.299998180000003
 31
0.0
100
AcDbText
  0
TEXT
  5
10F
330
1F
100
AcDbEntity
  8
22
 62
     2
100
AcDbText
 10
91.60000407999999
 20
-2.299998180000003
 30
0.0
 40
3.3
  1
×
 41
0.8333333333333326
  7
dcStyle0
 72
     5
 11
94.90000407999999
 21
-2.299998180000003
 31
0.0
100
AcDbText
  0
TEXT
  5
110
330
1F
100
AcDbEntity
  8
22
 62
     2
100
AcDbText
 10
95.10000413
 20
-2.299998180000003
 30
0.0
 40
3.0
  1
  9.51
 41
0.8333333351851854
  7
dcStyle0
 72
     5
 11
110.10000433
 21
-2.299998180000003
 31
0.0
100
AcDbText
  0
TEXT
  5
111
330
1F
100
AcDbEntity
  8
22
 62
     2
100
AcDbText
 10
110.00000435
 20
-2.299998180000003
 30
0.0
 40
3.3
  1
×
 41
0.8333333333333326
  7
dcStyle0
 72
     5
 11
113.30000435
 21
-2.299998180000003
 31
0.0
100
AcDbText
  0
TEXT
  5
112
330
1F
100
AcDbEntity
  8
22
 62
     2
100
AcDbText
 10
113.5000044
 20
-2.299998180000003
 30
0.0
 40
3.0
  1
10
 41
0.8333333352777776
  7
dcStyle0
 72
     5
 11
118.50000447
 21
-2.299998180000003
 31
0.0
100
AcDbText
  0
TEXT
  5
113
330
1F
100
AcDbEntity
  8
22
 62
     2
100
AcDbText
 10
118.50000448
 20
-0.2999981500000019
 30
0.0
 40
1.8
  1
3
 41
0.8333333333333333
  7
dcStyle0
 72
     5
 11
120.00000448
 21
-0.2999981500000019
 31
0.0
100
AcDbText
  0
TEXT
  5
114
330
1F
100
AcDbEntity
  8
22
 62
     2
100
AcDbText
 10
121.00000452
 20
-2.299998180000003
 30
0.0
 40
3.0
  1
=
  7
dcStyle0
 72
     5
 11
124.00000452
 21
-2.299998180000003
 31
0.0
100
AcDbText
  0
TEXT
  5
115
330
1F
100
AcDbEntity
  8
22
 62
     2
100
AcDbText
 10
124.00000456
 20
-2.299998180000003
 30
0.0
 40
3.0
  1
  9.40
 41
0.8333333351851846
  7
dcStyle0
 72
     5
 11
139.00000476
 21
-2.299998180000003
 31
0.0
100
AcDbText
  0
TEXT
  5
116
330
1F
100
AcDbEntity
  8
22
 62
     2
100
AcDbText
 10
138.90000478
 20
-2.299998180000003
 30
0.0
 40
3.3
  1
×
 41
0.8333333333333363
  7
dcStyle0
 72
     5
 11
142.20000478
 21
-2.299998180000003
 31
0.0
100
AcDbText
  0
TEXT
  5
117
330
1F
100
AcDbEntity
  8
22
 62
     2
100
AcDbText
 10
142.40000483
 20
-2.299998180000003
 30
0.0
 40
3.0
  1
10
 41
0.8333333352777776
  7
dcStyle0
 72
     5
 11
147.4000049
 21
-2.299998180000003
 31
0.0
100
AcDbText
  0
TEXT
  5
118
330
1F
100
AcDbEntity
  8
22
 62
     2
100
AcDbText
 10
147.40000491
 20
-0.2999981500000019
 30
0.0
 40
1.8
  1
3
 41
0.8333333333333333
  7
dcStyle0
 72
     5
 11
148.90000491
 21
-0.2999981500000019
 31
0.0
100
AcDbText
  0
TEXT
  5
119
330
1F
100
AcDbEntity
  8
22
 62
     2
100
AcDbText
 10
149.90000495
 20
-2.299998180000003
 30
0.0
 40
3.0
  1
(Kg)
 41
0.8333333354166671
  7
dcStyle0
 72
     5
 11
159.9000051
 21
-2.299998180000003
 31
0.0
100
AcDbText
  0
TEXT
  5
11A
330
1F
100
AcDbEntity
  8
22
 62
     2
100
AcDbText
 10
69.20000374
 20
-10.29999830000001
 30
0.0
 40
3.3
  1
Ｔ
 41
0.6313131313131313
  7
dcStyle0
 72
     5
 11
71.70000374
 21
-10.29999830000001
 31
0.0
100
AcDbText
  0
TEXT
  5
11B
330
1F
100
AcDbEntity
  8
22
 62
     2
100
AcDbText
 10
71.70000378
 20
-10.2999983
 30
0.0
 40
3.0
  1
 = 0.4
 41
0.8333333351851854
  7
dcStyle0
 72
     5
 11
86.70000398
 21
-10.2999983
 31
0.0
100
AcDbText
  0
TEXT
  5
11C
330
1F
100
AcDbEntity
  8
22
 62
     2
100
AcDbText
 10
86.70000400000002
 20
-8.299998270000003
 30
0.0
 40
1.8
  1
-1
 41
0.833333335185186
  7
dcStyle0
 72
     5
 11
89.70000404000002
 21
-8.299998270000003
 31
0.0
100
AcDbText
  0
TEXT
  5
11D
330
1F
100
AcDbEntity
  8
22
 62
     2
100
AcDbText
 10
90.60000405999999
 20
-10.29999830000001
 30
0.0
 40
3.3
  1
×
 41
0.8333333333333326
  7
dcStyle0
 72
     5
 11
93.90000405999999
 21
-10.29999830000001
 31
0.0
100
AcDbText
  0
TEXT
  5
11E
330
1F
100
AcDbEntity
  8
22
 62
     2
100
AcDbText
 10
94.10000411
 20
-10.2999983
 30
0.0
 40
3.0
  1
10
 41
0.8333333352777776
  7
dcStyle0
 72
     5
 11
99.10000418
 21
-10.2999983
 31
0.0
100
AcDbText
  0
TEXT
  5
11F
330
1F
100
AcDbEntity
  8
22
 62
     2
100
AcDbText
 10
99.10000419
 20
-8.299998270000003
 30
0.0
 40
1.8
  1
-3
 41
0.833333335185186
  7
dcStyle0
 72
     5
 11
102.10000423
 21
-8.299998270000003
 31
0.0
100
AcDbText
  0
TEXT
  5
120
330
1F
100
AcDbEntity
  8
22
 62
     2
100
AcDbText
 10
103.00000425
 20
-10.29999830000001
 30
0.0
 40
3.3
  1
×Ｗ
 41
0.8413461557530504
  7
dcStyle0
 72
     5
 11
110.00000435
 21
-10.29999830000001
 31
0.0
100
AcDbText
  0
TEXT
  5
121
330
1F
100
AcDbEntity
  8
22
 62
     2
100
AcDbText
 10
69.20000374
 20
-15.29999837000001
 30
0.0
 40
3.0
  1
  = 0.4
 41
0.8333333352380948
  7
dcStyle0
 72
     5
 11
86.70000397999999
 21
-15.29999837000001
 31
0.0
100
AcDbText
  0
TEXT
  5
122
330
1F
100
AcDbEntity
  8
22
 62
     2
100
AcDbText
 10
86.70000400000002
 20
-13.29999834000001
 30
0.0
 40
1.8
  1
-1
 41
0.833333335185186
  7
dcStyle0
 72
     5
 11
89.70000404000002
 21
-13.29999834000001
 31
0.0
100
AcDbText
  0
TEXT
  5
123
330
1F
100
AcDbEntity
  8
22
 62
     2
100
AcDbText
 10
90.60000405999999
 20
-15.29999837
 30
0.0
 40
3.3
  1
×
 41
0.8333333333333326
  7
dcStyle0
 72
     5
 11
93.90000405999999
 21
-15.29999837
 31
0.0
100
AcDbText
  0
TEXT
  5
124
330
1F
100
AcDbEntity
  8
22
 62
     2
100
AcDbText
 10
94.10000411
 20
-15.29999837000001
 30
0.0
 40
3.0
  1
10
 41
0.8333333352777776
  7
dcStyle0
 72
     5
 11
99.10000418
 21
-15.29999837000001
 31
0.0
100
AcDbText
  0
TEXT
  5
125
330
1F
100
AcDbEntity
  8
22
 62
     2
100
AcDbText
 10
99.10000419
 20
-13.29999834000001
 30
0.0
 40
1.8
  1
-3
 41
0.833333335185186
  7
dcStyle0
 72
     5
 11
102.10000423
 21
-13.29999834000001
 31
0.0
100
AcDbText
  0
TEXT
  5
126
330
1F
100
AcDbEntity
  8
22
 62
     2
100
AcDbText
 10
103.00000425
 20
-15.29999837
 30
0.0
 40
3.3
  1
×
 41
0.8333333333333326
  7
dcStyle0
 72
     5
 11
106.30000425
 21
-15.29999837
 31
0.0
100
AcDbText
  0
TEXT
  5
127
330
1F
100
AcDbEntity
  8
22
 62
     2
100
AcDbText
 10
106.5000043
 20
-15.29999837000001
 30
0.0
 40
3.0
  1
  9.40
 41
0.8333333351851854
  7
dcStyle0
 72
     5
 11
121.5000045
 21
-15.29999837000001
 31
0.0
100
AcDbText
  0
TEXT
  5
128
330
1F
100
AcDbEntity
  8
22
 62
     2
100
AcDbText
 10
121.40000452
 20
-15.29999837
 30
0.0
 40
3.3
  1
×
 41
0.8333333333333326
  7
dcStyle0
 72
     5
 11
124.70000452
 21
-15.29999837
 31
0.0
100
AcDbText
  0
TEXT
  5
129
330
1F
100
AcDbEntity
  8
22
 62
     2
100
AcDbText
 10
124.90000457
 20
-15.29999837000001
 30
0.0
 40
3.0
  1
10
 41
0.8333333352777776
  7
dcStyle0
 72
     5
 11
129.90000464
 21
-15.29999837000001
 31
0.0
100
AcDbText
  0
TEXT
  5
12A
330
1F
100
AcDbEntity
  8
22
 62
     2
100
AcDbText
 10
129.90000465
 20
-13.29999834000001
 30
0.0
 40
1.8
  1
3
 41
0.8333333333333333
  7
dcStyle0
 72
     5
 11
131.40000465
 21
-13.29999834000001
 31
0.0
100
AcDbText
  0
TEXT
  5
12B
330
1F
100
AcDbEntity
  8
22
 62
     2
100
AcDbText
 10
69.20000374
 20
-20.29999844000001
 30
0.0
 40
3.0
  1
  =
 41
0.8333333355555551
  7
dcStyle0
 72
     5
 11
76.70000386
 21
-20.29999844000001
 31
0.0
100
AcDbText
  0
TEXT
  5
12C
330
1F
100
AcDbEntity
  8
22
 62
     2
100
AcDbText
 10
76.70000385000002
 20
-20.29999844000001
 30
0.0
 40
3.0
  1
 23.5
 41
0.8333333355555557
  7
dcStyle0
 72
     5
 11
89.20000405000002
 21
-20.29999844000001
 31
0.0
100
AcDbText
  0
TEXT
  5
12D
330
1F
100
AcDbEntity
  8
22
 62
     2
100
AcDbText
 10
89.95000405000002
 20
-20.29999844000001
 30
0.0
 40
3.0
  1
>
  7
dcStyle0
 72
     5
 11
92.95000405000002
 21
-20.29999844000001
 31
0.0
100
AcDbText
  0
TEXT
  5
12E
330
1F
100
AcDbEntity
  8
22
 62
     2
100
AcDbText
 10
93.4500041
 20
-20.29999844000001
 30
0.0
 40
3.0
  1
 20 
 41
0.8333333354166671
  7
dcStyle0
 72
     5
 11
103.45000425
 21
-20.29999844000001
 31
0.0
100
AcDbText
  0
TEXT
  5
12F
330
1F
100
AcDbEntity
  8
22
 62
     2
100
AcDbText
 10
84.10000396999999
 20
-58.29999901
 30
0.0
 40
3.3
  1
以上より　
 41
0.8413461559818785
  7
dcStyle0
 72
     5
 11
101.60000425
 21
-58.29999901
 31
0.0
100
AcDbText
  0
TEXT
  5
130
330
1F
100
AcDbEntity
  8
22
 62
     2
100
AcDbText
 10
101.60000423
 20
-58.29999901
 30
0.0
 40
3.5
  1
Ｔ－
 41
0.8333333353174596
  7
dcStyle0
 72
     5
 11
108.60000433
 21
-58.29999901
 31
0.0
100
AcDbText
  0
TEXT
  5
131
330
1F
100
AcDbEntity
  8
22
 62
     2
100
AcDbText
 10
108.60000433
 20
-58.29999901
 30
0.0
 40
3.0
  1
 20 
 41
0.8333333354166671
  7
dcStyle0
 72
     5
 11
118.60000448
 21
-58.29999901
 31
0.0
100
AcDbText
  0
TEXT
  5
132
330
1F
100
AcDbEntity
  8
22
 62
     2
100
AcDbText
 10
118.50000448
 20
-58.29999901
 30
0.0
 40
3.3
  1
となる
 41
0.8413461558801785
  7
dcStyle0
 72
     5
 11
129.00000464
 21
-58.29999901
 31
0.0
100
AcDbText
  0
TEXT
  5
133
330
1F
100
AcDbEntity
  8
22
 62
     2
100
AcDbText
 10
-110.6499989404308
 20
80.90000312192093
 30
0.0
 40
2.5
  1
ベアリングバー：
 41
0.8333333352777776
  7
dcStyle0
 72
     5
 11
-90.64999866043084
 21
80.90000312192093
 31
0.0
100
AcDbText
  0
TEXT
  5
134
330
1F
100
AcDbEntity
  8
22
 62
     2
100
AcDbText
 10
-90.64999864043082
 20
80.90000312192093
 30
0.0
 40
2.5
  1
Y-
 41
0.9999999999999998
  7
dcStyle0
 72
     5
 11
-85.64999857043082
 21
80.90000312192093
 31
0.0
100
AcDbText
  0
TEXT
  5
135
330
1F
100
AcDbEntity
  8
22
 62
     2
100
AcDbText
 10
-87.64999859043083
 20
80.90000312192093
 30
0.0
 40
2.5
  1
 32 
 41
1.0
  7
dcStyle0
 72
     5
 11
-77.64999844043082
 21
80.90000312192093
 31
0.0
100
AcDbText
  0
TEXT
  5
136
330
1F
100
AcDbEntity
  8
22
 62
     2
100
AcDbText
 10
-80.14999848043082
 20
80.90000312192093
 30
0.0
 40
2.5
  1
×
 41
0.8333333333333334
  7
dcStyle0
 72
     5
 11
-77.64999848043082
 21
80.90000312192093
 31
0.0
100
AcDbText
  0
TEXT
  5
137
330
1F
100
AcDbEntity
  8
22
 62
     2
100
AcDbText
 10
-77.64999844043082
 20
80.90000312192093
 30
0.0
 40
2.5
  1
20
 41
0.9999999999999998
  7
dcStyle0
 72
     5
 11
-72.64999837043082
 21
80.90000312192093
 31
0.0
100
AcDbText
  0
TEXT
  5
138
330
1F
100
AcDbEntity
  8
22
 62
     2
100
AcDbText
 10
-72.64999837043082
 20
80.90000312192093
 30
0.0
 40
2.5
  1
×
 41
0.8333333333333334
  7
dcStyle0
 72
     5
 11
-70.14999837043082
 21
80.90000312192093
 31
0.0
100
AcDbText
  0
TEXT
  5
139
330
1F
100
AcDbEntity
  8
22
 62
     2
100
AcDbText
 10
-72.14999836043083
 20
80.90000312192093
 30
0.0
 40
2.5
  1
 4.5 
 41
0.8000000025599998
  7
dcStyle0
 72
     5
 11
-62.14999820043083
 21
80.90000312192093
 31
0.0
100
AcDbText
  0
TEXT
  5
13A
330
1F
100
AcDbEntity
  8
22
 62
     2
100
AcDbText
 10
-105.6999988604308
 20
76.90000306192093
 30
0.0
 40
2.5
  1
ツイストバー：
 41
0.8333333352380948
  7
dcStyle0
 72
     5
 11
-88.19999862043082
 21
76.90000306192093
 31
0.0
100
AcDbText
  0
TEXT
  5
13B
330
1F
100
AcDbEntity
  8
22
 62
     2
100
AcDbText
 10
-88.19999860043083
 20
76.90000306192093
 30
0.0
 40
2.5
  1
φ
 41
0.8333333333333334
  7
dcStyle0
 72
     5
 11
-85.69999860043083
 21
76.90000306192093
 31
0.0
100
AcDbText
  0
TEXT
  5
13C
330
1F
100
AcDbEntity
  8
22
 62
     2
100
AcDbText
 10
-87.69999859043082
 20
76.90000306192093
 30
0.0
 40
2.5
  1
 10 
 41
1.0
  7
dcStyle0
 72
     5
 11
-77.69999844043082
 21
76.90000306192093
 31
0.0
100
AcDbText
  0
TEXT
  5
13D
330
1F
100
AcDbEntity
  8
22
 62
     2
100
AcDbText
 10
-77.69999845043083
 20
76.90000306192093
 30
0.0
 40
2.5
  1
絞りパイプ
 41
0.8333333355555557
  7
dcStyle0
 72
     5
 11
-65.19999825043082
 21
76.90000306192093
 31
0.0
100
AcDbText
  0
TEXT
  5
13E
330
1F
100
AcDbEntity
  8
22
 62
     2
100
AcDbText
 10
-98.95999632043083
 20
72.20000299192093
 30
0.0
 40
2.5
  1
エンドプレート：
 41
0.8333333352777776
  7
dcStyle0
 72
     5
 11
-78.95999604043084
 21
72.20000299192093
 31
0.0
100
AcDbText
  0
TEXT
  5
13F
330
1F
100
AcDbEntity
  8
22
 62
     2
100
AcDbText
 10
-78.95999602043082
 20
72.20000299192093
 30
0.0
 40
2.5
  1
FB
 41
0.9999999999999998
  7
dcStyle0
 72
     5
 11
-73.95999595043082
 21
72.20000299192093
 31
0.0
100
AcDbText
  0
TEXT
  5
140
330
1F
100
AcDbEntity
  8
22
 62
     2
100
AcDbText
 10
-75.95999598043083
 20
72.20000299192093
 30
0.0
 40
2.5
  1
 4.5 
 41
0.8000000025599998
  7
dcStyle0
 72
     5
 11
-65.95999582043083
 21
72.20000299192093
 31
0.0
100
AcDbText
  0
TEXT
  5
141
330
1F
100
AcDbEntity
  8
22
 62
     2
100
AcDbText
 10
-68.45999587043083
 20
72.20000299192093
 30
0.0
 40
2.5
  1
×
 41
0.8333333333333334
  7
dcStyle0
 72
     5
 11
-65.95999587043083
 21
72.20000299192093
 31
0.0
100
AcDbText
  0
TEXT
  5
142
330
1F
100
AcDbEntity
  8
22
 62
     2
100
AcDbText
 10
-67.95999586043082
 20
72.20000299192093
 30
0.0
 40
2.5
  1
 25 
 41
0.9999999999999998
  7
dcStyle0
 72
     5
 11
-57.95999571043082
 21
72.20000299192093
 31
0.0
100
AcDbText
  0
TEXT
  5
143
330
1F
100
AcDbEntity
  8
22
 62
     2
100
AcDbText
 10
-90.97999628043083
 20
-58.19999894807907
 30
0.0
 40
3.0
  1
 27.9 
 41
0.8333333351851854
  7
dcStyle0
 72
     5
 11
-75.97999608043082
 21
-58.19999894807907
 31
0.0
100
AcDbText
  0
TEXT
  5
144
330
1F
100
AcDbEntity
  8
22
 62
     2
100
AcDbText
 10
-99.04999876043082
 20
-51.19999884807908
 30
0.0
 40
3.0
  1
 494 
 41
0.8333333355555557
  7
dcStyle0
 72
     5
 11
-86.54999856043082
 21
-51.19999884807908
 31
0.0
100
AcDbText
  0
TEXT
  5
145
330
1F
100
AcDbEntity
  8
22
 62
     2
100
AcDbText
 10
-99.04999876043082
 20
-88.59999940807907
 30
0.0
 40
3.0
  1
 480 
 41
0.8333333355555557
  7
dcStyle0
 72
     5
 11
-86.54999856043082
 21
-88.59999940807907
 31
0.0
100
AcDbText
  0
TEXT
  5
146
330
1F
100
AcDbEntity
  8
22
 62
     2
100
AcDbText
 10
-136.8700005504308
 20
-44.69999874807908
 30
0.0
 40
2.7
  1
セラミック充填
 41
0.8474576289654043
  7
dcStyle0
 72
     5
 11
-115.8700002504308
 21
-44.69999874807908
 31
0.0
100
AcDbText
  0
TEXT
  5
147
330
1F
100
AcDbEntity
  8
22
 62
     2
100
AcDbText
 10
-3.899997346424441
 20
39.4000025067286
 30
0.0
 40
3.0
  1
 80 
 50
90.0000001836389
 41
0.8333333354166659
  7
dcStyle0
 72
     5
 11
-3.899997378475476
 21
49.40000265672859
 31
0.0
100
AcDbText
  0
TEXT
  5
148
330
1F
100
AcDbEntity
  8
22
 62
     2
100
AcDbText
 10
-3.899997346424442
 20
20.15000221672858
 30
0.0
 40
3.0
  1
 100 
 50
90.0000001836389
 41
0.8333333355555554
  7
dcStyle0
 72
     5
 11
-3.899997386488235
 21
32.65000241672858
 31
0.0
100
AcDbText
  0
TEXT
  5
149
330
1F
100
AcDbEntity
  8
22
 62
     2
100
AcDbText
 10
-10.89999744642444
 20
10.15000206672858
 30
0.0
 40
3.0
  1
 360 
 50
90.0000001836389
 41
0.8333333355555556
  7
dcStyle0
 72
     5
 11
-10.89999748648824
 21
22.65000226672858
 31
0.0
100
AcDbText
  0
TEXT
  5
14A
330
1F
100
AcDbEntity
  8
22
 62
     2
100
AcDbText
 10
29.50000315357556
 20
10.15000206672858
 30
0.0
 40
3.0
  1
 348 
 50
90.0000001836389
 41
0.8333333355555556
  7
dcStyle0
 72
     5
 11
29.50000311351177
 21
22.65000226672858
 31
0.0
100
AcDbText
  0
TEXT
  5
14B
330
1F
100
AcDbEntity
  8
22
 62
     2
100
AcDbText
 10
34.50000323437683
 20
8.900002056728583
 30
0.0
 40
3.0
  1
嵩上材外寸
 50
90.0000001836389
 41
0.8333333355555554
  7
dcStyle0
 72
     5
 11
34.50000318630028
 21
23.90000229672858
 31
0.0
100
AcDbText
  0
TEXT
  5
14C
330
1F
100
AcDbEntity
  8
22
 62
     2
100
AcDbText
 10
3.00000275956918
 20
71.00000297192094
 30
0.0
 40
2.5
  1
□－
 41
0.6666666699999998
  7
dcStyle0
 72
     5
 11
7.000002819569179
 21
71.00000297192094
 31
0.0
100
AcDbText
  0
TEXT
  5
14D
330
1F
100
AcDbEntity
  8
22
 62
     2
100
AcDbText
 10
7.000002819569182
 20
71.00000297192094
 30
0.0
 40
2.5
  1
3.2
 41
0.6000000031999998
  7
dcStyle0
 72
     5
 11
11.50000287956918
 21
71.00000297192094
 31
0.0
100
AcDbText
  0
TEXT
  5
14E
330
1F
100
AcDbEntity
  8
22
 62
     2
100
AcDbText
 10
11.50000287956918
 20
71.00000297192094
 30
0.0
 40
2.5
  1
×
 41
0.6666666666666666
  7
dcStyle0
 72
     5
 11
13.50000287956918
 21
71.00000297192094
 31
0.0
100
AcDbText
  0
TEXT
  5
14F
330
1F
100
AcDbEntity
  8
22
 62
     2
100
AcDbText
 10
11.50000287956918
 20
71.00000297192094
 30
0.0
 40
2.5
  1
 55 
 41
0.8000000024000001
  7
dcStyle0
 72
     5
 11
19.50000299956918
 21
71.00000297192094
 31
0.0
100
AcDbText
  0
TEXT
  5
150
330
1F
100
AcDbEntity
  8
22
 62
     2
100
AcDbText
 10
17.50000296956918
 20
71.00000297192094
 30
0.0
 40
2.5
  1
×
 41
0.6666666666666666
  7
dcStyle0
 72
     5
 11
19.50000296956918
 21
71.00000297192094
 31
0.0
100
AcDbText
  0
TEXT
  5
151
330
1F
100
AcDbEntity
  8
22
 62
     2
100
AcDbText
 10
17.50000296956918
 20
71.00000297192094
 30
0.0
 40
2.5
  1
 40 
 41
0.8000000023999999
  7
dcStyle0
 72
     5
 11
25.50000308956918
 21
71.00000297192094
 31
0.0
100
AcDbText
  0
TEXT
  5
152
330
1F
100
AcDbEntity
  8
22
 62
     2
100
AcDbText
 10
-7.39999740043082
 20
-34.09999859807908
 30
0.0
 40
3.0
  1
 32 
 41
0.8333333354166667
  7
dcStyle0
 72
     5
 11
2.60000274956918
 21
-34.09999859807908
 31
0.0
100
AcDbText
  0
TEXT
  5
153
330
1F
100
AcDbEntity
  8
22
 62
     2
100
AcDbText
 10
5.300002789569181
 20
-41.09999869807908
 30
0.0
 40
3.0
  1
 87 
 41
0.8333333354166668
  7
dcStyle0
 72
     5
 11
15.30000293956918
 21
-41.09999869807908
 31
0.0
100
AcDbText
  0
TEXT
  5
154
330
1F
100
AcDbEntity
  8
22
 62
     2
100
AcDbText
 10
24.20000306956918
 20
-77.69999923807907
 30
0.0
 40
3.0
  1
本体重量：
 41
0.6944444478395061
  7
dcStyle0
 72
     5
 11
36.70000326956918
 21
-77.69999923807907
 31
0.0
100
AcDbText
  0
TEXT
  5
155
330
1F
100
AcDbEntity
  8
22
 62
     2
100
AcDbText
 10
36.70000325956919
 20
-77.69999923807907
 30
0.0
 40
3.0
  1
 14.8
 41
0.666666670222222
  7
dcStyle0
 72
     5
 11
46.70000341956919
 21
-77.69999923807907
 31
0.0
100
AcDbText
  0
TEXT
  5
156
330
1F
100
AcDbEntity
  8
22
 62
     2
100
AcDbText
 10
46.70000340956918
 20
-77.69999923807907
 30
0.0
 40
3.0
  1
Kg
 41
0.6666666699999997
  7
dcStyle0
 72
     5
 11
50.70000346956918
 21
-77.69999923807907
 31
0.0
100
AcDbText
  0
TEXT
  5
157
330
1F
100
AcDbEntity
  8
22
 62
     2
100
AcDbText
 10
38.15000327956918
 20
-94.09999948807909
 30
0.0
 40
3.0
  1
戸田　
 41
0.8536585384889945
  7
dcStyle0
 72
     5
 11
48.65000343956918
 21
-94.09999948807909
 31
0.0
100
AcDbText
  0
LINE
  5
158
330
1F
100
AcDbEntity
  8
32
  6
Continuous
 62
     4
370
    25
100
AcDbLine
 10
-10.7999974489212
 20
-87.49999938905239
 30
0.0
 11
-10.7999974489212
 21
-88.16666607558727
 31
0.0
  0
LINE
  5
159
330
1F
100
AcDbEntity
  8
32
  6
Continuous
 62
     4
370
    25
100
AcDbLine
 10
-10.7999974489212
 20
-88.16666607558727
 30
0.0
 11
-9.799997419118881
 21
-88.16666607558727
 31
0.0
  0
LINE
  5
15A
330
1F
100
AcDbEntity
  8
32
  6
Continuous
 62
     4
370
    25
100
AcDbLine
 10
-9.799997419118881
 20
-88.16666607558727
 30
0.0
 11
-8.466664046049118
 21
-90.49999947845936
 31
0.0
  0
LINE
  5
15B
330
1F
100
AcDbEntity
  8
32
  6
Continuous
 62
     4
370
    25
100
AcDbLine
 10
-8.466664046049118
 20
-90.49999947845936
 30
0.0
 11
-8.466664046049118
 21
-91.49999950826168
 31
0.0
  0
LINE
  5
15C
330
1F
100
AcDbEntity
  8
32
  6
Continuous
 62
     4
370
    25
100
AcDbLine
 10
-8.466664046049118
 20
-91.49999950826168
 30
0.0
 11
-8.133330702781677
 21
-91.83333285152912
 31
0.0
  0
LINE
  5
15D
330
1F
100
AcDbEntity
  8
32
  6
Continuous
 62
     4
370
    25
100
AcDbLine
 10
-8.133330702781677
 20
-91.83333285152912
 30
0.0
 11
-8.133330702781677
 21
-98.1666663736105
 31
0.0
  0
LINE
  5
15E
330
1F
100
AcDbEntity
  8
32
  6
Continuous
 62
     4
370
    25
100
AcDbLine
 10
-8.133330702781677
 20
-98.1666663736105
 30
0.0
 11
-6.799997329711914
 21
-98.1666663736105
 31
0.0
  0
LINE
  5
15F
330
1F
100
AcDbEntity
  8
32
  6
Continuous
 62
     4
370
    25
100
AcDbLine
 10
-6.799997329711914
 20
-98.1666663736105
 30
0.0
 11
-6.799997329711914
 21
-91.83333285152912
 31
0.0
  0
LINE
  5
160
330
1F
100
AcDbEntity
  8
32
  6
Continuous
 62
     4
370
    25
100
AcDbLine
 10
-6.799997329711914
 20
-91.83333285152912
 30
0.0
 11
-6.466663986444473
 21
-91.49999950826168
 31
0.0
  0
LINE
  5
161
330
1F
100
AcDbEntity
  8
32
  6
Continuous
 62
     4
370
    25
100
AcDbLine
 10
-6.466663986444473
 20
-91.49999950826168
 30
0.0
 11
-6.466663986444473
 21
-90.49999947845936
 31
0.0
  0
LINE
  5
162
330
1F
100
AcDbEntity
  8
32
  6
Continuous
 62
     4
370
    25
100
AcDbLine
 10
-6.466663986444473
 20
-90.49999947845936
 30
0.0
 11
-5.13333061337471
 21
-88.16666607558727
 31
0.0
  0
LINE
  5
163
330
1F
100
AcDbEntity
  8
32
  6
Continuous
 62
     4
370
    25
100
AcDbLine
 10
-5.13333061337471
 20
-88.16666607558727
 30
0.0
 11
-4.133330583572388
 21
-88.16666607558727
 31
0.0
  0
LINE
  5
164
330
1F
100
AcDbEntity
  8
32
  6
Continuous
 62
     4
370
    25
100
AcDbLine
 10
-4.133330583572388
 20
-88.16666607558727
 30
0.0
 11
-4.133330583572388
 21
-87.49999938905239
 31
0.0
  0
LINE
  5
165
330
1F
100
AcDbEntity
  8
32
  6
Continuous
 62
     4
370
    25
100
AcDbLine
 10
-4.133330583572388
 20
-87.49999938905239
 30
0.0
 11
-5.466663956642151
 21
-87.49999938905239
 31
0.0
  0
LINE
  5
166
330
1F
100
AcDbEntity
  8
32
  6
Continuous
 62
     4
370
    25
100
AcDbLine
 10
-5.466663956642151
 20
-87.49999938905239
 30
0.0
 11
-7.466664016246796
 21
-89.49999944865704
 31
0.0
  0
LINE
  5
167
330
1F
100
AcDbEntity
  8
32
  6
Continuous
 62
     4
370
    25
100
AcDbLine
 10
-7.466664016246796
 20
-89.49999944865704
 30
0.0
 11
-9.46666407585144
 21
-87.49999938905239
 31
0.0
  0
LINE
  5
168
330
1F
100
AcDbEntity
  8
32
  6
Continuous
 62
     4
370
    25
100
AcDbLine
 10
-9.46666407585144
 20
-87.49999938905239
 30
0.0
 11
-10.7999974489212
 21
-87.49999938905239
 31
0.0
  0
CIRCLE
  5
169
330
1F
100
AcDbEntity
  8
32
  6
Continuous
 62
     4
370
    25
100
AcDbCircle
 10
-7.466664016246796
 20
-88.49999941885471
 30
0.0
 40
0.6666666865348816
  0
ARC
  5
16A
330
1F
100
AcDbEntity
  8
32
  6
Continuous
 62
     4
370
    25
100
AcDbCircle
 10
-7.500348327283586
 20
-92.06772632602278
 30
0.0
 40
5.000000149011612
100
AcDbArc
 50
66.00000000000014
 51
113.0000000000003
  0
LINE
  5
16B
330
1F
100
AcDbEntity
  8
32
  6
Continuous
 62
     4
370
    25
100
AcDbLine
 10
-9.466667465368957
 20
-86.99999938160181
 30
0.0
 11
-9.466667465368957
 21
-82.99999932199717
 31
0.0
  0
LINE
  5
16C
330
1F
100
AcDbEntity
  8
32
  6
Continuous
 62
     4
370
    25
100
AcDbLine
 10
-9.466667465368957
 20
-83.99999933689833
 30
0.0
 11
-11.46666749517128
 21
-83.69999933242798
 31
0.0
  0
LINE
  5
16D
330
1F
100
AcDbEntity
  8
32
  6
Continuous
 62
     4
370
    25
100
AcDbLine
 10
-11.46666749517128
 20
-83.69999933242798
 30
0.0
 11
-11.46666749517128
 21
-84.29999934136868
 31
0.0
  0
LINE
  5
16E
330
1F
100
AcDbEntity
  8
32
  6
Continuous
 62
     4
370
    25
100
AcDbLine
 10
-11.46666749517128
 20
-84.29999934136868
 30
0.0
 11
-9.466667465368957
 21
-83.99999933689833
 31
0.0
  0
LINE
  5
16F
330
1F
100
AcDbEntity
  8
32
  6
Continuous
 62
     4
370
    25
100
AcDbLine
 10
-9.466667465368957
 20
-83.99999933689833
 30
0.0
 11
-12.46666751007244
 21
-83.99999933689833
 31
0.0
  0
LINE
  5
170
330
1F
100
AcDbEntity
  8
32
  6
Continuous
 62
     4
370
    25
100
AcDbLine
 10
-9.466667465368957
 20
-83.99999933689833
 30
0.0
 11
-5.466667405764312
 21
-83.99999933689833
 31
0.0
  0
LINE
  5
171
330
1F
100
AcDbEntity
  8
32
  6
Continuous
 62
     4
370
    25
100
AcDbLine
 10
-5.466667405764312
 20
-83.99999933689833
 30
0.0
 11
-3.46666737596199
 21
-83.69999933242798
 31
0.0
  0
LINE
  5
172
330
1F
100
AcDbEntity
  8
32
  6
Continuous
 62
     4
370
    25
100
AcDbLine
 10
-3.46666737596199
 20
-83.69999933242798
 30
0.0
 11
-3.46666737596199
 21
-84.29999934136868
 31
0.0
  0
LINE
  5
173
330
1F
100
AcDbEntity
  8
32
  6
Continuous
 62
     4
370
    25
100
AcDbLine
 10
-3.46666737596199
 20
-84.29999934136868
 30
0.0
 11
-5.466667405764312
 21
-83.99999933689833
 31
0.0
  0
LINE
  5
174
330
1F
100
AcDbEntity
  8
32
  6
Continuous
 62
     4
370
    25
100
AcDbLine
 10
-5.466667405764312
 20
-83.99999933689833
 30
0.0
 11
-2.466667361060828
 21
-83.99999933689833
 31
0.0
  0
LINE
  5
175
330
1F
100
AcDbEntity
  8
32
  6
Continuous
 62
     4
370
    25
100
AcDbLine
 10
-5.466667405764312
 20
-82.99999932199717
 30
0.0
 11
-5.466667405764312
 21
-86.99999938160181
 31
0.0
  0
LINE
  5
176
330
1F
100
AcDbEntity
  8
32
  6
Continuous
 62
     4
370
    25
100
AcDbLine
 10
-7.799997404217716
 20
-86.99999938160181
 30
0.0
 11
-8.166664418081446
 21
-85.43332932194069
 31
0.0
  0
LINE
  5
177
330
1F
100
AcDbEntity
  8
32
  6
Continuous
 62
     4
370
    25
100
AcDbLine
 10
-7.799997404217716
 20
-86.99999938160181
 30
0.0
 11
-8.966667457918373
 21
-84.99999935179949
 31
0.0
  0
LINE
  5
178
330
1F
100
AcDbEntity
  8
32
  6
Continuous
 62
     4
370
    25
100
AcDbLine
 10
-11.73333753546089
 20
-80.29999928176403
 30
0.0
 11
-12.90000758916154
 21
-78.29999925196171
 31
0.0
  0
LINE
  5
179
330
1F
100
AcDbEntity
  8
32
  6
Continuous
 62
     4
370
    25
100
AcDbLine
 10
-21.23333748628705
 20
-78.29999925196171
 30
0.0
 11
-12.90000758916154
 21
-78.29999925196171
 31
0.0
  0
LINE
  5
17A
330
1F
100
AcDbEntity
  8
32
  6
Continuous
 62
     4
370
    25
100
AcDbLine
 10
-7.132992999747326
 20
-87.83330017526896
 30
0.0
 11
-6.899660004670359
 21
-86.2333001514271
 31
0.0
  0
LINE
  5
17B
330
1F
100
AcDbEntity
  8
32
  6
Continuous
 62
     4
370
    25
100
AcDbLine
 10
-7.132992999747326
 20
-87.83330017526896
 30
0.0
 11
-5.999663019175312
 21
-85.83330014546664
 31
0.0
  0
LINE
  5
17C
330
1F
100
AcDbEntity
  8
32
  6
Continuous
 62
     4
370
    25
100
AcDbLine
 10
-3.532992946103146
 20
-82.16663024524794
 30
0.0
 11
-1.099662946159622
 21
-77.96663018266307
 31
0.0
  0
LINE
  5
17D
330
1F
100
AcDbEntity
  8
32
  6
Continuous
 62
     4
370
    25
100
AcDbLine
 10
-1.099662946159622
 20
-77.96663018266307
 30
0.0
 11
6.233666936064726
 21
-77.96663018266307
 31
0.0
  0
LINE
  5
17E
330
1F
100
AcDbEntity
  8
32
  6
Continuous
 62
     4
370
    25
100
AcDbLine
 10
-10.7999974489212
 20
-86.99999938160181
 30
0.0
 11
-10.7999974489212
 21
-84.79999934881926
 31
0.0
  0
LINE
  5
17F
330
1F
100
AcDbEntity
  8
32
  6
Continuous
 62
     4
370
    25
100
AcDbLine
 10
-10.7999974489212
 20
-83.1999993249774
 30
0.0
 11
-10.7999974489212
 21
-76.9999992325902
 31
0.0
  0
LINE
  5
180
330
1F
100
AcDbEntity
  8
32
  6
Continuous
 62
     4
370
    25
100
AcDbLine
 10
-10.7999974489212
 20
-77.99999924749136
 30
0.0
 11
-8.799997419118881
 21
-77.69999924302101
 31
0.0
  0
LINE
  5
181
330
1F
100
AcDbEntity
  8
32
  6
Continuous
 62
     4
370
    25
100
AcDbLine
 10
-8.799997419118881
 20
-78.29999925196171
 30
0.0
 11
-8.799997419118881
 21
-77.69999924302101
 31
0.0
  0
LINE
  5
182
330
1F
100
AcDbEntity
  8
32
  6
Continuous
 62
     4
370
    25
100
AcDbLine
 10
-8.799997419118881
 20
-78.29999925196171
 30
0.0
 11
-10.7999974489212
 21
-77.99999924749136
 31
0.0
  0
LINE
  5
183
330
1F
100
AcDbEntity
  8
32
  6
Continuous
 62
     4
370
    25
100
AcDbLine
 10
-10.7999974489212
 20
-77.99999924749136
 30
0.0
 11
-4.133327122529295
 21
-77.99999924749136
 31
0.0
  0
LINE
  5
184
330
1F
100
AcDbEntity
  8
32
  6
Continuous
 62
     4
370
    25
100
AcDbLine
 10
-4.133327122529295
 20
-77.99999924749136
 30
0.0
 11
-6.133327152331617
 21
-77.69999924302101
 31
0.0
  0
LINE
  5
185
330
1F
100
AcDbEntity
  8
32
  6
Continuous
 62
     4
370
    25
100
AcDbLine
 10
-6.133327152331617
 20
-78.29999925196171
 30
0.0
 11
-6.133327152331617
 21
-77.69999924302101
 31
0.0
  0
LINE
  5
186
330
1F
100
AcDbEntity
  8
32
  6
Continuous
 62
     4
370
    25
100
AcDbLine
 10
-6.133327152331617
 20
-78.29999925196171
 30
0.0
 11
-4.133327122529295
 21
-77.99999924749136
 31
0.0
  0
LINE
  5
187
330
1F
100
AcDbEntity
  8
32
  6
Continuous
 62
     4
370
    25
100
AcDbLine
 10
-4.133327122529295
 20
-86.99999938160181
 30
0.0
 11
-4.133327122529295
 21
-84.79999934881926
 31
0.0
  0
LINE
  5
188
330
1F
100
AcDbEntity
  8
32
  6
Continuous
 62
     4
370
    25
100
AcDbLine
 10
-4.133327122529295
 20
-83.1999993249774
 30
0.0
 11
-4.133327122529295
 21
-76.9999992325902
 31
0.0
  0
LINE
  5
189
330
1F
100
AcDbEntity
  8
32
  6
Continuous
 62
     4
370
    25
100
AcDbLine
 10
-15.29999751597643
 20
-87.49999938905239
 30
0.0
 11
-11.29999745637178
 21
-87.49999938905239
 31
0.0
  0
LINE
  5
18A
330
1F
100
AcDbEntity
  8
32
  6
Continuous
 62
     4
370
    25
100
AcDbLine
 10
-14.29999750107527
 20
-87.49999938905239
 30
0.0
 11
-14.59999750554562
 21
-85.49999935925007
 31
0.0
  0
LINE
  5
18B
330
1F
100
AcDbEntity
  8
32
  6
Continuous
 62
     4
370
    25
100
AcDbLine
 10
-14.59999750554562
 20
-85.49999935925007
 30
0.0
 11
-13.99999749660492
 21
-85.49999935925007
 31
0.0
  0
LINE
  5
18C
330
1F
100
AcDbEntity
  8
32
  6
Continuous
 62
     4
370
    25
100
AcDbLine
 10
-13.99999749660492
 20
-85.49999935925007
 30
0.0
 11
-14.29999750107527
 21
-87.49999938905239
 31
0.0
  0
LINE
  5
18D
330
1F
100
AcDbEntity
  8
32
  6
Continuous
 62
     4
370
    25
100
AcDbLine
 10
-14.29999750107527
 20
-87.49999938905239
 30
0.0
 11
-14.29999750107527
 21
-84.49999934434891
 31
0.0
  0
LINE
  5
18E
330
1F
100
AcDbEntity
  8
32
  6
Continuous
 62
     4
370
    25
100
AcDbLine
 10
-14.29999750107527
 20
-89.49999941885471
 30
0.0
 11
-14.29999750107527
 21
-87.49999938905239
 31
0.0
  0
LINE
  5
18F
330
1F
100
AcDbEntity
  8
32
  6
Continuous
 62
     4
370
    25
100
AcDbLine
 10
-14.59999750554562
 20
-91.49999944865704
 30
0.0
 11
-14.29999750107527
 21
-89.49999941885471
 31
0.0
  0
LINE
  5
190
330
1F
100
AcDbEntity
  8
32
  6
Continuous
 62
     4
370
    25
100
AcDbLine
 10
-14.59999750554562
 20
-91.49999944865704
 30
0.0
 11
-13.99999749660492
 21
-91.49999944865704
 31
0.0
  0
LINE
  5
191
330
1F
100
AcDbEntity
  8
32
  6
Continuous
 62
     4
370
    25
100
AcDbLine
 10
-13.99999749660492
 20
-91.49999944865704
 30
0.0
 11
-14.29999750107527
 21
-89.49999941885471
 31
0.0
  0
LINE
  5
192
330
1F
100
AcDbEntity
  8
32
  6
Continuous
 62
     4
370
    25
100
AcDbLine
 10
-14.29999750107527
 20
-92.4999994635582
 30
0.0
 11
-14.29999750107527
 21
-89.49999941885471
 31
0.0
  0
LINE
  5
193
330
1F
100
AcDbEntity
  8
32
  6
Continuous
 62
     4
370
    25
100
AcDbLine
 10
-15.29999751597643
 20
-89.49999941885471
 30
0.0
 11
-9.799997434020042
 21
-89.49999941885471
 31
0.0
  0
LINE
  5
194
330
1F
100
AcDbEntity
  8
32
  6
Continuous
 62
     4
370
    25
100
AcDbLine
 10
-3.633327115078714
 20
-87.49999938905239
 30
0.0
 11
2.366672974328253
 21
-87.49999938905239
 31
0.0
  0
LINE
  5
195
330
1F
100
AcDbEntity
  8
32
  6
Continuous
 62
     4
370
    25
100
AcDbLine
 10
1.066672954956744
 20
-89.49999941885471
 30
0.0
 11
1.366672959427092
 21
-87.49999938905239
 31
0.0
  0
LINE
  5
196
330
1F
100
AcDbEntity
  8
32
  6
Continuous
 62
     4
370
    25
100
AcDbLine
 10
1.066672954956744
 20
-89.49999941885471
 30
0.0
 11
1.66667296389744
 21
-89.49999941885471
 31
0.0
  0
LINE
  5
197
330
1F
100
AcDbEntity
  8
32
  6
Continuous
 62
     4
370
    25
100
AcDbLine
 10
1.66667296389744
 20
-89.49999941885471
 30
0.0
 11
1.366672959427092
 21
-87.49999938905239
 31
0.0
  0
LINE
  5
198
330
1F
100
AcDbEntity
  8
32
  6
Continuous
 62
     4
370
    25
100
AcDbLine
 10
1.366672959427092
 20
-98.16669952968806
 30
0.0
 11
1.366672959427092
 21
-87.49999938905239
 31
0.0
  0
LINE
  5
199
330
1F
100
AcDbEntity
  8
32
  6
Continuous
 62
     4
370
    25
100
AcDbLine
 10
1.366672959427092
 20
-98.16669952968806
 30
0.0
 11
1.066672954956744
 21
-96.16669949988574
 31
0.0
  0
LINE
  5
19A
330
1F
100
AcDbEntity
  8
32
  6
Continuous
 62
     4
370
    25
100
AcDbLine
 10
1.066672954956744
 20
-96.16669949988574
 30
0.0
 11
1.66667296389744
 21
-96.16669949988574
 31
0.0
  0
LINE
  5
19B
330
1F
100
AcDbEntity
  8
32
  6
Continuous
 62
     4
370
    25
100
AcDbLine
 10
1.66667296389744
 20
-96.16669949988574
 30
0.0
 11
1.366672959427092
 21
-98.16669952968806
 31
0.0
  0
LINE
  5
19C
330
1F
100
AcDbEntity
  8
32
  6
Continuous
 62
     4
370
    25
100
AcDbLine
 10
-5.633327144881036
 20
-98.16669952968806
 30
0.0
 11
2.366672974328253
 21
-98.16669952968806
 31
0.0
  0
LINE
  5
19D
330
1F
100
AcDbEntity
  8
32
  6
Continuous
 62
     4
370
    25
100
AcDbLine
 10
-8.133327372868806
 20
-103.6666996116444
 30
0.0
 11
-8.133327372868806
 21
-98.66669953713864
 31
0.0
  0
LINE
  5
19E
330
1F
100
AcDbEntity
  8
32
  6
Continuous
 62
     4
370
    25
100
AcDbLine
 10
-8.133327372868806
 20
-102.6666995967433
 30
0.0
 11
-10.13332740267113
 21
-102.3666995922729
 31
0.0
  0
LINE
  5
19F
330
1F
100
AcDbEntity
  8
32
  6
Continuous
 62
     4
370
    25
100
AcDbLine
 10
-10.13332740267113
 20
-102.9666996012136
 30
0.0
 11
-10.13332740267113
 21
-102.3666995922729
 31
0.0
  0
LINE
  5
1A0
330
1F
100
AcDbEntity
  8
32
  6
Continuous
 62
     4
370
    25
100
AcDbLine
 10
-10.13332740267113
 20
-102.9666996012136
 30
0.0
 11
-8.133327372868806
 21
-102.6666995967433
 31
0.0
  0
LINE
  5
1A1
330
1F
100
AcDbEntity
  8
32
  6
Continuous
 62
     4
370
    25
100
AcDbLine
 10
-11.13332741757229
 20
-102.6666995967433
 30
0.0
 11
-8.133327372868806
 21
-102.6666995967433
 31
0.0
  0
LINE
  5
1A2
330
1F
100
AcDbEntity
  8
32
  6
Continuous
 62
     4
370
    25
100
AcDbLine
 10
-8.133327372868806
 20
-102.6666995967433
 30
0.0
 11
-6.799997389316559
 21
-102.6666995967433
 31
0.0
  0
LINE
  5
1A3
330
1F
100
AcDbEntity
  8
32
  6
Continuous
 62
     4
370
    25
100
AcDbLine
 10
-6.799997389316559
 20
-102.6666995967433
 30
0.0
 11
-4.799997359514236
 21
-102.3666995922729
 31
0.0
  0
LINE
  5
1A4
330
1F
100
AcDbEntity
  8
32
  6
Continuous
 62
     4
370
    25
100
AcDbLine
 10
-4.799997359514236
 20
-102.9666996012136
 30
0.0
 11
-4.799997359514236
 21
-102.3666995922729
 31
0.0
  0
LINE
  5
1A5
330
1F
100
AcDbEntity
  8
32
  6
Continuous
 62
     4
370
    25
100
AcDbLine
 10
-4.799997359514236
 20
-102.9666996012136
 30
0.0
 11
-6.799997389316559
 21
-102.6666995967433
 31
0.0
  0
LINE
  5
1A6
330
1F
100
AcDbEntity
  8
32
  6
Continuous
 62
     4
370
    25
100
AcDbLine
 10
-6.799997389316559
 20
-102.6666995967433
 30
0.0
 11
-3.799997344613075
 21
-102.6666995967433
 31
0.0
  0
LINE
  5
1A7
330
1F
100
AcDbEntity
  8
32
  6
Continuous
 62
     4
370
    25
100
AcDbLine
 10
-6.799997389316559
 20
-103.6666996116444
 30
0.0
 11
-6.799997389316559
 21
-98.66669953713864
 31
0.0
  0
TEXT
  5
1A8
330
1F
100
AcDbEntity
  8
32
 62
     2
100
AcDbText
 10
-10.46666748
 20
-82.69999932
 30
0.0
 40
2.0
  1
12.5
 41
0.7500000028125
  7
dcStyle0
 72
     5
 11
-4.46666739
 21
-82.69999932
 31
0.0
100
AcDbText
  0
TEXT
  5
1A9
330
1F
100
AcDbEntity
  8
32
 62
     2
100
AcDbText
 10
-20.73333748
 20
-77.99999925
 30
0.0
 40
2.0
  1
ｾﾗﾐｯｸ
 41
0.7500000029999999
  7
dcStyle0
 72
     5
 11
-13.23333736
 21
-77.99999925
 31
0.0
100
AcDbText
  0
TEXT
  5
1AA
330
1F
100
AcDbEntity
  8
32
 62
     2
100
AcDbText
 10
-0.59966294
 20
-77.66663018
 30
0.0
 40
2.0
  1
剥離防止
 41
0.625000003515625
  7
dcStyle0
 72
     5
 11
5.40033715
 21
-77.66663018
 31
0.0
100
AcDbText
  0
TEXT
  5
1AB
330
1F
100
AcDbEntity
  8
32
 62
     2
100
AcDbText
 10
-0.7663327900000008
 20
-80.16663022
 30
0.0
 40
2.0
  1
スプリング
 41
0.5416666697222222
  7
dcStyle0
 72
     5
 11
5.73366729
 21
-80.16663022
 31
0.0
100
AcDbText
  0
TEXT
  5
1AC
330
1F
100
AcDbEntity
  8
32
 62
     2
100
AcDbText
 10
-8.96665735
 20
-76.99999923
 30
0.0
 40
2.0
  1
20
 41
0.7500000025
  7
dcStyle0
 72
     5
 11
-5.96665731
 21
-76.99999923
 31
0.0
100
AcDbText
  0
TEXT
  5
1AD
330
1F
100
AcDbEntity
  8
32
 62
     2
100
AcDbText
 10
-15.59999751759617
 20
-90.4999994267949
 30
0.0
 40
2.0
  1
6.5
 50
90.0000001836389
 41
0.7500000025000009
  7
dcStyle0
 72
     5
 11
-15.59999753201914
 21
-85.9999993667949
 31
0.0
100
AcDbText
  0
TEXT
  5
1AE
330
1F
100
AcDbEntity
  8
32
 62
     2
100
AcDbText
 10
0.8666729524038275
 20
-95.8333695267949
 30
0.0
 40
2.0
  1
 32 
 50
90.0000001836389
 41
0.7500000028125
  7
dcStyle0
 72
     5
 11
0.8666729331732065
 21
-89.8333694367949
 31
0.0
100
AcDbText
  0
TEXT
  5
1AF
330
1F
100
AcDbEntity
  8
32
 62
     2
100
AcDbText
 10
-6.79999739
 20
-101.96669959
 30
0.0
 40
2.0
  1
 4.5 
 41
0.750000003
  7
dcStyle0
 72
     5
 11
0.7000027300000005
 21
-101.96669959
 31
0.0
100
AcDbText
  0
LINE
  5
1B0
330
1F
100
AcDbEntity
  8
16
  6
Continuous
 62
     3
370
    25
100
AcDbLine
 10
-182.0
 20
-128.5
 30
0.0
 11
-178.9999999552965
 21
-128.5
 31
0.0
  0
LINE
  5
1B1
330
1F
100
AcDbEntity
  8
16
  6
Continuous
 62
     3
370
    25
100
AcDbLine
 10
-178.9999999552965
 20
-128.5
 30
0.0
 11
-178.9999999552965
 21
-125.4999999552965
 31
0.0
  0
LINE
  5
1B2
330
1F
100
AcDbEntity
  8
16
  6
Continuous
 62
     3
370
    25
100
AcDbLine
 10
-182.0
 20
-125.4999999552965
 30
0.0
 11
-178.9999999552965
 21
-125.4999999552965
 31
0.0
  0
LINE
  5
1B3
330
1F
100
AcDbEntity
  8
16
  6
Continuous
 62
     3
370
    25
100
AcDbLine
 10
-182.0
 20
-128.5
 30
0.0
 11
-182.0
 21
-125.4999999552965
 31
0.0
  0
LINE
  5
1B4
330
1F
100
AcDbEntity
  8
16
  6
Continuous
 62
     3
370
    25
100
AcDbLine
 10
-182.0
 20
-128.5
 30
0.0
 11
-178.9999999552965
 21
-128.5
 31
0.0
  0
LINE
  5
1B5
330
1F
100
AcDbEntity
  8
16
  6
Continuous
 62
     3
370
    25
100
AcDbLine
 10
-178.9999999552965
 20
-128.5
 30
0.0
 11
-178.9999999552965
 21
-125.4999999552965
 31
0.0
  0
LINE
  5
1B6
330
1F
100
AcDbEntity
  8
16
  6
Continuous
 62
     3
370
    25
100
AcDbLine
 10
-182.0
 20
-125.4999999552965
 30
0.0
 11
-178.9999999552965
 21
-125.4999999552965
 31
0.0
  0
LINE
  5
1B7
330
1F
100
AcDbEntity
  8
16
  6
Continuous
 62
     3
370
    25
100
AcDbLine
 10
-182.0
 20
-128.5
 30
0.0
 11
-182.0
 21
-125.4999999552965
 31
0.0
  0
LINE
  5
1B8
330
1F
100
AcDbEntity
  8
16
  6
Continuous
 62
     3
370
    25
100
AcDbLine
 10
-182.0
 20
-128.5
 30
0.0
 11
-178.9999999552965
 21
-128.5
 31
0.0
  0
LINE
  5
1B9
330
1F
100
AcDbEntity
  8
16
  6
Continuous
 62
     3
370
    25
100
AcDbLine
 10
-178.9999999552965
 20
-128.5
 30
0.0
 11
-178.9999999552965
 21
-125.4999999552965
 31
0.0
  0
LINE
  5
1BA
330
1F
100
AcDbEntity
  8
16
  6
Continuous
 62
     3
370
    25
100
AcDbLine
 10
-182.0
 20
-125.4999999552965
 30
0.0
 11
-178.9999999552965
 21
-125.4999999552965
 31
0.0
  0
LINE
  5
1BB
330
1F
100
AcDbEntity
  8
16
  6
Continuous
 62
     3
370
    25
100
AcDbLine
 10
-182.0
 20
-128.5
 30
0.0
 11
-182.0
 21
-125.4999999552965
 31
0.0
  0
LINE
  5
1BC
330
1F
100
AcDbEntity
  8
16
  6
Continuous
 62
     3
370
    25
100
AcDbLine
 10
-182.0
 20
-128.5
 30
0.0
 11
-178.9999999552965
 21
-128.5
 31
0.0
  0
LINE
  5
1BD
330
1F
100
AcDbEntity
  8
16
  6
Continuous
 62
     3
370
    25
100
AcDbLine
 10
-178.9999999552965
 20
-128.5
 30
0.0
 11
-178.9999999552965
 21
-125.4999999552965
 31
0.0
  0
LINE
  5
1BE
330
1F
100
AcDbEntity
  8
16
  6
Continuous
 62
     3
370
    25
100
AcDbLine
 10
-182.0
 20
-125.4999999552965
 30
0.0
 11
-178.9999999552965
 21
-125.4999999552965
 31
0.0
  0
LINE
  5
1BF
330
1F
100
AcDbEntity
  8
16
  6
Continuous
 62
     3
370
    25
100
AcDbLine
 10
-182.0
 20
-128.5
 30
0.0
 11
-182.0
 21
-125.4999999552965
 31
0.0
  0
LINE
  5
1C0
330
1F
100
AcDbEntity
  8
16
  6
Continuous
 62
     3
370
    25
100
AcDbLine
 10
-182.0
 20
-128.5
 30
0.0
 11
-178.9999999552965
 21
-128.5
 31
0.0
  0
LINE
  5
1C1
330
1F
100
AcDbEntity
  8
16
  6
Continuous
 62
     3
370
    25
100
AcDbLine
 10
-178.9999999552965
 20
-128.5
 30
0.0
 11
-178.9999999552965
 21
-125.4999999552965
 31
0.0
  0
LINE
  5
1C2
330
1F
100
AcDbEntity
  8
16
  6
Continuous
 62
     3
370
    25
100
AcDbLine
 10
-182.0
 20
-125.4999999552965
 30
0.0
 11
-178.9999999552965
 21
-125.4999999552965
 31
0.0
  0
LINE
  5
1C3
330
1F
100
AcDbEntity
  8
16
  6
Continuous
 62
     3
370
    25
100
AcDbLine
 10
-182.0
 20
-128.5
 30
0.0
 11
-182.0
 21
-125.4999999552965
 31
0.0
  0
LINE
  5
1C4
330
1F
100
AcDbEntity
  8
16
  6
Continuous
 62
     3
370
    25
100
AcDbLine
 10
-142.1999994069338
 20
52.40000269562006
 30
0.0
 11
-43.39999793469907
 21
52.40000269562006
 31
0.0
  0
LINE
  5
1C5
330
1F
100
AcDbEntity
  8
16
  6
Continuous
 62
     3
370
    25
100
AcDbLine
 10
-43.39999793469907
 20
51.50000268220901
 30
0.0
 11
-43.39999793469907
 21
52.40000269562006
 31
0.0
  0
LINE
  5
1C6
330
1F
100
AcDbEntity
  8
16
  6
Continuous
 62
     3
370
    25
100
AcDbLine
 10
-142.1999994069338
 20
51.50000268220901
 30
0.0
 11
-43.39999793469907
 21
51.50000268220901
 31
0.0
  0
LINE
  5
1C7
330
1F
100
AcDbEntity
  8
16
  6
Continuous
 62
     3
370
    25
100
AcDbLine
 10
-142.1999994069338
 20
51.50000268220901
 30
0.0
 11
-142.1999994069338
 21
52.40000269562006
 31
0.0
  0
LINE
  5
1C8
330
1F
100
AcDbEntity
  8
16
  6
Continuous
 62
     3
370
    25
100
AcDbLine
 10
-142.1999994069338
 20
-18.6999983638525
 30
0.0
 11
-43.39999793469907
 21
-18.6999983638525
 31
0.0
  0
LINE
  5
1C9
330
1F
100
AcDbEntity
  8
16
  6
Continuous
 62
     3
370
    25
100
AcDbLine
 10
-43.39999793469907
 20
-19.59999837726355
 30
0.0
 11
-43.39999793469907
 21
-18.6999983638525
 31
0.0
  0
LINE
  5
1CA
330
1F
100
AcDbEntity
  8
16
  6
Continuous
 62
     3
370
    25
100
AcDbLine
 10
-142.1999994069338
 20
-19.59999837726355
 30
0.0
 11
-43.39999793469907
 21
-19.59999837726355
 31
0.0
  0
LINE
  5
1CB
330
1F
100
AcDbEntity
  8
16
  6
Continuous
 62
     3
370
    25
100
AcDbLine
 10
-142.1999994069338
 20
-19.59999837726355
 30
0.0
 11
-142.1999994069338
 21
-18.6999983638525
 31
0.0
  0
LINE
  5
1CC
330
1F
100
AcDbEntity
  8
16
  6
Continuous
 62
     3
370
    25
100
AcDbLine
 10
-138.1999993473291
 20
37.10000246763229
 30
0.0
 11
-136.6199993047119
 21
37.10000246763229
 31
0.0
  0
LINE
  5
1CD
330
1F
100
AcDbEntity
  8
16
  6
Continuous
 62
     3
370
    25
100
AcDbLine
 10
-132.6200004848838
 20
37.10000246763229
 30
0.0
 11
-131.0400004422665
 21
37.10000246763229
 31
0.0
  0
LINE
  5
1CE
330
1F
100
AcDbEntity
  8
16
  6
Continuous
 62
     3
370
    25
100
AcDbLine
 10
-127.0400016224384
 20
37.10000246763229
 30
0.0
 11
-125.4600015798211
 21
37.10000246763229
 31
0.0
  0
LINE
  5
1CF
330
1F
100
AcDbEntity
  8
16
  6
Continuous
 62
     3
370
    25
100
AcDbLine
 10
-121.4599966564774
 20
37.10000246763229
 30
0.0
 11
-119.8799966138601
 21
37.10000246763229
 31
0.0
  0
LINE
  5
1D0
330
1F
100
AcDbEntity
  8
16
  6
Continuous
 62
     3
370
    25
100
AcDbLine
 10
-115.8799977940321
 20
37.10000246763229
 30
0.0
 11
-114.2999977514147
 21
37.10000246763229
 31
0.0
  0
LINE
  5
1D1
330
1F
100
AcDbEntity
  8
16
  6
Continuous
 62
     3
370
    25
100
AcDbLine
 10
-110.2999989315867
 20
37.10000246763229
 30
0.0
 11
-108.7199988889694
 21
37.10000246763229
 31
0.0
  0
LINE
  5
1D2
330
1F
100
AcDbEntity
  8
16
  6
Continuous
 62
     3
370
    25
100
AcDbLine
 10
-104.7200000691414
 20
37.10000246763229
 30
0.0
 11
-103.1400000265241
 21
37.10000246763229
 31
0.0
  0
LINE
  5
1D3
330
1F
100
AcDbEntity
  8
16
  6
Continuous
 62
     3
370
    25
100
AcDbLine
 10
-99.14000120669608
 20
37.10000246763229
 30
0.0
 11
-97.56000116407876
 21
37.10000246763229
 31
0.0
  0
LINE
  5
1D4
330
1F
100
AcDbEntity
  8
16
  6
Continuous
 62
     3
370
    25
100
AcDbLine
 10
-93.55999624073503
 20
37.10000246763229
 30
0.0
 11
-91.9799961981177
 21
37.10000246763229
 31
0.0
  0
LINE
  5
1D5
330
1F
100
AcDbEntity
  8
16
  6
Continuous
 62
     3
370
    25
100
AcDbLine
 10
-87.9799973782897
 20
37.10000246763229
 30
0.0
 11
-86.39999733567238
 21
37.10000246763229
 31
0.0
  0
LINE
  5
1D6
330
1F
100
AcDbEntity
  8
16
  6
Continuous
 62
     3
370
    25
100
AcDbLine
 10
-82.39999851584436
 20
37.10000246763229
 30
0.0
 11
-80.81999847322703
 21
37.10000246763229
 31
0.0
  0
LINE
  5
1D7
330
1F
100
AcDbEntity
  8
16
  6
Continuous
 62
     3
370
    25
100
AcDbLine
 10
-76.8199935498833
 20
37.10000246763229
 30
0.0
 11
-75.23999350726599
 21
37.10000246763229
 31
0.0
  0
LINE
  5
1D8
330
1F
100
AcDbEntity
  8
16
  6
Continuous
 62
     3
370
    25
100
AcDbLine
 10
-71.24000079095369
 20
37.10000246763229
 30
0.0
 11
-69.66000074833637
 21
37.10000246763229
 31
0.0
  0
LINE
  5
1D9
330
1F
100
AcDbEntity
  8
16
  6
Continuous
 62
     3
370
    25
100
AcDbLine
 10
-65.65999582499263
 20
37.10000246763229
 30
0.0
 11
-64.07999578237532
 21
37.10000246763229
 31
0.0
  0
LINE
  5
1DA
330
1F
100
AcDbEntity
  8
16
  6
Continuous
 62
     3
370
    25
100
AcDbLine
 10
-60.08000306606301
 20
37.10000246763229
 30
0.0
 11
-58.5000030234457
 21
37.10000246763229
 31
0.0
  0
LINE
  5
1DB
330
1F
100
AcDbEntity
  8
16
  6
Continuous
 62
     3
370
    25
100
AcDbLine
 10
-54.49999810010195
 20
37.10000246763229
 30
0.0
 11
-52.91999805748463
 21
37.10000246763229
 31
0.0
  0
LINE
  5
1DC
330
1F
100
AcDbEntity
  8
16
  6
Continuous
 62
     3
370
    25
100
AcDbLine
 10
-48.9199931341409
 20
37.10000246763229
 30
0.0
 11
-47.39999112784853
 21
37.10000246763229
 31
0.0
  0
LINE
  5
1DD
330
1F
100
AcDbEntity
  8
16
  6
Continuous
 62
     3
370
    25
100
AcDbLine
 10
-138.1999993473291
 20
35.70000244677067
 30
0.0
 11
-136.6199993047119
 21
35.70000244677067
 31
0.0
  0
LINE
  5
1DE
330
1F
100
AcDbEntity
  8
16
  6
Continuous
 62
     3
370
    25
100
AcDbLine
 10
-132.6200004848838
 20
35.70000244677067
 30
0.0
 11
-131.0400004422665
 21
35.70000244677067
 31
0.0
  0
LINE
  5
1DF
330
1F
100
AcDbEntity
  8
16
  6
Continuous
 62
     3
370
    25
100
AcDbLine
 10
-127.0400016224384
 20
35.70000244677067
 30
0.0
 11
-125.4600015798211
 21
35.70000244677067
 31
0.0
  0
LINE
  5
1E0
330
1F
100
AcDbEntity
  8
16
  6
Continuous
 62
     3
370
    25
100
AcDbLine
 10
-121.4599966564774
 20
35.70000244677067
 30
0.0
 11
-119.8799966138601
 21
35.70000244677067
 31
0.0
  0
LINE
  5
1E1
330
1F
100
AcDbEntity
  8
16
  6
Continuous
 62
     3
370
    25
100
AcDbLine
 10
-115.8799977940321
 20
35.70000244677067
 30
0.0
 11
-114.2999977514147
 21
35.70000244677067
 31
0.0
  0
LINE
  5
1E2
330
1F
100
AcDbEntity
  8
16
  6
Continuous
 62
     3
370
    25
100
AcDbLine
 10
-110.2999989315867
 20
35.70000244677067
 30
0.0
 11
-108.7199988889694
 21
35.70000244677067
 31
0.0
  0
LINE
  5
1E3
330
1F
100
AcDbEntity
  8
16
  6
Continuous
 62
     3
370
    25
100
AcDbLine
 10
-104.7200000691414
 20
35.70000244677067
 30
0.0
 11
-103.1400000265241
 21
35.70000244677067
 31
0.0
  0
LINE
  5
1E4
330
1F
100
AcDbEntity
  8
16
  6
Continuous
 62
     3
370
    25
100
AcDbLine
 10
-99.14000120669608
 20
35.70000244677067
 30
0.0
 11
-97.56000116407876
 21
35.70000244677067
 31
0.0
  0
LINE
  5
1E5
330
1F
100
AcDbEntity
  8
16
  6
Continuous
 62
     3
370
    25
100
AcDbLine
 10
-93.55999624073503
 20
35.70000244677067
 30
0.0
 11
-91.9799961981177
 21
35.70000244677067
 31
0.0
  0
LINE
  5
1E6
330
1F
100
AcDbEntity
  8
16
  6
Continuous
 62
     3
370
    25
100
AcDbLine
 10
-87.9799973782897
 20
35.70000244677067
 30
0.0
 11
-86.39999733567238
 21
35.70000244677067
 31
0.0
  0
LINE
  5
1E7
330
1F
100
AcDbEntity
  8
16
  6
Continuous
 62
     3
370
    25
100
AcDbLine
 10
-82.39999851584436
 20
35.70000244677067
 30
0.0
 11
-80.81999847322703
 21
35.70000244677067
 31
0.0
  0
LINE
  5
1E8
330
1F
100
AcDbEntity
  8
16
  6
Continuous
 62
     3
370
    25
100
AcDbLine
 10
-76.8199935498833
 20
35.70000244677067
 30
0.0
 11
-75.23999350726599
 21
35.70000244677067
 31
0.0
  0
LINE
  5
1E9
330
1F
100
AcDbEntity
  8
16
  6
Continuous
 62
     3
370
    25
100
AcDbLine
 10
-71.24000079095369
 20
35.70000244677067
 30
0.0
 11
-69.66000074833637
 21
35.70000244677067
 31
0.0
  0
LINE
  5
1EA
330
1F
100
AcDbEntity
  8
16
  6
Continuous
 62
     3
370
    25
100
AcDbLine
 10
-65.65999582499263
 20
35.70000244677067
 30
0.0
 11
-64.07999578237532
 21
35.70000244677067
 31
0.0
  0
LINE
  5
1EB
330
1F
100
AcDbEntity
  8
16
  6
Continuous
 62
     3
370
    25
100
AcDbLine
 10
-60.08000306606301
 20
35.70000244677067
 30
0.0
 11
-58.5000030234457
 21
35.70000244677067
 31
0.0
  0
LINE
  5
1EC
330
1F
100
AcDbEntity
  8
16
  6
Continuous
 62
     3
370
    25
100
AcDbLine
 10
-54.49999810010195
 20
35.70000244677067
 30
0.0
 11
-52.91999805748463
 21
35.70000244677067
 31
0.0
  0
LINE
  5
1ED
330
1F
100
AcDbEntity
  8
16
  6
Continuous
 62
     3
370
    25
100
AcDbLine
 10
-48.9199931341409
 20
35.70000244677067
 30
0.0
 11
-47.39999112784853
 21
35.70000244677067
 31
0.0
  0
LINE
  5
1EE
330
1F
100
AcDbEntity
  8
16
  6
Continuous
 62
     3
370
    25
100
AcDbLine
 10
-138.1999993473291
 20
17.10000216960907
 30
0.0
 11
-136.6199993047119
 21
17.10000216960907
 31
0.0
  0
LINE
  5
1EF
330
1F
100
AcDbEntity
  8
16
  6
Continuous
 62
     3
370
    25
100
AcDbLine
 10
-132.6200004848838
 20
17.10000216960907
 30
0.0
 11
-131.0400004422665
 21
17.10000216960907
 31
0.0
  0
LINE
  5
1F0
330
1F
100
AcDbEntity
  8
16
  6
Continuous
 62
     3
370
    25
100
AcDbLine
 10
-127.0400016224384
 20
17.10000216960907
 30
0.0
 11
-125.4600015798211
 21
17.10000216960907
 31
0.0
  0
LINE
  5
1F1
330
1F
100
AcDbEntity
  8
16
  6
Continuous
 62
     3
370
    25
100
AcDbLine
 10
-121.4599966564774
 20
17.10000216960907
 30
0.0
 11
-119.8799966138601
 21
17.10000216960907
 31
0.0
  0
LINE
  5
1F2
330
1F
100
AcDbEntity
  8
16
  6
Continuous
 62
     3
370
    25
100
AcDbLine
 10
-115.8799977940321
 20
17.10000216960907
 30
0.0
 11
-114.2999977514147
 21
17.10000216960907
 31
0.0
  0
LINE
  5
1F3
330
1F
100
AcDbEntity
  8
16
  6
Continuous
 62
     3
370
    25
100
AcDbLine
 10
-110.2999989315867
 20
17.10000216960907
 30
0.0
 11
-108.7199988889694
 21
17.10000216960907
 31
0.0
  0
LINE
  5
1F4
330
1F
100
AcDbEntity
  8
16
  6
Continuous
 62
     3
370
    25
100
AcDbLine
 10
-104.7200000691414
 20
17.10000216960907
 30
0.0
 11
-103.1400000265241
 21
17.10000216960907
 31
0.0
  0
LINE
  5
1F5
330
1F
100
AcDbEntity
  8
16
  6
Continuous
 62
     3
370
    25
100
AcDbLine
 10
-99.14000120669608
 20
17.10000216960907
 30
0.0
 11
-97.56000116407876
 21
17.10000216960907
 31
0.0
  0
LINE
  5
1F6
330
1F
100
AcDbEntity
  8
16
  6
Continuous
 62
     3
370
    25
100
AcDbLine
 10
-93.55999624073503
 20
17.10000216960907
 30
0.0
 11
-91.9799961981177
 21
17.10000216960907
 31
0.0
  0
LINE
  5
1F7
330
1F
100
AcDbEntity
  8
16
  6
Continuous
 62
     3
370
    25
100
AcDbLine
 10
-87.9799973782897
 20
17.10000216960907
 30
0.0
 11
-86.39999733567238
 21
17.10000216960907
 31
0.0
  0
LINE
  5
1F8
330
1F
100
AcDbEntity
  8
16
  6
Continuous
 62
     3
370
    25
100
AcDbLine
 10
-82.39999851584436
 20
17.10000216960907
 30
0.0
 11
-80.81999847322703
 21
17.10000216960907
 31
0.0
  0
LINE
  5
1F9
330
1F
100
AcDbEntity
  8
16
  6
Continuous
 62
     3
370
    25
100
AcDbLine
 10
-76.8199935498833
 20
17.10000216960907
 30
0.0
 11
-75.23999350726599
 21
17.10000216960907
 31
0.0
  0
LINE
  5
1FA
330
1F
100
AcDbEntity
  8
16
  6
Continuous
 62
     3
370
    25
100
AcDbLine
 10
-71.24000079095369
 20
17.10000216960907
 30
0.0
 11
-69.66000074833637
 21
17.10000216960907
 31
0.0
  0
LINE
  5
1FB
330
1F
100
AcDbEntity
  8
16
  6
Continuous
 62
     3
370
    25
100
AcDbLine
 10
-65.65999582499263
 20
17.10000216960907
 30
0.0
 11
-64.07999578237532
 21
17.10000216960907
 31
0.0
  0
LINE
  5
1FC
330
1F
100
AcDbEntity
  8
16
  6
Continuous
 62
     3
370
    25
100
AcDbLine
 10
-60.08000306606301
 20
17.10000216960907
 30
0.0
 11
-58.5000030234457
 21
17.10000216960907
 31
0.0
  0
LINE
  5
1FD
330
1F
100
AcDbEntity
  8
16
  6
Continuous
 62
     3
370
    25
100
AcDbLine
 10
-54.49999810010195
 20
17.10000216960907
 30
0.0
 11
-52.91999805748463
 21
17.10000216960907
 31
0.0
  0
LINE
  5
1FE
330
1F
100
AcDbEntity
  8
16
  6
Continuous
 62
     3
370
    25
100
AcDbLine
 10
-48.9199931341409
 20
17.10000216960907
 30
0.0
 11
-47.39999112784853
 21
17.10000216960907
 31
0.0
  0
LINE
  5
1FF
330
1F
100
AcDbEntity
  8
16
  6
Continuous
 62
     3
370
    25
100
AcDbLine
 10
-138.1999993473291
 20
15.70000214874745
 30
0.0
 11
-136.6199993047119
 21
15.70000214874745
 31
0.0
  0
LINE
  5
200
330
1F
100
AcDbEntity
  8
16
  6
Continuous
 62
     3
370
    25
100
AcDbLine
 10
-132.6200004848838
 20
15.70000214874745
 30
0.0
 11
-131.0400004422665
 21
15.70000214874745
 31
0.0
  0
LINE
  5
201
330
1F
100
AcDbEntity
  8
16
  6
Continuous
 62
     3
370
    25
100
AcDbLine
 10
-127.0400016224384
 20
15.70000214874745
 30
0.0
 11
-125.4600015798211
 21
15.70000214874745
 31
0.0
  0
LINE
  5
202
330
1F
100
AcDbEntity
  8
16
  6
Continuous
 62
     3
370
    25
100
AcDbLine
 10
-121.4599966564774
 20
15.70000214874745
 30
0.0
 11
-119.8799966138601
 21
15.70000214874745
 31
0.0
  0
LINE
  5
203
330
1F
100
AcDbEntity
  8
16
  6
Continuous
 62
     3
370
    25
100
AcDbLine
 10
-115.8799977940321
 20
15.70000214874745
 30
0.0
 11
-114.2999977514147
 21
15.70000214874745
 31
0.0
  0
LINE
  5
204
330
1F
100
AcDbEntity
  8
16
  6
Continuous
 62
     3
370
    25
100
AcDbLine
 10
-110.2999989315867
 20
15.70000214874745
 30
0.0
 11
-108.7199988889694
 21
15.70000214874745
 31
0.0
  0
LINE
  5
205
330
1F
100
AcDbEntity
  8
16
  6
Continuous
 62
     3
370
    25
100
AcDbLine
 10
-104.7200000691414
 20
15.70000214874745
 30
0.0
 11
-103.1400000265241
 21
15.70000214874745
 31
0.0
  0
LINE
  5
206
330
1F
100
AcDbEntity
  8
16
  6
Continuous
 62
     3
370
    25
100
AcDbLine
 10
-99.14000120669608
 20
15.70000214874745
 30
0.0
 11
-97.56000116407876
 21
15.70000214874745
 31
0.0
  0
LINE
  5
207
330
1F
100
AcDbEntity
  8
16
  6
Continuous
 62
     3
370
    25
100
AcDbLine
 10
-93.55999624073503
 20
15.70000214874745
 30
0.0
 11
-91.9799961981177
 21
15.70000214874745
 31
0.0
  0
LINE
  5
208
330
1F
100
AcDbEntity
  8
16
  6
Continuous
 62
     3
370
    25
100
AcDbLine
 10
-87.9799973782897
 20
15.70000214874745
 30
0.0
 11
-86.39999733567238
 21
15.70000214874745
 31
0.0
  0
LINE
  5
209
330
1F
100
AcDbEntity
  8
16
  6
Continuous
 62
     3
370
    25
100
AcDbLine
 10
-82.39999851584436
 20
15.70000214874745
 30
0.0
 11
-80.81999847322703
 21
15.70000214874745
 31
0.0
  0
LINE
  5
20A
330
1F
100
AcDbEntity
  8
16
  6
Continuous
 62
     3
370
    25
100
AcDbLine
 10
-76.8199935498833
 20
15.70000214874745
 30
0.0
 11
-75.23999350726599
 21
15.70000214874745
 31
0.0
  0
LINE
  5
20B
330
1F
100
AcDbEntity
  8
16
  6
Continuous
 62
     3
370
    25
100
AcDbLine
 10
-71.24000079095369
 20
15.70000214874745
 30
0.0
 11
-69.66000074833637
 21
15.70000214874745
 31
0.0
  0
LINE
  5
20C
330
1F
100
AcDbEntity
  8
16
  6
Continuous
 62
     3
370
    25
100
AcDbLine
 10
-65.65999582499263
 20
15.70000214874745
 30
0.0
 11
-64.07999578237532
 21
15.70000214874745
 31
0.0
  0
LINE
  5
20D
330
1F
100
AcDbEntity
  8
16
  6
Continuous
 62
     3
370
    25
100
AcDbLine
 10
-60.08000306606301
 20
15.70000214874745
 30
0.0
 11
-58.5000030234457
 21
15.70000214874745
 31
0.0
  0
LINE
  5
20E
330
1F
100
AcDbEntity
  8
16
  6
Continuous
 62
     3
370
    25
100
AcDbLine
 10
-54.49999810010195
 20
15.70000214874745
 30
0.0
 11
-52.91999805748463
 21
15.70000214874745
 31
0.0
  0
LINE
  5
20F
330
1F
100
AcDbEntity
  8
16
  6
Continuous
 62
     3
370
    25
100
AcDbLine
 10
-48.9199931341409
 20
15.70000214874745
 30
0.0
 11
-47.39999112784853
 21
15.70000214874745
 31
0.0
  0
LINE
  5
210
330
1F
100
AcDbEntity
  8
16
  6
Continuous
 62
     3
370
    25
100
AcDbLine
 10
-138.1999993473291
 20
-2.899998128414154
 30
0.0
 11
-136.6199993047119
 21
-2.899998128414154
 31
0.0
  0
LINE
  5
211
330
1F
100
AcDbEntity
  8
16
  6
Continuous
 62
     3
370
    25
100
AcDbLine
 10
-132.6200004848838
 20
-2.899998128414154
 30
0.0
 11
-131.0400004422665
 21
-2.899998128414154
 31
0.0
  0
LINE
  5
212
330
1F
100
AcDbEntity
  8
16
  6
Continuous
 62
     3
370
    25
100
AcDbLine
 10
-127.0400016224384
 20
-2.899998128414154
 30
0.0
 11
-125.4600015798211
 21
-2.899998128414154
 31
0.0
  0
LINE
  5
213
330
1F
100
AcDbEntity
  8
16
  6
Continuous
 62
     3
370
    25
100
AcDbLine
 10
-121.4599966564774
 20
-2.899998128414154
 30
0.0
 11
-119.8799966138601
 21
-2.899998128414154
 31
0.0
  0
LINE
  5
214
330
1F
100
AcDbEntity
  8
16
  6
Continuous
 62
     3
370
    25
100
AcDbLine
 10
-115.8799977940321
 20
-2.899998128414154
 30
0.0
 11
-114.2999977514147
 21
-2.899998128414154
 31
0.0
  0
LINE
  5
215
330
1F
100
AcDbEntity
  8
16
  6
Continuous
 62
     3
370
    25
100
AcDbLine
 10
-110.2999989315867
 20
-2.899998128414154
 30
0.0
 11
-108.7199988889694
 21
-2.899998128414154
 31
0.0
  0
LINE
  5
216
330
1F
100
AcDbEntity
  8
16
  6
Continuous
 62
     3
370
    25
100
AcDbLine
 10
-104.7200000691414
 20
-2.899998128414154
 30
0.0
 11
-103.1400000265241
 21
-2.899998128414154
 31
0.0
  0
LINE
  5
217
330
1F
100
AcDbEntity
  8
16
  6
Continuous
 62
     3
370
    25
100
AcDbLine
 10
-99.14000120669608
 20
-2.899998128414154
 30
0.0
 11
-97.56000116407876
 21
-2.899998128414154
 31
0.0
  0
LINE
  5
218
330
1F
100
AcDbEntity
  8
16
  6
Continuous
 62
     3
370
    25
100
AcDbLine
 10
-93.55999624073503
 20
-2.899998128414154
 30
0.0
 11
-91.9799961981177
 21
-2.899998128414154
 31
0.0
  0
LINE
  5
219
330
1F
100
AcDbEntity
  8
16
  6
Continuous
 62
     3
370
    25
100
AcDbLine
 10
-87.9799973782897
 20
-2.899998128414154
 30
0.0
 11
-86.39999733567238
 21
-2.899998128414154
 31
0.0
  0
LINE
  5
21A
330
1F
100
AcDbEntity
  8
16
  6
Continuous
 62
     3
370
    25
100
AcDbLine
 10
-82.39999851584436
 20
-2.899998128414154
 30
0.0
 11
-80.81999847322703
 21
-2.899998128414154
 31
0.0
  0
LINE
  5
21B
330
1F
100
AcDbEntity
  8
16
  6
Continuous
 62
     3
370
    25
100
AcDbLine
 10
-76.8199935498833
 20
-2.899998128414154
 30
0.0
 11
-75.23999350726599
 21
-2.899998128414154
 31
0.0
  0
LINE
  5
21C
330
1F
100
AcDbEntity
  8
16
  6
Continuous
 62
     3
370
    25
100
AcDbLine
 10
-71.24000079095369
 20
-2.899998128414154
 30
0.0
 11
-69.66000074833637
 21
-2.899998128414154
 31
0.0
  0
LINE
  5
21D
330
1F
100
AcDbEntity
  8
16
  6
Continuous
 62
     3
370
    25
100
AcDbLine
 10
-65.65999582499263
 20
-2.899998128414154
 30
0.0
 11
-64.07999578237532
 21
-2.899998128414154
 31
0.0
  0
LINE
  5
21E
330
1F
100
AcDbEntity
  8
16
  6
Continuous
 62
     3
370
    25
100
AcDbLine
 10
-60.08000306606301
 20
-2.899998128414154
 30
0.0
 11
-58.5000030234457
 21
-2.899998128414154
 31
0.0
  0
LINE
  5
21F
330
1F
100
AcDbEntity
  8
16
  6
Continuous
 62
     3
370
    25
100
AcDbLine
 10
-54.49999810010195
 20
-2.899998128414154
 30
0.0
 11
-52.91999805748463
 21
-2.899998128414154
 31
0.0
  0
LINE
  5
220
330
1F
100
AcDbEntity
  8
16
  6
Continuous
 62
     3
370
    25
100
AcDbLine
 10
-48.9199931341409
 20
-2.899998128414154
 30
0.0
 11
-47.39999112784853
 21
-2.899998128414154
 31
0.0
  0
LINE
  5
221
330
1F
100
AcDbEntity
  8
16
  6
Continuous
 62
     3
370
    25
100
AcDbLine
 10
-138.1999993473291
 20
-4.29999814927578
 30
0.0
 11
-136.6199993047119
 21
-4.29999814927578
 31
0.0
  0
LINE
  5
222
330
1F
100
AcDbEntity
  8
16
  6
Continuous
 62
     3
370
    25
100
AcDbLine
 10
-132.6200004848838
 20
-4.29999814927578
 30
0.0
 11
-131.0400004422665
 21
-4.29999814927578
 31
0.0
  0
LINE
  5
223
330
1F
100
AcDbEntity
  8
16
  6
Continuous
 62
     3
370
    25
100
AcDbLine
 10
-127.0400016224384
 20
-4.29999814927578
 30
0.0
 11
-125.4600015798211
 21
-4.29999814927578
 31
0.0
  0
LINE
  5
224
330
1F
100
AcDbEntity
  8
16
  6
Continuous
 62
     3
370
    25
100
AcDbLine
 10
-121.4599966564774
 20
-4.29999814927578
 30
0.0
 11
-119.8799966138601
 21
-4.29999814927578
 31
0.0
  0
LINE
  5
225
330
1F
100
AcDbEntity
  8
16
  6
Continuous
 62
     3
370
    25
100
AcDbLine
 10
-115.8799977940321
 20
-4.29999814927578
 30
0.0
 11
-114.2999977514147
 21
-4.29999814927578
 31
0.0
  0
LINE
  5
226
330
1F
100
AcDbEntity
  8
16
  6
Continuous
 62
     3
370
    25
100
AcDbLine
 10
-110.2999989315867
 20
-4.29999814927578
 30
0.0
 11
-108.7199988889694
 21
-4.29999814927578
 31
0.0
  0
LINE
  5
227
330
1F
100
AcDbEntity
  8
16
  6
Continuous
 62
     3
370
    25
100
AcDbLine
 10
-104.7200000691414
 20
-4.29999814927578
 30
0.0
 11
-103.1400000265241
 21
-4.29999814927578
 31
0.0
  0
LINE
  5
228
330
1F
100
AcDbEntity
  8
16
  6
Continuous
 62
     3
370
    25
100
AcDbLine
 10
-99.14000120669608
 20
-4.29999814927578
 30
0.0
 11
-97.56000116407876
 21
-4.29999814927578
 31
0.0
  0
LINE
  5
229
330
1F
100
AcDbEntity
  8
16
  6
Continuous
 62
     3
370
    25
100
AcDbLine
 10
-93.55999624073503
 20
-4.29999814927578
 30
0.0
 11
-91.9799961981177
 21
-4.29999814927578
 31
0.0
  0
LINE
  5
22A
330
1F
100
AcDbEntity
  8
16
  6
Continuous
 62
     3
370
    25
100
AcDbLine
 10
-87.9799973782897
 20
-4.29999814927578
 30
0.0
 11
-86.39999733567238
 21
-4.29999814927578
 31
0.0
  0
LINE
  5
22B
330
1F
100
AcDbEntity
  8
16
  6
Continuous
 62
     3
370
    25
100
AcDbLine
 10
-82.39999851584436
 20
-4.29999814927578
 30
0.0
 11
-80.81999847322703
 21
-4.29999814927578
 31
0.0
  0
LINE
  5
22C
330
1F
100
AcDbEntity
  8
16
  6
Continuous
 62
     3
370
    25
100
AcDbLine
 10
-76.8199935498833
 20
-4.29999814927578
 30
0.0
 11
-75.23999350726599
 21
-4.29999814927578
 31
0.0
  0
LINE
  5
22D
330
1F
100
AcDbEntity
  8
16
  6
Continuous
 62
     3
370
    25
100
AcDbLine
 10
-71.24000079095369
 20
-4.29999814927578
 30
0.0
 11
-69.66000074833637
 21
-4.29999814927578
 31
0.0
  0
LINE
  5
22E
330
1F
100
AcDbEntity
  8
16
  6
Continuous
 62
     3
370
    25
100
AcDbLine
 10
-65.65999582499263
 20
-4.29999814927578
 30
0.0
 11
-64.07999578237532
 21
-4.29999814927578
 31
0.0
  0
LINE
  5
22F
330
1F
100
AcDbEntity
  8
16
  6
Continuous
 62
     3
370
    25
100
AcDbLine
 10
-60.08000306606301
 20
-4.29999814927578
 30
0.0
 11
-58.5000030234457
 21
-4.29999814927578
 31
0.0
  0
LINE
  5
230
330
1F
100
AcDbEntity
  8
16
  6
Continuous
 62
     3
370
    25
100
AcDbLine
 10
-54.49999810010195
 20
-4.29999814927578
 30
0.0
 11
-52.91999805748463
 21
-4.29999814927578
 31
0.0
  0
LINE
  5
231
330
1F
100
AcDbEntity
  8
16
  6
Continuous
 62
     3
370
    25
100
AcDbLine
 10
-48.9199931341409
 20
-4.29999814927578
 30
0.0
 11
-47.39999112784853
 21
-4.29999814927578
 31
0.0
  0
LINE
  5
232
330
1F
100
AcDbEntity
  8
16
  6
Continuous
 62
     3
370
    25
100
AcDbLine
 10
-142.1999994069338
 20
-18.6999983638525
 30
0.0
 11
-142.1999994069338
 21
51.50000268220901
 31
0.0
  0
LINE
  5
233
330
1F
100
AcDbEntity
  8
16
  6
Continuous
 62
     3
370
    25
100
AcDbLine
 10
-142.1999994069338
 20
-18.6999983638525
 30
0.0
 11
-138.1999993473291
 21
-18.6999983638525
 31
0.0
  0
LINE
  5
234
330
1F
100
AcDbEntity
  8
16
  6
Continuous
 62
     3
370
    25
100
AcDbLine
 10
-138.1999993473291
 20
-18.6999983638525
 30
0.0
 11
-138.1999993473291
 21
51.50000268220901
 31
0.0
  0
LINE
  5
235
330
1F
100
AcDbEntity
  8
16
  6
Continuous
 62
     3
370
    25
100
AcDbLine
 10
-142.1999994069338
 20
51.50000268220901
 30
0.0
 11
-138.1999993473291
 21
51.50000268220901
 31
0.0
  0
LINE
  5
236
330
1F
100
AcDbEntity
  8
16
  6
Continuous
 62
     3
370
    25
100
AcDbLine
 10
-141.3999993950128
 20
-18.6999983638525
 30
0.0
 11
-141.3999993950128
 21
51.50000268220901
 31
0.0
  0
LINE
  5
237
330
1F
100
AcDbEntity
  8
16
  6
Continuous
 62
     3
370
    25
100
AcDbLine
 10
-138.9999993592501
 20
-18.6999983638525
 30
0.0
 11
-138.9999993592501
 21
51.50000268220901
 31
0.0
  0
LINE
  5
238
330
1F
100
AcDbEntity
  8
16
  6
Continuous
 62
     3
370
    25
100
AcDbLine
 10
-140.1999993771314
 20
-17.69999834895134
 30
0.0
 11
-140.1999993771314
 21
50.50000266730785
 31
0.0
  0
LINE
  5
239
330
1F
100
AcDbEntity
  8
16
  6
Continuous
 62
     3
370
    25
100
AcDbLine
 10
-136.6200005444884
 20
-18.6999983638525
 30
0.0
 11
-136.6200005444884
 21
51.50000268220901
 31
0.0
  0
LINE
  5
23A
330
1F
100
AcDbEntity
  8
16
  6
Continuous
 62
     3
370
    25
100
AcDbLine
 10
-136.6200005444884
 20
-18.6999983638525
 30
0.0
 11
-132.6200004848838
 21
-18.6999983638525
 31
0.0
  0
LINE
  5
23B
330
1F
100
AcDbEntity
  8
16
  6
Continuous
 62
     3
370
    25
100
AcDbLine
 10
-132.6200004848838
 20
-18.6999983638525
 30
0.0
 11
-132.6200004848838
 21
51.50000268220901
 31
0.0
  0
LINE
  5
23C
330
1F
100
AcDbEntity
  8
16
  6
Continuous
 62
     3
370
    25
100
AcDbLine
 10
-136.6200005444884
 20
51.50000268220901
 30
0.0
 11
-132.6200004848838
 21
51.50000268220901
 31
0.0
  0
LINE
  5
23D
330
1F
100
AcDbEntity
  8
16
  6
Continuous
 62
     3
370
    25
100
AcDbLine
 10
-135.8200005325675
 20
-18.6999983638525
 30
0.0
 11
-135.8200005325675
 21
51.50000268220901
 31
0.0
  0
LINE
  5
23E
330
1F
100
AcDbEntity
  8
16
  6
Continuous
 62
     3
370
    25
100
AcDbLine
 10
-133.4200004968047
 20
-18.6999983638525
 30
0.0
 11
-133.4200004968047
 21
51.50000268220901
 31
0.0
  0
LINE
  5
23F
330
1F
100
AcDbEntity
  8
16
  6
Continuous
 62
     3
370
    25
100
AcDbLine
 10
-134.6200005146861
 20
-17.69999834895134
 30
0.0
 11
-134.6200005146861
 21
50.50000266730785
 31
0.0
  0
LINE
  5
240
330
1F
100
AcDbEntity
  8
16
  6
Continuous
 62
     3
370
    25
100
AcDbLine
 10
-131.0400016820431
 20
-18.6999983638525
 30
0.0
 11
-131.0400016820431
 21
51.50000268220901
 31
0.0
  0
LINE
  5
241
330
1F
100
AcDbEntity
  8
16
  6
Continuous
 62
     3
370
    25
100
AcDbLine
 10
-131.0400016820431
 20
-18.6999983638525
 30
0.0
 11
-127.0400016224384
 21
-18.6999983638525
 31
0.0
  0
LINE
  5
242
330
1F
100
AcDbEntity
  8
16
  6
Continuous
 62
     3
370
    25
100
AcDbLine
 10
-127.0400016224384
 20
-18.6999983638525
 30
0.0
 11
-127.0400016224384
 21
51.50000268220901
 31
0.0
  0
LINE
  5
243
330
1F
100
AcDbEntity
  8
16
  6
Continuous
 62
     3
370
    25
100
AcDbLine
 10
-131.0400016820431
 20
51.50000268220901
 30
0.0
 11
-127.0400016224384
 21
51.50000268220901
 31
0.0
  0
LINE
  5
244
330
1F
100
AcDbEntity
  8
16
  6
Continuous
 62
     3
370
    25
100
AcDbLine
 10
-130.2400016701222
 20
-18.6999983638525
 30
0.0
 11
-130.2400016701222
 21
51.50000268220901
 31
0.0
  0
LINE
  5
245
330
1F
100
AcDbEntity
  8
16
  6
Continuous
 62
     3
370
    25
100
AcDbLine
 10
-127.8400016343594
 20
-18.6999983638525
 30
0.0
 11
-127.8400016343594
 21
51.50000268220901
 31
0.0
  0
LINE
  5
246
330
1F
100
AcDbEntity
  8
16
  6
Continuous
 62
     3
370
    25
100
AcDbLine
 10
-129.0400016522408
 20
-17.69999834895134
 30
0.0
 11
-129.0400016522408
 21
50.50000266730785
 31
0.0
  0
LINE
  5
247
330
1F
100
AcDbEntity
  8
16
  6
Continuous
 62
     3
370
    25
100
AcDbLine
 10
-125.459996716082
 20
-18.6999983638525
 30
0.0
 11
-125.459996716082
 21
51.50000268220901
 31
0.0
  0
LINE
  5
248
330
1F
100
AcDbEntity
  8
16
  6
Continuous
 62
     3
370
    25
100
AcDbLine
 10
-125.459996716082
 20
-18.6999983638525
 30
0.0
 11
-121.4599966564774
 21
-18.6999983638525
 31
0.0
  0
LINE
  5
249
330
1F
100
AcDbEntity
  8
16
  6
Continuous
 62
     3
370
    25
100
AcDbLine
 10
-121.4599966564774
 20
-18.6999983638525
 30
0.0
 11
-121.4599966564774
 21
51.50000268220901
 31
0.0
  0
LINE
  5
24A
330
1F
100
AcDbEntity
  8
16
  6
Continuous
 62
     3
370
    25
100
AcDbLine
 10
-125.459996716082
 20
51.50000268220901
 30
0.0
 11
-121.4599966564774
 21
51.50000268220901
 31
0.0
  0
LINE
  5
24B
330
1F
100
AcDbEntity
  8
16
  6
Continuous
 62
     3
370
    25
100
AcDbLine
 10
-124.6599967041611
 20
-18.6999983638525
 30
0.0
 11
-124.6599967041611
 21
51.50000268220901
 31
0.0
  0
LINE
  5
24C
330
1F
100
AcDbEntity
  8
16
  6
Continuous
 62
     3
370
    25
100
AcDbLine
 10
-122.2599966683983
 20
-18.6999983638525
 30
0.0
 11
-122.2599966683983
 21
51.50000268220901
 31
0.0
  0
LINE
  5
24D
330
1F
100
AcDbEntity
  8
16
  6
Continuous
 62
     3
370
    25
100
AcDbLine
 10
-123.4599966862797
 20
-17.69999834895134
 30
0.0
 11
-123.4599966862797
 21
50.50000266730785
 31
0.0
  0
LINE
  5
24E
330
1F
100
AcDbEntity
  8
16
  6
Continuous
 62
     3
370
    25
100
AcDbLine
 10
-119.8799978536367
 20
-18.6999983638525
 30
0.0
 11
-119.8799978536367
 21
51.50000268220901
 31
0.0
  0
LINE
  5
24F
330
1F
100
AcDbEntity
  8
16
  6
Continuous
 62
     3
370
    25
100
AcDbLine
 10
-119.8799978536367
 20
-18.6999983638525
 30
0.0
 11
-115.8799977940321
 21
-18.6999983638525
 31
0.0
  0
LINE
  5
250
330
1F
100
AcDbEntity
  8
16
  6
Continuous
 62
     3
370
    25
100
AcDbLine
 10
-115.8799977940321
 20
-18.6999983638525
 30
0.0
 11
-115.8799977940321
 21
51.50000268220901
 31
0.0
  0
LINE
  5
251
330
1F
100
AcDbEntity
  8
16
  6
Continuous
 62
     3
370
    25
100
AcDbLine
 10
-119.8799978536367
 20
51.50000268220901
 30
0.0
 11
-115.8799977940321
 21
51.50000268220901
 31
0.0
  0
LINE
  5
252
330
1F
100
AcDbEntity
  8
16
  6
Continuous
 62
     3
370
    25
100
AcDbLine
 10
-119.0799978417158
 20
-18.6999983638525
 30
0.0
 11
-119.0799978417158
 21
51.50000268220901
 31
0.0
  0
LINE
  5
253
330
1F
100
AcDbEntity
  8
16
  6
Continuous
 62
     3
370
    25
100
AcDbLine
 10
-116.679997805953
 20
-18.6999983638525
 30
0.0
 11
-116.679997805953
 21
51.50000268220901
 31
0.0
  0
LINE
  5
254
330
1F
100
AcDbEntity
  8
16
  6
Continuous
 62
     3
370
    25
100
AcDbLine
 10
-117.8799978238344
 20
-17.69999834895134
 30
0.0
 11
-117.8799978238344
 21
50.50000266730785
 31
0.0
  0
LINE
  5
255
330
1F
100
AcDbEntity
  8
16
  6
Continuous
 62
     3
370
    25
100
AcDbLine
 10
-114.2999989911914
 20
-18.6999983638525
 30
0.0
 11
-114.2999989911914
 21
51.50000268220901
 31
0.0
  0
LINE
  5
256
330
1F
100
AcDbEntity
  8
16
  6
Continuous
 62
     3
370
    25
100
AcDbLine
 10
-114.2999989911914
 20
-18.6999983638525
 30
0.0
 11
-110.2999989315867
 21
-18.6999983638525
 31
0.0
  0
LINE
  5
257
330
1F
100
AcDbEntity
  8
16
  6
Continuous
 62
     3
370
    25
100
AcDbLine
 10
-110.2999989315867
 20
-18.6999983638525
 30
0.0
 11
-110.2999989315867
 21
51.50000268220901
 31
0.0
  0
LINE
  5
258
330
1F
100
AcDbEntity
  8
16
  6
Continuous
 62
     3
370
    25
100
AcDbLine
 10
-114.2999989911914
 20
51.50000268220901
 30
0.0
 11
-110.2999989315867
 21
51.50000268220901
 31
0.0
  0
LINE
  5
259
330
1F
100
AcDbEntity
  8
16
  6
Continuous
 62
     3
370
    25
100
AcDbLine
 10
-113.4999989792704
 20
-18.6999983638525
 30
0.0
 11
-113.4999989792704
 21
51.50000268220901
 31
0.0
  0
LINE
  5
25A
330
1F
100
AcDbEntity
  8
16
  6
Continuous
 62
     3
370
    25
100
AcDbLine
 10
-111.0999989435077
 20
-18.6999983638525
 30
0.0
 11
-111.0999989435077
 21
51.50000268220901
 31
0.0
  0
LINE
  5
25B
330
1F
100
AcDbEntity
  8
16
  6
Continuous
 62
     3
370
    25
100
AcDbLine
 10
-112.2999989613891
 20
-17.69999834895134
 30
0.0
 11
-112.2999989613891
 21
50.50000266730785
 31
0.0
  0
LINE
  5
25C
330
1F
100
AcDbEntity
  8
16
  6
Continuous
 62
     3
370
    25
100
AcDbLine
 10
-108.720000128746
 20
-18.6999983638525
 30
0.0
 11
-108.720000128746
 21
51.50000268220901
 31
0.0
  0
LINE
  5
25D
330
1F
100
AcDbEntity
  8
16
  6
Continuous
 62
     3
370
    25
100
AcDbLine
 10
-108.720000128746
 20
-18.6999983638525
 30
0.0
 11
-104.7200000691414
 21
-18.6999983638525
 31
0.0
  0
LINE
  5
25E
330
1F
100
AcDbEntity
  8
16
  6
Continuous
 62
     3
370
    25
100
AcDbLine
 10
-104.7200000691414
 20
-18.6999983638525
 30
0.0
 11
-104.7200000691414
 21
51.50000268220901
 31
0.0
  0
LINE
  5
25F
330
1F
100
AcDbEntity
  8
16
  6
Continuous
 62
     3
370
    25
100
AcDbLine
 10
-108.720000128746
 20
51.50000268220901
 30
0.0
 11
-104.7200000691414
 21
51.50000268220901
 31
0.0
  0
LINE
  5
260
330
1F
100
AcDbEntity
  8
16
  6
Continuous
 62
     3
370
    25
100
AcDbLine
 10
-107.9200001168251
 20
-18.6999983638525
 30
0.0
 11
-107.9200001168251
 21
51.50000268220901
 31
0.0
  0
LINE
  5
261
330
1F
100
AcDbEntity
  8
16
  6
Continuous
 62
     3
370
    25
100
AcDbLine
 10
-105.5200000810623
 20
-18.6999983638525
 30
0.0
 11
-105.5200000810623
 21
51.50000268220901
 31
0.0
  0
LINE
  5
262
330
1F
100
AcDbEntity
  8
16
  6
Continuous
 62
     3
370
    25
100
AcDbLine
 10
-106.7200000989437
 20
-17.69999834895134
 30
0.0
 11
-106.7200000989437
 21
50.50000266730785
 31
0.0
  0
LINE
  5
263
330
1F
100
AcDbEntity
  8
16
  6
Continuous
 62
     3
370
    25
100
AcDbLine
 10
-103.1400012663007
 20
-18.6999983638525
 30
0.0
 11
-103.1400012663007
 21
51.50000268220901
 31
0.0
  0
LINE
  5
264
330
1F
100
AcDbEntity
  8
16
  6
Continuous
 62
     3
370
    25
100
AcDbLine
 10
-103.1400012663007
 20
-18.6999983638525
 30
0.0
 11
-99.14000120669608
 21
-18.6999983638525
 31
0.0
  0
LINE
  5
265
330
1F
100
AcDbEntity
  8
16
  6
Continuous
 62
     3
370
    25
100
AcDbLine
 10
-99.14000120669608
 20
-18.6999983638525
 30
0.0
 11
-99.14000120669608
 21
51.50000268220901
 31
0.0
  0
LINE
  5
266
330
1F
100
AcDbEntity
  8
16
  6
Continuous
 62
     3
370
    25
100
AcDbLine
 10
-103.1400012663007
 20
51.50000268220901
 30
0.0
 11
-99.14000120669608
 21
51.50000268220901
 31
0.0
  0
LINE
  5
267
330
1F
100
AcDbEntity
  8
16
  6
Continuous
 62
     3
370
    25
100
AcDbLine
 10
-102.3400012543798
 20
-18.6999983638525
 30
0.0
 11
-102.3400012543798
 21
51.50000268220901
 31
0.0
  0
LINE
  5
268
330
1F
100
AcDbEntity
  8
16
  6
Continuous
 62
     3
370
    25
100
AcDbLine
 10
-99.94000121861701
 20
-18.6999983638525
 30
0.0
 11
-99.94000121861701
 21
51.50000268220901
 31
0.0
  0
LINE
  5
269
330
1F
100
AcDbEntity
  8
16
  6
Continuous
 62
     3
370
    25
100
AcDbLine
 10
-101.1400012364984
 20
-17.69999834895134
 30
0.0
 11
-101.1400012364984
 21
50.50000266730785
 31
0.0
  0
LINE
  5
26A
330
1F
100
AcDbEntity
  8
16
  6
Continuous
 62
     3
370
    25
100
AcDbLine
 10
-97.55999630033968
 20
-18.6999983638525
 30
0.0
 11
-97.55999630033968
 21
51.50000268220901
 31
0.0
  0
LINE
  5
26B
330
1F
100
AcDbEntity
  8
16
  6
Continuous
 62
     3
370
    25
100
AcDbLine
 10
-97.55999630033968
 20
-18.6999983638525
 30
0.0
 11
-93.55999624073503
 21
-18.6999983638525
 31
0.0
  0
LINE
  5
26C
330
1F
100
AcDbEntity
  8
16
  6
Continuous
 62
     3
370
    25
100
AcDbLine
 10
-93.55999624073503
 20
-18.6999983638525
 30
0.0
 11
-93.55999624073503
 21
51.50000268220901
 31
0.0
  0
LINE
  5
26D
330
1F
100
AcDbEntity
  8
16
  6
Continuous
 62
     3
370
    25
100
AcDbLine
 10
-97.55999630033968
 20
51.50000268220901
 30
0.0
 11
-93.55999624073503
 21
51.50000268220901
 31
0.0
  0
LINE
  5
26E
330
1F
100
AcDbEntity
  8
16
  6
Continuous
 62
     3
370
    25
100
AcDbLine
 10
-96.75999628841875
 20
-18.6999983638525
 30
0.0
 11
-96.75999628841875
 21
51.50000268220901
 31
0.0
  0
LINE
  5
26F
330
1F
100
AcDbEntity
  8
16
  6
Continuous
 62
     3
370
    25
100
AcDbLine
 10
-94.35999625265596
 20
-18.6999983638525
 30
0.0
 11
-94.35999625265596
 21
51.50000268220901
 31
0.0
  0
LINE
  5
270
330
1F
100
AcDbEntity
  8
16
  6
Continuous
 62
     3
370
    25
100
AcDbLine
 10
-95.55999627053735
 20
-17.69999834895134
 30
0.0
 11
-95.55999627053735
 21
50.50000266730785
 31
0.0
  0
LINE
  5
271
330
1F
100
AcDbEntity
  8
16
  6
Continuous
 62
     3
370
    25
100
AcDbLine
 10
-91.97999743789434
 20
-18.6999983638525
 30
0.0
 11
-91.97999743789434
 21
51.50000268220901
 31
0.0
  0
LINE
  5
272
330
1F
100
AcDbEntity
  8
16
  6
Continuous
 62
     3
370
    25
100
AcDbLine
 10
-91.97999743789434
 20
-18.6999983638525
 30
0.0
 11
-87.9799973782897
 21
-18.6999983638525
 31
0.0
  0
LINE
  5
273
330
1F
100
AcDbEntity
  8
16
  6
Continuous
 62
     3
370
    25
100
AcDbLine
 10
-87.9799973782897
 20
-18.6999983638525
 30
0.0
 11
-87.9799973782897
 21
51.50000268220901
 31
0.0
  0
LINE
  5
274
330
1F
100
AcDbEntity
  8
16
  6
Continuous
 62
     3
370
    25
100
AcDbLine
 10
-91.97999743789434
 20
51.50000268220901
 30
0.0
 11
-87.9799973782897
 21
51.50000268220901
 31
0.0
  0
LINE
  5
275
330
1F
100
AcDbEntity
  8
16
  6
Continuous
 62
     3
370
    25
100
AcDbLine
 10
-91.17999742597341
 20
-18.6999983638525
 30
0.0
 11
-91.17999742597341
 21
51.50000268220901
 31
0.0
  0
LINE
  5
276
330
1F
100
AcDbEntity
  8
16
  6
Continuous
 62
     3
370
    25
100
AcDbLine
 10
-88.77999739021062
 20
-18.6999983638525
 30
0.0
 11
-88.77999739021062
 21
51.50000268220901
 31
0.0
  0
LINE
  5
277
330
1F
100
AcDbEntity
  8
16
  6
Continuous
 62
     3
370
    25
100
AcDbLine
 10
-89.97999740809202
 20
-17.69999834895134
 30
0.0
 11
-89.97999740809202
 21
50.50000266730785
 31
0.0
  0
LINE
  5
278
330
1F
100
AcDbEntity
  8
16
  6
Continuous
 62
     3
370
    25
100
AcDbLine
 10
-86.399998575449
 20
-18.6999983638525
 30
0.0
 11
-86.399998575449
 21
51.50000268220901
 31
0.0
  0
LINE
  5
279
330
1F
100
AcDbEntity
  8
16
  6
Continuous
 62
     3
370
    25
100
AcDbLine
 10
-86.399998575449
 20
-18.6999983638525
 30
0.0
 11
-82.39999851584436
 21
-18.6999983638525
 31
0.0
  0
LINE
  5
27A
330
1F
100
AcDbEntity
  8
16
  6
Continuous
 62
     3
370
    25
100
AcDbLine
 10
-82.39999851584436
 20
-18.6999983638525
 30
0.0
 11
-82.39999851584436
 21
51.50000268220901
 31
0.0
  0
LINE
  5
27B
330
1F
100
AcDbEntity
  8
16
  6
Continuous
 62
     3
370
    25
100
AcDbLine
 10
-86.399998575449
 20
51.50000268220901
 30
0.0
 11
-82.39999851584436
 21
51.50000268220901
 31
0.0
  0
LINE
  5
27C
330
1F
100
AcDbEntity
  8
16
  6
Continuous
 62
     3
370
    25
100
AcDbLine
 10
-85.59999856352808
 20
-18.6999983638525
 30
0.0
 11
-85.59999856352808
 21
51.50000268220901
 31
0.0
  0
LINE
  5
27D
330
1F
100
AcDbEntity
  8
16
  6
Continuous
 62
     3
370
    25
100
AcDbLine
 10
-83.19999852776529
 20
-18.6999983638525
 30
0.0
 11
-83.19999852776529
 21
51.50000268220901
 31
0.0
  0
LINE
  5
27E
330
1F
100
AcDbEntity
  8
16
  6
Continuous
 62
     3
370
    25
100
AcDbLine
 10
-84.39999854564668
 20
-17.69999834895134
 30
0.0
 11
-84.39999854564668
 21
50.50000266730785
 31
0.0
  0
LINE
  5
27F
330
1F
100
AcDbEntity
  8
16
  6
Continuous
 62
     3
370
    25
100
AcDbLine
 10
-80.81999971300367
 20
-18.6999983638525
 30
0.0
 11
-80.81999971300367
 21
51.50000268220901
 31
0.0
  0
LINE
  5
280
330
1F
100
AcDbEntity
  8
16
  6
Continuous
 62
     3
370
    25
100
AcDbLine
 10
-80.81999971300367
 20
-18.6999983638525
 30
0.0
 11
-76.81999965339902
 21
-18.6999983638525
 31
0.0
  0
LINE
  5
281
330
1F
100
AcDbEntity
  8
16
  6
Continuous
 62
     3
370
    25
100
AcDbLine
 10
-76.81999965339902
 20
-18.6999983638525
 30
0.0
 11
-76.81999965339902
 21
51.50000268220901
 31
0.0
  0
LINE
  5
282
330
1F
100
AcDbEntity
  8
16
  6
Continuous
 62
     3
370
    25
100
AcDbLine
 10
-80.81999971300367
 20
51.50000268220901
 30
0.0
 11
-76.81999965339902
 21
51.50000268220901
 31
0.0
  0
LINE
  5
283
330
1F
100
AcDbEntity
  8
16
  6
Continuous
 62
     3
370
    25
100
AcDbLine
 10
-80.01999970108274
 20
-18.6999983638525
 30
0.0
 11
-80.01999970108274
 21
51.50000268220901
 31
0.0
  0
LINE
  5
284
330
1F
100
AcDbEntity
  8
16
  6
Continuous
 62
     3
370
    25
100
AcDbLine
 10
-77.61999966531995
 20
-18.6999983638525
 30
0.0
 11
-77.61999966531995
 21
51.50000268220901
 31
0.0
  0
LINE
  5
285
330
1F
100
AcDbEntity
  8
16
  6
Continuous
 62
     3
370
    25
100
AcDbLine
 10
-78.81999968320135
 20
-17.69999834895134
 30
0.0
 11
-78.81999968320135
 21
50.50000266730785
 31
0.0
  0
LINE
  5
286
330
1F
100
AcDbEntity
  8
16
  6
Continuous
 62
     3
370
    25
100
AcDbLine
 10
-75.24000085055833
 20
-18.6999983638525
 30
0.0
 11
-75.24000085055833
 21
51.50000268220901
 31
0.0
  0
LINE
  5
287
330
1F
100
AcDbEntity
  8
16
  6
Continuous
 62
     3
370
    25
100
AcDbLine
 10
-75.24000085055833
 20
-18.6999983638525
 30
0.0
 11
-71.24000079095369
 21
-18.6999983638525
 31
0.0
  0
LINE
  5
288
330
1F
100
AcDbEntity
  8
16
  6
Continuous
 62
     3
370
    25
100
AcDbLine
 10
-71.24000079095369
 20
-18.6999983638525
 30
0.0
 11
-71.24000079095369
 21
51.50000268220901
 31
0.0
  0
LINE
  5
289
330
1F
100
AcDbEntity
  8
16
  6
Continuous
 62
     3
370
    25
100
AcDbLine
 10
-75.24000085055833
 20
51.50000268220901
 30
0.0
 11
-71.24000079095369
 21
51.50000268220901
 31
0.0
  0
LINE
  5
28A
330
1F
100
AcDbEntity
  8
16
  6
Continuous
 62
     3
370
    25
100
AcDbLine
 10
-74.4400008386374
 20
-18.6999983638525
 30
0.0
 11
-74.4400008386374
 21
51.50000268220901
 31
0.0
  0
LINE
  5
28B
330
1F
100
AcDbEntity
  8
16
  6
Continuous
 62
     3
370
    25
100
AcDbLine
 10
-72.04000080287462
 20
-18.6999983638525
 30
0.0
 11
-72.04000080287462
 21
51.50000268220901
 31
0.0
  0
LINE
  5
28C
330
1F
100
AcDbEntity
  8
16
  6
Continuous
 62
     3
370
    25
100
AcDbLine
 10
-73.24000082075601
 20
-17.69999834895134
 30
0.0
 11
-73.24000082075601
 21
50.50000266730785
 31
0.0
  0
LINE
  5
28D
330
1F
100
AcDbEntity
  8
16
  6
Continuous
 62
     3
370
    25
100
AcDbLine
 10
-69.65999588459728
 20
-18.6999983638525
 30
0.0
 11
-69.65999588459728
 21
51.50000268220901
 31
0.0
  0
LINE
  5
28E
330
1F
100
AcDbEntity
  8
16
  6
Continuous
 62
     3
370
    25
100
AcDbLine
 10
-69.65999588459728
 20
-18.6999983638525
 30
0.0
 11
-65.65999582499263
 21
-18.6999983638525
 31
0.0
  0
LINE
  5
28F
330
1F
100
AcDbEntity
  8
16
  6
Continuous
 62
     3
370
    25
100
AcDbLine
 10
-65.65999582499263
 20
-18.6999983638525
 30
0.0
 11
-65.65999582499263
 21
51.50000268220901
 31
0.0
  0
LINE
  5
290
330
1F
100
AcDbEntity
  8
16
  6
Continuous
 62
     3
370
    25
100
AcDbLine
 10
-69.65999588459728
 20
51.50000268220901
 30
0.0
 11
-65.65999582499263
 21
51.50000268220901
 31
0.0
  0
LINE
  5
291
330
1F
100
AcDbEntity
  8
16
  6
Continuous
 62
     3
370
    25
100
AcDbLine
 10
-68.85999587267635
 20
-18.6999983638525
 30
0.0
 11
-68.85999587267635
 21
51.50000268220901
 31
0.0
  0
LINE
  5
292
330
1F
100
AcDbEntity
  8
16
  6
Continuous
 62
     3
370
    25
100
AcDbLine
 10
-66.45999583691356
 20
-18.6999983638525
 30
0.0
 11
-66.45999583691356
 21
51.50000268220901
 31
0.0
  0
LINE
  5
293
330
1F
100
AcDbEntity
  8
16
  6
Continuous
 62
     3
370
    25
100
AcDbLine
 10
-67.65999585479496
 20
-17.69999834895134
 30
0.0
 11
-67.65999585479496
 21
50.50000266730785
 31
0.0
  0
LINE
  5
294
330
1F
100
AcDbEntity
  8
16
  6
Continuous
 62
     3
370
    25
100
AcDbLine
 10
-64.08000312566766
 20
-18.6999983638525
 30
0.0
 11
-64.08000312566766
 21
51.50000268220901
 31
0.0
  0
LINE
  5
295
330
1F
100
AcDbEntity
  8
16
  6
Continuous
 62
     3
370
    25
100
AcDbLine
 10
-64.08000312566766
 20
-18.6999983638525
 30
0.0
 11
-60.08000306606301
 21
-18.6999983638525
 31
0.0
  0
LINE
  5
296
330
1F
100
AcDbEntity
  8
16
  6
Continuous
 62
     3
370
    25
100
AcDbLine
 10
-60.08000306606301
 20
-18.6999983638525
 30
0.0
 11
-60.08000306606301
 21
51.50000268220901
 31
0.0
  0
LINE
  5
297
330
1F
100
AcDbEntity
  8
16
  6
Continuous
 62
     3
370
    25
100
AcDbLine
 10
-64.08000312566766
 20
51.50000268220901
 30
0.0
 11
-60.08000306606301
 21
51.50000268220901
 31
0.0
  0
LINE
  5
298
330
1F
100
AcDbEntity
  8
16
  6
Continuous
 62
     3
370
    25
100
AcDbLine
 10
-63.28000311374673
 20
-18.6999983638525
 30
0.0
 11
-63.28000311374673
 21
51.50000268220901
 31
0.0
  0
LINE
  5
299
330
1F
100
AcDbEntity
  8
16
  6
Continuous
 62
     3
370
    25
100
AcDbLine
 10
-60.88000307798396
 20
-18.6999983638525
 30
0.0
 11
-60.88000307798396
 21
51.50000268220901
 31
0.0
  0
LINE
  5
29A
330
1F
100
AcDbEntity
  8
16
  6
Continuous
 62
     3
370
    25
100
AcDbLine
 10
-62.08000309586534
 20
-17.69999834895134
 30
0.0
 11
-62.08000309586534
 21
50.50000266730785
 31
0.0
  0
LINE
  5
29B
330
1F
100
AcDbEntity
  8
16
  6
Continuous
 62
     3
370
    25
100
AcDbLine
 10
-58.49999815970661
 20
-18.6999983638525
 30
0.0
 11
-58.49999815970661
 21
51.50000268220901
 31
0.0
  0
LINE
  5
29C
330
1F
100
AcDbEntity
  8
16
  6
Continuous
 62
     3
370
    25
100
AcDbLine
 10
-58.49999815970661
 20
-18.6999983638525
 30
0.0
 11
-54.49999810010195
 21
-18.6999983638525
 31
0.0
  0
LINE
  5
29D
330
1F
100
AcDbEntity
  8
16
  6
Continuous
 62
     3
370
    25
100
AcDbLine
 10
-54.49999810010195
 20
-18.6999983638525
 30
0.0
 11
-54.49999810010195
 21
51.50000268220901
 31
0.0
  0
LINE
  5
29E
330
1F
100
AcDbEntity
  8
16
  6
Continuous
 62
     3
370
    25
100
AcDbLine
 10
-58.49999815970661
 20
51.50000268220901
 30
0.0
 11
-54.49999810010195
 21
51.50000268220901
 31
0.0
  0
LINE
  5
29F
330
1F
100
AcDbEntity
  8
16
  6
Continuous
 62
     3
370
    25
100
AcDbLine
 10
-57.69999814778568
 20
-18.6999983638525
 30
0.0
 11
-57.69999814778568
 21
51.50000268220901
 31
0.0
  0
LINE
  5
2A0
330
1F
100
AcDbEntity
  8
16
  6
Continuous
 62
     3
370
    25
100
AcDbLine
 10
-55.29999811202288
 20
-18.6999983638525
 30
0.0
 11
-55.29999811202288
 21
51.50000268220901
 31
0.0
  0
LINE
  5
2A1
330
1F
100
AcDbEntity
  8
16
  6
Continuous
 62
     3
370
    25
100
AcDbLine
 10
-56.49999812990428
 20
-17.69999834895134
 30
0.0
 11
-56.49999812990428
 21
50.50000266730785
 31
0.0
  0
LINE
  5
2A2
330
1F
100
AcDbEntity
  8
16
  6
Continuous
 62
     3
370
    25
100
AcDbLine
 10
-52.91999319374555
 20
-18.6999983638525
 30
0.0
 11
-52.91999319374555
 21
51.50000268220901
 31
0.0
  0
LINE
  5
2A3
330
1F
100
AcDbEntity
  8
16
  6
Continuous
 62
     3
370
    25
100
AcDbLine
 10
-52.91999319374555
 20
-18.6999983638525
 30
0.0
 11
-48.9199931341409
 21
-18.6999983638525
 31
0.0
  0
LINE
  5
2A4
330
1F
100
AcDbEntity
  8
16
  6
Continuous
 62
     3
370
    25
100
AcDbLine
 10
-48.9199931341409
 20
-18.6999983638525
 30
0.0
 11
-48.9199931341409
 21
51.50000268220901
 31
0.0
  0
LINE
  5
2A5
330
1F
100
AcDbEntity
  8
16
  6
Continuous
 62
     3
370
    25
100
AcDbLine
 10
-52.91999319374555
 20
51.50000268220901
 30
0.0
 11
-48.9199931341409
 21
51.50000268220901
 31
0.0
  0
LINE
  5
2A6
330
1F
100
AcDbEntity
  8
16
  6
Continuous
 62
     3
370
    25
100
AcDbLine
 10
-52.11999318182463
 20
-18.6999983638525
 30
0.0
 11
-52.11999318182463
 21
51.50000268220901
 31
0.0
  0
LINE
  5
2A7
330
1F
100
AcDbEntity
  8
16
  6
Continuous
 62
     3
370
    25
100
AcDbLine
 10
-49.71999314606183
 20
-18.6999983638525
 30
0.0
 11
-49.71999314606183
 21
51.50000268220901
 31
0.0
  0
LINE
  5
2A8
330
1F
100
AcDbEntity
  8
16
  6
Continuous
 62
     3
370
    25
100
AcDbLine
 10
-50.91999316394322
 20
-17.69999834895134
 30
0.0
 11
-50.91999316394322
 21
50.50000266730785
 31
0.0
  0
LINE
  5
2A9
330
1F
100
AcDbEntity
  8
16
  6
Continuous
 62
     3
370
    25
100
AcDbLine
 10
-47.39999799430371
 20
-18.6999983638525
 30
0.0
 11
-47.39999799430371
 21
51.50000268220901
 31
0.0
  0
LINE
  5
2AA
330
1F
100
AcDbEntity
  8
16
  6
Continuous
 62
     3
370
    25
100
AcDbLine
 10
-47.39999799430371
 20
-18.6999983638525
 30
0.0
 11
-43.39999793469907
 21
-18.6999983638525
 31
0.0
  0
LINE
  5
2AB
330
1F
100
AcDbEntity
  8
16
  6
Continuous
 62
     3
370
    25
100
AcDbLine
 10
-43.39999793469907
 20
-18.6999983638525
 30
0.0
 11
-43.39999793469907
 21
51.50000268220901
 31
0.0
  0
LINE
  5
2AC
330
1F
100
AcDbEntity
  8
16
  6
Continuous
 62
     3
370
    25
100
AcDbLine
 10
-47.39999799430371
 20
51.50000268220901
 30
0.0
 11
-43.39999793469907
 21
51.50000268220901
 31
0.0
  0
LINE
  5
2AD
330
1F
100
AcDbEntity
  8
16
  6
Continuous
 62
     3
370
    25
100
AcDbLine
 10
-46.59999798238278
 20
-18.6999983638525
 30
0.0
 11
-46.59999798238278
 21
51.50000268220901
 31
0.0
  0
LINE
  5
2AE
330
1F
100
AcDbEntity
  8
16
  6
Continuous
 62
     3
370
    25
100
AcDbLine
 10
-44.19999794661999
 20
-18.6999983638525
 30
0.0
 11
-44.19999794661999
 21
51.50000268220901
 31
0.0
  0
LINE
  5
2AF
330
1F
100
AcDbEntity
  8
16
  6
Continuous
 62
     3
370
    25
100
AcDbLine
 10
-45.39999796450139
 20
-17.69999834895134
 30
0.0
 11
-45.39999796450139
 21
50.50000266730785
 31
0.0
  0
LINE
  5
2B0
330
1F
100
AcDbEntity
  8
16
  6
Continuous
 62
     3
370
    25
100
AcDbLine
 10
-138.1999993473291
 20
43.50000256299973
 30
0.0
 11
-136.6199993047119
 21
43.50000256299973
 31
0.0
  0
LINE
  5
2B1
330
1F
100
AcDbEntity
  8
16
  6
Continuous
 62
     3
370
    25
100
AcDbLine
 10
-132.6200004848838
 20
43.50000256299973
 30
0.0
 11
-131.0400004422665
 21
43.50000256299973
 31
0.0
  0
LINE
  5
2B2
330
1F
100
AcDbEntity
  8
16
  6
Continuous
 62
     3
370
    25
100
AcDbLine
 10
-127.0400016224384
 20
43.50000256299973
 30
0.0
 11
-125.4600015798211
 21
43.50000256299973
 31
0.0
  0
LINE
  5
2B3
330
1F
100
AcDbEntity
  8
16
  6
Continuous
 62
     3
370
    25
100
AcDbLine
 10
-121.4599966564774
 20
43.50000256299973
 30
0.0
 11
-119.8799966138601
 21
43.50000256299973
 31
0.0
  0
LINE
  5
2B4
330
1F
100
AcDbEntity
  8
16
  6
Continuous
 62
     3
370
    25
100
AcDbLine
 10
-115.8799977940321
 20
43.50000256299973
 30
0.0
 11
-114.2999977514147
 21
43.50000256299973
 31
0.0
  0
LINE
  5
2B5
330
1F
100
AcDbEntity
  8
16
  6
Continuous
 62
     3
370
    25
100
AcDbLine
 10
-110.2999989315867
 20
43.50000256299973
 30
0.0
 11
-108.7199988889694
 21
43.50000256299973
 31
0.0
  0
LINE
  5
2B6
330
1F
100
AcDbEntity
  8
16
  6
Continuous
 62
     3
370
    25
100
AcDbLine
 10
-104.7200000691414
 20
43.50000256299973
 30
0.0
 11
-103.1400000265241
 21
43.50000256299973
 31
0.0
  0
LINE
  5
2B7
330
1F
100
AcDbEntity
  8
16
  6
Continuous
 62
     3
370
    25
100
AcDbLine
 10
-99.14000120669608
 20
43.50000256299973
 30
0.0
 11
-97.56000116407876
 21
43.50000256299973
 31
0.0
  0
LINE
  5
2B8
330
1F
100
AcDbEntity
  8
16
  6
Continuous
 62
     3
370
    25
100
AcDbLine
 10
-93.55999624073503
 20
43.50000256299973
 30
0.0
 11
-91.9799961981177
 21
43.50000256299973
 31
0.0
  0
LINE
  5
2B9
330
1F
100
AcDbEntity
  8
16
  6
Continuous
 62
     3
370
    25
100
AcDbLine
 10
-87.9799973782897
 20
43.50000256299973
 30
0.0
 11
-86.39999733567238
 21
43.50000256299973
 31
0.0
  0
LINE
  5
2BA
330
1F
100
AcDbEntity
  8
16
  6
Continuous
 62
     3
370
    25
100
AcDbLine
 10
-82.39999851584436
 20
43.50000256299973
 30
0.0
 11
-80.81999847322703
 21
43.50000256299973
 31
0.0
  0
LINE
  5
2BB
330
1F
100
AcDbEntity
  8
16
  6
Continuous
 62
     3
370
    25
100
AcDbLine
 10
-76.8199935498833
 20
43.50000256299973
 30
0.0
 11
-75.23999350726599
 21
43.50000256299973
 31
0.0
  0
LINE
  5
2BC
330
1F
100
AcDbEntity
  8
16
  6
Continuous
 62
     3
370
    25
100
AcDbLine
 10
-71.24000079095369
 20
43.50000256299973
 30
0.0
 11
-69.66000074833637
 21
43.50000256299973
 31
0.0
  0
LINE
  5
2BD
330
1F
100
AcDbEntity
  8
16
  6
Continuous
 62
     3
370
    25
100
AcDbLine
 10
-65.65999582499263
 20
43.50000256299973
 30
0.0
 11
-64.07999578237532
 21
43.50000256299973
 31
0.0
  0
LINE
  5
2BE
330
1F
100
AcDbEntity
  8
16
  6
Continuous
 62
     3
370
    25
100
AcDbLine
 10
-60.08000306606301
 20
43.50000256299973
 30
0.0
 11
-58.5000030234457
 21
43.50000256299973
 31
0.0
  0
LINE
  5
2BF
330
1F
100
AcDbEntity
  8
16
  6
Continuous
 62
     3
370
    25
100
AcDbLine
 10
-54.49999810010195
 20
43.50000256299973
 30
0.0
 11
-52.91999805748463
 21
43.50000256299973
 31
0.0
  0
LINE
  5
2C0
330
1F
100
AcDbEntity
  8
16
  6
Continuous
 62
     3
370
    25
100
AcDbLine
 10
-48.9199931341409
 20
43.50000256299973
 30
0.0
 11
-47.33999309152358
 21
43.50000256299973
 31
0.0
  0
LINE
  5
2C1
330
1F
100
AcDbEntity
  8
16
  6
Continuous
 62
     3
370
    25
100
AcDbLine
 10
-138.1999993473291
 20
-10.69999824464321
 30
0.0
 11
-136.6199993047119
 21
-10.69999824464321
 31
0.0
  0
LINE
  5
2C2
330
1F
100
AcDbEntity
  8
16
  6
Continuous
 62
     3
370
    25
100
AcDbLine
 10
-132.6200004848838
 20
-10.69999824464321
 30
0.0
 11
-131.0400004422665
 21
-10.69999824464321
 31
0.0
  0
LINE
  5
2C3
330
1F
100
AcDbEntity
  8
16
  6
Continuous
 62
     3
370
    25
100
AcDbLine
 10
-127.0400016224384
 20
-10.69999824464321
 30
0.0
 11
-125.4600015798211
 21
-10.69999824464321
 31
0.0
  0
LINE
  5
2C4
330
1F
100
AcDbEntity
  8
16
  6
Continuous
 62
     3
370
    25
100
AcDbLine
 10
-121.4599966564774
 20
-10.69999824464321
 30
0.0
 11
-119.8799966138601
 21
-10.69999824464321
 31
0.0
  0
LINE
  5
2C5
330
1F
100
AcDbEntity
  8
16
  6
Continuous
 62
     3
370
    25
100
AcDbLine
 10
-115.8799977940321
 20
-10.69999824464321
 30
0.0
 11
-114.2999977514147
 21
-10.69999824464321
 31
0.0
  0
LINE
  5
2C6
330
1F
100
AcDbEntity
  8
16
  6
Continuous
 62
     3
370
    25
100
AcDbLine
 10
-110.2999989315867
 20
-10.69999824464321
 30
0.0
 11
-108.7199988889694
 21
-10.69999824464321
 31
0.0
  0
LINE
  5
2C7
330
1F
100
AcDbEntity
  8
16
  6
Continuous
 62
     3
370
    25
100
AcDbLine
 10
-104.7200000691414
 20
-10.69999824464321
 30
0.0
 11
-103.1400000265241
 21
-10.69999824464321
 31
0.0
  0
LINE
  5
2C8
330
1F
100
AcDbEntity
  8
16
  6
Continuous
 62
     3
370
    25
100
AcDbLine
 10
-99.14000120669608
 20
-10.69999824464321
 30
0.0
 11
-97.56000116407876
 21
-10.69999824464321
 31
0.0
  0
LINE
  5
2C9
330
1F
100
AcDbEntity
  8
16
  6
Continuous
 62
     3
370
    25
100
AcDbLine
 10
-93.55999624073503
 20
-10.69999824464321
 30
0.0
 11
-91.9799961981177
 21
-10.69999824464321
 31
0.0
  0
LINE
  5
2CA
330
1F
100
AcDbEntity
  8
16
  6
Continuous
 62
     3
370
    25
100
AcDbLine
 10
-87.9799973782897
 20
-10.69999824464321
 30
0.0
 11
-86.39999733567238
 21
-10.69999824464321
 31
0.0
  0
LINE
  5
2CB
330
1F
100
AcDbEntity
  8
16
  6
Continuous
 62
     3
370
    25
100
AcDbLine
 10
-82.39999851584436
 20
-10.69999824464321
 30
0.0
 11
-80.81999847322703
 21
-10.69999824464321
 31
0.0
  0
LINE
  5
2CC
330
1F
100
AcDbEntity
  8
16
  6
Continuous
 62
     3
370
    25
100
AcDbLine
 10
-76.8199935498833
 20
-10.69999824464321
 30
0.0
 11
-75.23999350726599
 21
-10.69999824464321
 31
0.0
  0
LINE
  5
2CD
330
1F
100
AcDbEntity
  8
16
  6
Continuous
 62
     3
370
    25
100
AcDbLine
 10
-71.24000079095369
 20
-10.69999824464321
 30
0.0
 11
-69.66000074833637
 21
-10.69999824464321
 31
0.0
  0
LINE
  5
2CE
330
1F
100
AcDbEntity
  8
16
  6
Continuous
 62
     3
370
    25
100
AcDbLine
 10
-65.65999582499263
 20
-10.69999824464321
 30
0.0
 11
-64.07999578237532
 21
-10.69999824464321
 31
0.0
  0
LINE
  5
2CF
330
1F
100
AcDbEntity
  8
16
  6
Continuous
 62
     3
370
    25
100
AcDbLine
 10
-60.08000306606301
 20
-10.69999824464321
 30
0.0
 11
-58.5000030234457
 21
-10.69999824464321
 31
0.0
  0
LINE
  5
2D0
330
1F
100
AcDbEntity
  8
16
  6
Continuous
 62
     3
370
    25
100
AcDbLine
 10
-54.49999810010195
 20
-10.69999824464321
 30
0.0
 11
-52.91999805748463
 21
-10.69999824464321
 31
0.0
  0
LINE
  5
2D1
330
1F
100
AcDbEntity
  8
16
  6
Continuous
 62
     3
370
    25
100
AcDbLine
 10
-48.9199931341409
 20
-10.69999824464321
 30
0.0
 11
-47.33999309152358
 21
-10.69999824464321
 31
0.0
  0
LINE
  5
2D2
330
1F
100
AcDbEntity
  8
16
  6
Continuous
 62
     3
370
    25
100
AcDbLine
 10
-142.1999994069338
 20
-63.69999903440475
 30
0.0
 11
-142.1999994069338
 21
-64.09999904036522
 31
0.0
  0
LINE
  5
2D3
330
1F
100
AcDbEntity
  8
16
  6
Continuous
 62
     3
370
    25
100
AcDbLine
 10
-142.1999994069338
 20
-64.09999904036522
 30
0.0
 11
-141.5999993979931
 21
-64.09999904036522
 31
0.0
  0
LINE
  5
2D4
330
1F
100
AcDbEntity
  8
16
  6
Continuous
 62
     3
370
    25
100
AcDbLine
 10
-141.5999993979931
 20
-64.09999904036522
 30
0.0
 11
-140.7999993860721
 21
-65.49999906122684
 31
0.0
  0
LINE
  5
2D5
330
1F
100
AcDbEntity
  8
16
  6
Continuous
 62
     3
370
    25
100
AcDbLine
 10
-140.7999993860721
 20
-65.49999906122684
 30
0.0
 11
-140.7999993860721
 21
-66.09999907016754
 31
0.0
  0
LINE
  5
2D6
330
1F
100
AcDbEntity
  8
16
  6
Continuous
 62
     3
370
    25
100
AcDbLine
 10
-140.7999993860721
 20
-66.09999907016754
 30
0.0
 11
-140.5999993830919
 21
-66.29999907314777
 31
0.0
  0
LINE
  5
2D7
330
1F
100
AcDbEntity
  8
16
  6
Continuous
 62
     3
370
    25
100
AcDbLine
 10
-140.5999993830919
 20
-66.29999907314777
 30
0.0
 11
-140.5999993830919
 21
-70.09999912977219
 31
0.0
  0
LINE
  5
2D8
330
1F
100
AcDbEntity
  8
16
  6
Continuous
 62
     3
370
    25
100
AcDbLine
 10
-140.5999993830919
 20
-70.09999912977219
 30
0.0
 11
-139.799999371171
 21
-70.09999912977219
 31
0.0
  0
LINE
  5
2D9
330
1F
100
AcDbEntity
  8
16
  6
Continuous
 62
     3
370
    25
100
AcDbLine
 10
-139.799999371171
 20
-70.09999912977219
 30
0.0
 11
-139.799999371171
 21
-66.29999907314777
 31
0.0
  0
LINE
  5
2DA
330
1F
100
AcDbEntity
  8
16
  6
Continuous
 62
     3
370
    25
100
AcDbLine
 10
-139.799999371171
 20
-66.29999907314777
 30
0.0
 11
-139.5999993681907
 21
-66.09999907016754
 31
0.0
  0
LINE
  5
2DB
330
1F
100
AcDbEntity
  8
16
  6
Continuous
 62
     3
370
    25
100
AcDbLine
 10
-139.5999993681907
 20
-66.09999907016754
 30
0.0
 11
-139.5999993681907
 21
-65.49999906122684
 31
0.0
  0
LINE
  5
2DC
330
1F
100
AcDbEntity
  8
16
  6
Continuous
 62
     3
370
    25
100
AcDbLine
 10
-139.5999993681907
 20
-65.49999906122684
 30
0.0
 11
-138.7999993562698
 21
-64.09999904036522
 31
0.0
  0
LINE
  5
2DD
330
1F
100
AcDbEntity
  8
16
  6
Continuous
 62
     3
370
    25
100
AcDbLine
 10
-138.7999993562698
 20
-64.09999904036522
 30
0.0
 11
-138.1999993473291
 21
-64.09999904036522
 31
0.0
  0
LINE
  5
2DE
330
1F
100
AcDbEntity
  8
16
  6
Continuous
 62
     3
370
    25
100
AcDbLine
 10
-138.1999993473291
 20
-64.09999904036522
 30
0.0
 11
-138.1999993473291
 21
-63.69999903440475
 31
0.0
  0
LINE
  5
2DF
330
1F
100
AcDbEntity
  8
16
  6
Continuous
 62
     3
370
    25
100
AcDbLine
 10
-138.1999993473291
 20
-63.69999903440475
 30
0.0
 11
-138.9999993592501
 21
-63.69999903440475
 31
0.0
  0
LINE
  5
2E0
330
1F
100
AcDbEntity
  8
16
  6
Continuous
 62
     3
370
    25
100
AcDbLine
 10
-138.9999993592501
 20
-63.69999903440475
 30
0.0
 11
-140.1999993771314
 21
-64.89999905228615
 31
0.0
  0
LINE
  5
2E1
330
1F
100
AcDbEntity
  8
16
  6
Continuous
 62
     3
370
    25
100
AcDbLine
 10
-140.1999993771314
 20
-64.89999905228615
 30
0.0
 11
-141.3999993950128
 21
-63.69999903440475
 31
0.0
  0
LINE
  5
2E2
330
1F
100
AcDbEntity
  8
16
  6
Continuous
 62
     3
370
    25
100
AcDbLine
 10
-141.3999993950128
 20
-63.69999903440475
 30
0.0
 11
-142.1999994069338
 21
-63.69999903440475
 31
0.0
  0
CIRCLE
  5
2E3
330
1F
100
AcDbEntity
  8
16
  6
Continuous
 62
     3
370
    25
100
AcDbCircle
 10
-140.1999994947776
 20
-64.39999904483555
 30
0.0
 40
0.3599999958276747
  0
LINE
  5
2E4
330
1F
100
AcDbEntity
  8
16
  6
Continuous
 62
     3
370
    25
100
AcDbLine
 10
-136.6200005444884
 20
-63.69999903440475
 30
0.0
 11
-136.6200005444884
 21
-64.09999904036522
 31
0.0
  0
LINE
  5
2E5
330
1F
100
AcDbEntity
  8
16
  6
Continuous
 62
     3
370
    25
100
AcDbLine
 10
-136.6200005444884
 20
-64.09999904036522
 30
0.0
 11
-136.0200005355477
 21
-64.09999904036522
 31
0.0
  0
LINE
  5
2E6
330
1F
100
AcDbEntity
  8
16
  6
Continuous
 62
     3
370
    25
100
AcDbLine
 10
-136.0200005355477
 20
-64.09999904036522
 30
0.0
 11
-135.2200005236268
 21
-65.49999906122684
 31
0.0
  0
LINE
  5
2E7
330
1F
100
AcDbEntity
  8
16
  6
Continuous
 62
     3
370
    25
100
AcDbLine
 10
-135.2200005236268
 20
-65.49999906122684
 30
0.0
 11
-135.2200005236268
 21
-66.09999907016754
 31
0.0
  0
LINE
  5
2E8
330
1F
100
AcDbEntity
  8
16
  6
Continuous
 62
     3
370
    25
100
AcDbLine
 10
-135.2200005236268
 20
-66.09999907016754
 30
0.0
 11
-135.0200005206466
 21
-66.29999907314777
 31
0.0
  0
LINE
  5
2E9
330
1F
100
AcDbEntity
  8
16
  6
Continuous
 62
     3
370
    25
100
AcDbLine
 10
-135.0200005206466
 20
-66.29999907314777
 30
0.0
 11
-135.0200005206466
 21
-70.09999912977219
 31
0.0
  0
LINE
  5
2EA
330
1F
100
AcDbEntity
  8
16
  6
Continuous
 62
     3
370
    25
100
AcDbLine
 10
-135.0200005206466
 20
-70.09999912977219
 30
0.0
 11
-134.2200005087256
 21
-70.09999912977219
 31
0.0
  0
LINE
  5
2EB
330
1F
100
AcDbEntity
  8
16
  6
Continuous
 62
     3
370
    25
100
AcDbLine
 10
-134.2200005087256
 20
-70.09999912977219
 30
0.0
 11
-134.2200005087256
 21
-66.29999907314777
 31
0.0
  0
LINE
  5
2EC
330
1F
100
AcDbEntity
  8
16
  6
Continuous
 62
     3
370
    25
100
AcDbLine
 10
-134.2200005087256
 20
-66.29999907314777
 30
0.0
 11
-134.0200005057454
 21
-66.09999907016754
 31
0.0
  0
LINE
  5
2ED
330
1F
100
AcDbEntity
  8
16
  6
Continuous
 62
     3
370
    25
100
AcDbLine
 10
-134.0200005057454
 20
-66.09999907016754
 30
0.0
 11
-134.0200005057454
 21
-65.49999906122684
 31
0.0
  0
LINE
  5
2EE
330
1F
100
AcDbEntity
  8
16
  6
Continuous
 62
     3
370
    25
100
AcDbLine
 10
-134.0200005057454
 20
-65.49999906122684
 30
0.0
 11
-133.2200004938245
 21
-64.09999904036522
 31
0.0
  0
LINE
  5
2EF
330
1F
100
AcDbEntity
  8
16
  6
Continuous
 62
     3
370
    25
100
AcDbLine
 10
-133.2200004938245
 20
-64.09999904036522
 30
0.0
 11
-132.6200004848838
 21
-64.09999904036522
 31
0.0
  0
LINE
  5
2F0
330
1F
100
AcDbEntity
  8
16
  6
Continuous
 62
     3
370
    25
100
AcDbLine
 10
-132.6200004848838
 20
-64.09999904036522
 30
0.0
 11
-132.6200004848838
 21
-63.69999903440475
 31
0.0
  0
LINE
  5
2F1
330
1F
100
AcDbEntity
  8
16
  6
Continuous
 62
     3
370
    25
100
AcDbLine
 10
-132.6200004848838
 20
-63.69999903440475
 30
0.0
 11
-133.4200004968047
 21
-63.69999903440475
 31
0.0
  0
LINE
  5
2F2
330
1F
100
AcDbEntity
  8
16
  6
Continuous
 62
     3
370
    25
100
AcDbLine
 10
-133.4200004968047
 20
-63.69999903440475
 30
0.0
 11
-134.6200005146861
 21
-64.89999905228615
 31
0.0
  0
LINE
  5
2F3
330
1F
100
AcDbEntity
  8
16
  6
Continuous
 62
     3
370
    25
100
AcDbLine
 10
-134.6200005146861
 20
-64.89999905228615
 30
0.0
 11
-135.8200005325675
 21
-63.69999903440475
 31
0.0
  0
LINE
  5
2F4
330
1F
100
AcDbEntity
  8
16
  6
Continuous
 62
     3
370
    25
100
AcDbLine
 10
-135.8200005325675
 20
-63.69999903440475
 30
0.0
 11
-136.6200005444884
 21
-63.69999903440475
 31
0.0
  0
CIRCLE
  5
2F5
330
1F
100
AcDbEntity
  8
16
  6
Continuous
 62
     3
370
    25
100
AcDbCircle
 10
-134.6200006323323
 20
-64.39999904483555
 30
0.0
 40
0.3599999958276747
  0
LINE
  5
2F6
330
1F
100
AcDbEntity
  8
16
  6
Continuous
 62
     3
370
    25
100
AcDbLine
 10
-131.0400016820431
 20
-63.69999903440475
 30
0.0
 11
-131.0400016820431
 21
-64.09999904036522
 31
0.0
  0
LINE
  5
2F7
330
1F
100
AcDbEntity
  8
16
  6
Continuous
 62
     3
370
    25
100
AcDbLine
 10
-131.0400016820431
 20
-64.09999904036522
 30
0.0
 11
-130.4400016731024
 21
-64.09999904036522
 31
0.0
  0
LINE
  5
2F8
330
1F
100
AcDbEntity
  8
16
  6
Continuous
 62
     3
370
    25
100
AcDbLine
 10
-130.4400016731024
 20
-64.09999904036522
 30
0.0
 11
-129.6400016611815
 21
-65.49999906122684
 31
0.0
  0
LINE
  5
2F9
330
1F
100
AcDbEntity
  8
16
  6
Continuous
 62
     3
370
    25
100
AcDbLine
 10
-129.6400016611815
 20
-65.49999906122684
 30
0.0
 11
-129.6400016611815
 21
-66.09999907016754
 31
0.0
  0
LINE
  5
2FA
330
1F
100
AcDbEntity
  8
16
  6
Continuous
 62
     3
370
    25
100
AcDbLine
 10
-129.6400016611815
 20
-66.09999907016754
 30
0.0
 11
-129.4400016582012
 21
-66.29999907314777
 31
0.0
  0
LINE
  5
2FB
330
1F
100
AcDbEntity
  8
16
  6
Continuous
 62
     3
370
    25
100
AcDbLine
 10
-129.4400016582012
 20
-66.29999907314777
 30
0.0
 11
-129.4400016582012
 21
-70.09999912977219
 31
0.0
  0
LINE
  5
2FC
330
1F
100
AcDbEntity
  8
16
  6
Continuous
 62
     3
370
    25
100
AcDbLine
 10
-129.4400016582012
 20
-70.09999912977219
 30
0.0
 11
-128.6400016462803
 21
-70.09999912977219
 31
0.0
  0
LINE
  5
2FD
330
1F
100
AcDbEntity
  8
16
  6
Continuous
 62
     3
370
    25
100
AcDbLine
 10
-128.6400016462803
 20
-70.09999912977219
 30
0.0
 11
-128.6400016462803
 21
-66.29999907314777
 31
0.0
  0
LINE
  5
2FE
330
1F
100
AcDbEntity
  8
16
  6
Continuous
 62
     3
370
    25
100
AcDbLine
 10
-128.6400016462803
 20
-66.29999907314777
 30
0.0
 11
-128.4400016433001
 21
-66.09999907016754
 31
0.0
  0
LINE
  5
2FF
330
1F
100
AcDbEntity
  8
16
  6
Continuous
 62
     3
370
    25
100
AcDbLine
 10
-128.4400016433001
 20
-66.09999907016754
 30
0.0
 11
-128.4400016433001
 21
-65.49999906122684
 31
0.0
  0
LINE
  5
300
330
1F
100
AcDbEntity
  8
16
  6
Continuous
 62
     3
370
    25
100
AcDbLine
 10
-128.4400016433001
 20
-65.49999906122684
 30
0.0
 11
-127.6400016313791
 21
-64.09999904036522
 31
0.0
  0
LINE
  5
301
330
1F
100
AcDbEntity
  8
16
  6
Continuous
 62
     3
370
    25
100
AcDbLine
 10
-127.6400016313791
 20
-64.09999904036522
 30
0.0
 11
-127.0400016224384
 21
-64.09999904036522
 31
0.0
  0
LINE
  5
302
330
1F
100
AcDbEntity
  8
16
  6
Continuous
 62
     3
370
    25
100
AcDbLine
 10
-127.0400016224384
 20
-64.09999904036522
 30
0.0
 11
-127.0400016224384
 21
-63.69999903440475
 31
0.0
  0
LINE
  5
303
330
1F
100
AcDbEntity
  8
16
  6
Continuous
 62
     3
370
    25
100
AcDbLine
 10
-127.0400016224384
 20
-63.69999903440475
 30
0.0
 11
-127.8400016343594
 21
-63.69999903440475
 31
0.0
  0
LINE
  5
304
330
1F
100
AcDbEntity
  8
16
  6
Continuous
 62
     3
370
    25
100
AcDbLine
 10
-127.8400016343594
 20
-63.69999903440475
 30
0.0
 11
-129.0400016522408
 21
-64.89999905228615
 31
0.0
  0
LINE
  5
305
330
1F
100
AcDbEntity
  8
16
  6
Continuous
 62
     3
370
    25
100
AcDbLine
 10
-129.0400016522408
 20
-64.89999905228615
 30
0.0
 11
-130.2400016701222
 21
-63.69999903440475
 31
0.0
  0
LINE
  5
306
330
1F
100
AcDbEntity
  8
16
  6
Continuous
 62
     3
370
    25
100
AcDbLine
 10
-130.2400016701222
 20
-63.69999903440475
 30
0.0
 11
-131.0400016820431
 21
-63.69999903440475
 31
0.0
  0
CIRCLE
  5
307
330
1F
100
AcDbEntity
  8
16
  6
Continuous
 62
     3
370
    25
100
AcDbCircle
 10
-129.0400017698869
 20
-64.39999904483555
 30
0.0
 40
0.3599999958276747
  0
LINE
  5
308
330
1F
100
AcDbEntity
  8
16
  6
Continuous
 62
     3
370
    25
100
AcDbLine
 10
-125.459996716082
 20
-63.69999903440475
 30
0.0
 11
-125.459996716082
 21
-64.09999904036522
 31
0.0
  0
LINE
  5
309
330
1F
100
AcDbEntity
  8
16
  6
Continuous
 62
     3
370
    25
100
AcDbLine
 10
-125.459996716082
 20
-64.09999904036522
 30
0.0
 11
-124.8599967071413
 21
-64.09999904036522
 31
0.0
  0
LINE
  5
30A
330
1F
100
AcDbEntity
  8
16
  6
Continuous
 62
     3
370
    25
100
AcDbLine
 10
-124.8599967071413
 20
-64.09999904036522
 30
0.0
 11
-124.0599966952204
 21
-65.49999906122684
 31
0.0
  0
LINE
  5
30B
330
1F
100
AcDbEntity
  8
16
  6
Continuous
 62
     3
370
    25
100
AcDbLine
 10
-124.0599966952204
 20
-65.49999906122684
 30
0.0
 11
-124.0599966952204
 21
-66.09999907016754
 31
0.0
  0
LINE
  5
30C
330
1F
100
AcDbEntity
  8
16
  6
Continuous
 62
     3
370
    25
100
AcDbLine
 10
-124.0599966952204
 20
-66.09999907016754
 30
0.0
 11
-123.8599966922402
 21
-66.29999907314777
 31
0.0
  0
LINE
  5
30D
330
1F
100
AcDbEntity
  8
16
  6
Continuous
 62
     3
370
    25
100
AcDbLine
 10
-123.8599966922402
 20
-66.29999907314777
 30
0.0
 11
-123.8599966922402
 21
-70.09999912977219
 31
0.0
  0
LINE
  5
30E
330
1F
100
AcDbEntity
  8
16
  6
Continuous
 62
     3
370
    25
100
AcDbLine
 10
-123.8599966922402
 20
-70.09999912977219
 30
0.0
 11
-123.0599966803193
 21
-70.09999912977219
 31
0.0
  0
LINE
  5
30F
330
1F
100
AcDbEntity
  8
16
  6
Continuous
 62
     3
370
    25
100
AcDbLine
 10
-123.0599966803193
 20
-70.09999912977219
 30
0.0
 11
-123.0599966803193
 21
-66.29999907314777
 31
0.0
  0
LINE
  5
310
330
1F
100
AcDbEntity
  8
16
  6
Continuous
 62
     3
370
    25
100
AcDbLine
 10
-123.0599966803193
 20
-66.29999907314777
 30
0.0
 11
-122.859996677339
 21
-66.09999907016754
 31
0.0
  0
LINE
  5
311
330
1F
100
AcDbEntity
  8
16
  6
Continuous
 62
     3
370
    25
100
AcDbLine
 10
-122.859996677339
 20
-66.09999907016754
 30
0.0
 11
-122.859996677339
 21
-65.49999906122684
 31
0.0
  0
LINE
  5
312
330
1F
100
AcDbEntity
  8
16
  6
Continuous
 62
     3
370
    25
100
AcDbLine
 10
-122.859996677339
 20
-65.49999906122684
 30
0.0
 11
-122.0599966654181
 21
-64.09999904036522
 31
0.0
  0
LINE
  5
313
330
1F
100
AcDbEntity
  8
16
  6
Continuous
 62
     3
370
    25
100
AcDbLine
 10
-122.0599966654181
 20
-64.09999904036522
 30
0.0
 11
-121.4599966564774
 21
-64.09999904036522
 31
0.0
  0
LINE
  5
314
330
1F
100
AcDbEntity
  8
16
  6
Continuous
 62
     3
370
    25
100
AcDbLine
 10
-121.4599966564774
 20
-64.09999904036522
 30
0.0
 11
-121.4599966564774
 21
-63.69999903440475
 31
0.0
  0
LINE
  5
315
330
1F
100
AcDbEntity
  8
16
  6
Continuous
 62
     3
370
    25
100
AcDbLine
 10
-121.4599966564774
 20
-63.69999903440475
 30
0.0
 11
-122.2599966683983
 21
-63.69999903440475
 31
0.0
  0
LINE
  5
316
330
1F
100
AcDbEntity
  8
16
  6
Continuous
 62
     3
370
    25
100
AcDbLine
 10
-122.2599966683983
 20
-63.69999903440475
 30
0.0
 11
-123.4599966862797
 21
-64.89999905228615
 31
0.0
  0
LINE
  5
317
330
1F
100
AcDbEntity
  8
16
  6
Continuous
 62
     3
370
    25
100
AcDbLine
 10
-123.4599966862797
 20
-64.89999905228615
 30
0.0
 11
-124.6599967041611
 21
-63.69999903440475
 31
0.0
  0
LINE
  5
318
330
1F
100
AcDbEntity
  8
16
  6
Continuous
 62
     3
370
    25
100
AcDbLine
 10
-124.6599967041611
 20
-63.69999903440475
 30
0.0
 11
-125.459996716082
 21
-63.69999903440475
 31
0.0
  0
CIRCLE
  5
319
330
1F
100
AcDbEntity
  8
16
  6
Continuous
 62
     3
370
    25
100
AcDbCircle
 10
-123.4599968039259
 20
-64.39999904483555
 30
0.0
 40
0.3599999958276747
  0
LINE
  5
31A
330
1F
100
AcDbEntity
  8
16
  6
Continuous
 62
     3
370
    25
100
AcDbLine
 10
-119.8799978536367
 20
-63.69999903440475
 30
0.0
 11
-119.8799978536367
 21
-64.09999904036522
 31
0.0
  0
LINE
  5
31B
330
1F
100
AcDbEntity
  8
16
  6
Continuous
 62
     3
370
    25
100
AcDbLine
 10
-119.8799978536367
 20
-64.09999904036522
 30
0.0
 11
-119.279997844696
 21
-64.09999904036522
 31
0.0
  0
LINE
  5
31C
330
1F
100
AcDbEntity
  8
16
  6
Continuous
 62
     3
370
    25
100
AcDbLine
 10
-119.279997844696
 20
-64.09999904036522
 30
0.0
 11
-118.4799978327751
 21
-65.49999906122684
 31
0.0
  0
LINE
  5
31D
330
1F
100
AcDbEntity
  8
16
  6
Continuous
 62
     3
370
    25
100
AcDbLine
 10
-118.4799978327751
 20
-65.49999906122684
 30
0.0
 11
-118.4799978327751
 21
-66.09999907016754
 31
0.0
  0
LINE
  5
31E
330
1F
100
AcDbEntity
  8
16
  6
Continuous
 62
     3
370
    25
100
AcDbLine
 10
-118.4799978327751
 20
-66.09999907016754
 30
0.0
 11
-118.2799978297949
 21
-66.29999907314777
 31
0.0
  0
LINE
  5
31F
330
1F
100
AcDbEntity
  8
16
  6
Continuous
 62
     3
370
    25
100
AcDbLine
 10
-118.2799978297949
 20
-66.29999907314777
 30
0.0
 11
-118.2799978297949
 21
-70.09999912977219
 31
0.0
  0
LINE
  5
320
330
1F
100
AcDbEntity
  8
16
  6
Continuous
 62
     3
370
    25
100
AcDbLine
 10
-118.2799978297949
 20
-70.09999912977219
 30
0.0
 11
-117.4799978178739
 21
-70.09999912977219
 31
0.0
  0
LINE
  5
321
330
1F
100
AcDbEntity
  8
16
  6
Continuous
 62
     3
370
    25
100
AcDbLine
 10
-117.4799978178739
 20
-70.09999912977219
 30
0.0
 11
-117.4799978178739
 21
-66.29999907314777
 31
0.0
  0
LINE
  5
322
330
1F
100
AcDbEntity
  8
16
  6
Continuous
 62
     3
370
    25
100
AcDbLine
 10
-117.4799978178739
 20
-66.29999907314777
 30
0.0
 11
-117.2799978148937
 21
-66.09999907016754
 31
0.0
  0
LINE
  5
323
330
1F
100
AcDbEntity
  8
16
  6
Continuous
 62
     3
370
    25
100
AcDbLine
 10
-117.2799978148937
 20
-66.09999907016754
 30
0.0
 11
-117.2799978148937
 21
-65.49999906122684
 31
0.0
  0
LINE
  5
324
330
1F
100
AcDbEntity
  8
16
  6
Continuous
 62
     3
370
    25
100
AcDbLine
 10
-117.2799978148937
 20
-65.49999906122684
 30
0.0
 11
-116.4799978029728
 21
-64.09999904036522
 31
0.0
  0
LINE
  5
325
330
1F
100
AcDbEntity
  8
16
  6
Continuous
 62
     3
370
    25
100
AcDbLine
 10
-116.4799978029728
 20
-64.09999904036522
 30
0.0
 11
-115.8799977940321
 21
-64.09999904036522
 31
0.0
  0
LINE
  5
326
330
1F
100
AcDbEntity
  8
16
  6
Continuous
 62
     3
370
    25
100
AcDbLine
 10
-115.8799977940321
 20
-64.09999904036522
 30
0.0
 11
-115.8799977940321
 21
-63.69999903440475
 31
0.0
  0
LINE
  5
327
330
1F
100
AcDbEntity
  8
16
  6
Continuous
 62
     3
370
    25
100
AcDbLine
 10
-115.8799977940321
 20
-63.69999903440475
 30
0.0
 11
-116.679997805953
 21
-63.69999903440475
 31
0.0
  0
LINE
  5
328
330
1F
100
AcDbEntity
  8
16
  6
Continuous
 62
     3
370
    25
100
AcDbLine
 10
-116.679997805953
 20
-63.69999903440475
 30
0.0
 11
-117.8799978238344
 21
-64.89999905228615
 31
0.0
  0
LINE
  5
329
330
1F
100
AcDbEntity
  8
16
  6
Continuous
 62
     3
370
    25
100
AcDbLine
 10
-117.8799978238344
 20
-64.89999905228615
 30
0.0
 11
-119.0799978417158
 21
-63.69999903440475
 31
0.0
  0
LINE
  5
32A
330
1F
100
AcDbEntity
  8
16
  6
Continuous
 62
     3
370
    25
100
AcDbLine
 10
-119.0799978417158
 20
-63.69999903440475
 30
0.0
 11
-119.8799978536367
 21
-63.69999903440475
 31
0.0
  0
CIRCLE
  5
32B
330
1F
100
AcDbEntity
  8
16
  6
Continuous
 62
     3
370
    25
100
AcDbCircle
 10
-117.8799979414805
 20
-64.39999904483555
 30
0.0
 40
0.3599999958276747
  0
LINE
  5
32C
330
1F
100
AcDbEntity
  8
16
  6
Continuous
 62
     3
370
    25
100
AcDbLine
 10
-114.2999989911914
 20
-63.69999903440475
 30
0.0
 11
-114.2999989911914
 21
-64.09999904036522
 31
0.0
  0
LINE
  5
32D
330
1F
100
AcDbEntity
  8
16
  6
Continuous
 62
     3
370
    25
100
AcDbLine
 10
-114.2999989911914
 20
-64.09999904036522
 30
0.0
 11
-113.6999989822507
 21
-64.09999904036522
 31
0.0
  0
LINE
  5
32E
330
1F
100
AcDbEntity
  8
16
  6
Continuous
 62
     3
370
    25
100
AcDbLine
 10
-113.6999989822507
 20
-64.09999904036522
 30
0.0
 11
-112.8999989703297
 21
-65.49999906122684
 31
0.0
  0
LINE
  5
32F
330
1F
100
AcDbEntity
  8
16
  6
Continuous
 62
     3
370
    25
100
AcDbLine
 10
-112.8999989703297
 20
-65.49999906122684
 30
0.0
 11
-112.8999989703297
 21
-66.09999907016754
 31
0.0
  0
LINE
  5
330
330
1F
100
AcDbEntity
  8
16
  6
Continuous
 62
     3
370
    25
100
AcDbLine
 10
-112.8999989703297
 20
-66.09999907016754
 30
0.0
 11
-112.6999989673495
 21
-66.29999907314777
 31
0.0
  0
LINE
  5
331
330
1F
100
AcDbEntity
  8
16
  6
Continuous
 62
     3
370
    25
100
AcDbLine
 10
-112.6999989673495
 20
-66.29999907314777
 30
0.0
 11
-112.6999989673495
 21
-70.09999912977219
 31
0.0
  0
LINE
  5
332
330
1F
100
AcDbEntity
  8
16
  6
Continuous
 62
     3
370
    25
100
AcDbLine
 10
-112.6999989673495
 20
-70.09999912977219
 30
0.0
 11
-111.8999989554286
 21
-70.09999912977219
 31
0.0
  0
LINE
  5
333
330
1F
100
AcDbEntity
  8
16
  6
Continuous
 62
     3
370
    25
100
AcDbLine
 10
-111.8999989554286
 20
-70.09999912977219
 30
0.0
 11
-111.8999989554286
 21
-66.29999907314777
 31
0.0
  0
LINE
  5
334
330
1F
100
AcDbEntity
  8
16
  6
Continuous
 62
     3
370
    25
100
AcDbLine
 10
-111.8999989554286
 20
-66.29999907314777
 30
0.0
 11
-111.6999989524484
 21
-66.09999907016754
 31
0.0
  0
LINE
  5
335
330
1F
100
AcDbEntity
  8
16
  6
Continuous
 62
     3
370
    25
100
AcDbLine
 10
-111.6999989524484
 20
-66.09999907016754
 30
0.0
 11
-111.6999989524484
 21
-65.49999906122684
 31
0.0
  0
LINE
  5
336
330
1F
100
AcDbEntity
  8
16
  6
Continuous
 62
     3
370
    25
100
AcDbLine
 10
-111.6999989524484
 20
-65.49999906122684
 30
0.0
 11
-110.8999989405274
 21
-64.09999904036522
 31
0.0
  0
LINE
  5
337
330
1F
100
AcDbEntity
  8
16
  6
Continuous
 62
     3
370
    25
100
AcDbLine
 10
-110.8999989405274
 20
-64.09999904036522
 30
0.0
 11
-110.2999989315867
 21
-64.09999904036522
 31
0.0
  0
LINE
  5
338
330
1F
100
AcDbEntity
  8
16
  6
Continuous
 62
     3
370
    25
100
AcDbLine
 10
-110.2999989315867
 20
-64.09999904036522
 30
0.0
 11
-110.2999989315867
 21
-63.69999903440475
 31
0.0
  0
LINE
  5
339
330
1F
100
AcDbEntity
  8
16
  6
Continuous
 62
     3
370
    25
100
AcDbLine
 10
-110.2999989315867
 20
-63.69999903440475
 30
0.0
 11
-111.0999989435077
 21
-63.69999903440475
 31
0.0
  0
LINE
  5
33A
330
1F
100
AcDbEntity
  8
16
  6
Continuous
 62
     3
370
    25
100
AcDbLine
 10
-111.0999989435077
 20
-63.69999903440475
 30
0.0
 11
-112.2999989613891
 21
-64.89999905228615
 31
0.0
  0
LINE
  5
33B
330
1F
100
AcDbEntity
  8
16
  6
Continuous
 62
     3
370
    25
100
AcDbLine
 10
-112.2999989613891
 20
-64.89999905228615
 30
0.0
 11
-113.4999989792704
 21
-63.69999903440475
 31
0.0
  0
LINE
  5
33C
330
1F
100
AcDbEntity
  8
16
  6
Continuous
 62
     3
370
    25
100
AcDbLine
 10
-113.4999989792704
 20
-63.69999903440475
 30
0.0
 11
-114.2999989911914
 21
-63.69999903440475
 31
0.0
  0
CIRCLE
  5
33D
330
1F
100
AcDbEntity
  8
16
  6
Continuous
 62
     3
370
    25
100
AcDbCircle
 10
-112.2999990790352
 20
-64.39999904483555
 30
0.0
 40
0.3599999958276747
  0
LINE
  5
33E
330
1F
100
AcDbEntity
  8
16
  6
Continuous
 62
     3
370
    25
100
AcDbLine
 10
-108.720000128746
 20
-63.69999903440475
 30
0.0
 11
-108.720000128746
 21
-64.09999904036522
 31
0.0
  0
LINE
  5
33F
330
1F
100
AcDbEntity
  8
16
  6
Continuous
 62
     3
370
    25
100
AcDbLine
 10
-108.720000128746
 20
-64.09999904036522
 30
0.0
 11
-108.1200001198053
 21
-64.09999904036522
 31
0.0
  0
LINE
  5
340
330
1F
100
AcDbEntity
  8
16
  6
Continuous
 62
     3
370
    25
100
AcDbLine
 10
-108.1200001198053
 20
-64.09999904036522
 30
0.0
 11
-107.3200001078844
 21
-65.49999906122684
 31
0.0
  0
LINE
  5
341
330
1F
100
AcDbEntity
  8
16
  6
Continuous
 62
     3
370
    25
100
AcDbLine
 10
-107.3200001078844
 20
-65.49999906122684
 30
0.0
 11
-107.3200001078844
 21
-66.09999907016754
 31
0.0
  0
LINE
  5
342
330
1F
100
AcDbEntity
  8
16
  6
Continuous
 62
     3
370
    25
100
AcDbLine
 10
-107.3200001078844
 20
-66.09999907016754
 30
0.0
 11
-107.1200001049042
 21
-66.29999907314777
 31
0.0
  0
LINE
  5
343
330
1F
100
AcDbEntity
  8
16
  6
Continuous
 62
     3
370
    25
100
AcDbLine
 10
-107.1200001049042
 20
-66.29999907314777
 30
0.0
 11
-107.1200001049042
 21
-70.09999912977219
 31
0.0
  0
LINE
  5
344
330
1F
100
AcDbEntity
  8
16
  6
Continuous
 62
     3
370
    25
100
AcDbLine
 10
-107.1200001049042
 20
-70.09999912977219
 30
0.0
 11
-106.3200000929832
 21
-70.09999912977219
 31
0.0
  0
LINE
  5
345
330
1F
100
AcDbEntity
  8
16
  6
Continuous
 62
     3
370
    25
100
AcDbLine
 10
-106.3200000929832
 20
-70.09999912977219
 30
0.0
 11
-106.3200000929832
 21
-66.29999907314777
 31
0.0
  0
LINE
  5
346
330
1F
100
AcDbEntity
  8
16
  6
Continuous
 62
     3
370
    25
100
AcDbLine
 10
-106.3200000929832
 20
-66.29999907314777
 30
0.0
 11
-106.120000090003
 21
-66.09999907016754
 31
0.0
  0
LINE
  5
347
330
1F
100
AcDbEntity
  8
16
  6
Continuous
 62
     3
370
    25
100
AcDbLine
 10
-106.120000090003
 20
-66.09999907016754
 30
0.0
 11
-106.120000090003
 21
-65.49999906122684
 31
0.0
  0
LINE
  5
348
330
1F
100
AcDbEntity
  8
16
  6
Continuous
 62
     3
370
    25
100
AcDbLine
 10
-106.120000090003
 20
-65.49999906122684
 30
0.0
 11
-105.3200000780821
 21
-64.09999904036522
 31
0.0
  0
LINE
  5
349
330
1F
100
AcDbEntity
  8
16
  6
Continuous
 62
     3
370
    25
100
AcDbLine
 10
-105.3200000780821
 20
-64.09999904036522
 30
0.0
 11
-104.7200000691414
 21
-64.09999904036522
 31
0.0
  0
LINE
  5
34A
330
1F
100
AcDbEntity
  8
16
  6
Continuous
 62
     3
370
    25
100
AcDbLine
 10
-104.7200000691414
 20
-64.09999904036522
 30
0.0
 11
-104.7200000691414
 21
-63.69999903440475
 31
0.0
  0
LINE
  5
34B
330
1F
100
AcDbEntity
  8
16
  6
Continuous
 62
     3
370
    25
100
AcDbLine
 10
-104.7200000691414
 20
-63.69999903440475
 30
0.0
 11
-105.5200000810623
 21
-63.69999903440475
 31
0.0
  0
LINE
  5
34C
330
1F
100
AcDbEntity
  8
16
  6
Continuous
 62
     3
370
    25
100
AcDbLine
 10
-105.5200000810623
 20
-63.69999903440475
 30
0.0
 11
-106.7200000989437
 21
-64.89999905228615
 31
0.0
  0
LINE
  5
34D
330
1F
100
AcDbEntity
  8
16
  6
Continuous
 62
     3
370
    25
100
AcDbLine
 10
-106.7200000989437
 20
-64.89999905228615
 30
0.0
 11
-107.9200001168251
 21
-63.69999903440475
 31
0.0
  0
LINE
  5
34E
330
1F
100
AcDbEntity
  8
16
  6
Continuous
 62
     3
370
    25
100
AcDbLine
 10
-107.9200001168251
 20
-63.69999903440475
 30
0.0
 11
-108.720000128746
 21
-63.69999903440475
 31
0.0
  0
CIRCLE
  5
34F
330
1F
100
AcDbEntity
  8
16
  6
Continuous
 62
     3
370
    25
100
AcDbCircle
 10
-106.7200002165899
 20
-64.39999904483555
 30
0.0
 40
0.3599999958276747
  0
LINE
  5
350
330
1F
100
AcDbEntity
  8
16
  6
Continuous
 62
     3
370
    25
100
AcDbLine
 10
-103.1400012663007
 20
-63.69999903440475
 30
0.0
 11
-103.1400012663007
 21
-64.09999904036522
 31
0.0
  0
LINE
  5
351
330
1F
100
AcDbEntity
  8
16
  6
Continuous
 62
     3
370
    25
100
AcDbLine
 10
-103.1400012663007
 20
-64.09999904036522
 30
0.0
 11
-102.54000125736
 21
-64.09999904036522
 31
0.0
  0
LINE
  5
352
330
1F
100
AcDbEntity
  8
16
  6
Continuous
 62
     3
370
    25
100
AcDbLine
 10
-102.54000125736
 20
-64.09999904036522
 30
0.0
 11
-101.7400012454391
 21
-65.49999906122684
 31
0.0
  0
LINE
  5
353
330
1F
100
AcDbEntity
  8
16
  6
Continuous
 62
     3
370
    25
100
AcDbLine
 10
-101.7400012454391
 20
-65.49999906122684
 30
0.0
 11
-101.7400012454391
 21
-66.09999907016754
 31
0.0
  0
LINE
  5
354
330
1F
100
AcDbEntity
  8
16
  6
Continuous
 62
     3
370
    25
100
AcDbLine
 10
-101.7400012454391
 20
-66.09999907016754
 30
0.0
 11
-101.5400012424588
 21
-66.29999907314777
 31
0.0
  0
LINE
  5
355
330
1F
100
AcDbEntity
  8
16
  6
Continuous
 62
     3
370
    25
100
AcDbLine
 10
-101.5400012424588
 20
-66.29999907314777
 30
0.0
 11
-101.5400012424588
 21
-70.09999912977219
 31
0.0
  0
LINE
  5
356
330
1F
100
AcDbEntity
  8
16
  6
Continuous
 62
     3
370
    25
100
AcDbLine
 10
-101.5400012424588
 20
-70.09999912977219
 30
0.0
 11
-100.7400012305379
 21
-70.09999912977219
 31
0.0
  0
LINE
  5
357
330
1F
100
AcDbEntity
  8
16
  6
Continuous
 62
     3
370
    25
100
AcDbLine
 10
-100.7400012305379
 20
-70.09999912977219
 30
0.0
 11
-100.7400012305379
 21
-66.29999907314777
 31
0.0
  0
LINE
  5
358
330
1F
100
AcDbEntity
  8
16
  6
Continuous
 62
     3
370
    25
100
AcDbLine
 10
-100.7400012305379
 20
-66.29999907314777
 30
0.0
 11
-100.5400012275577
 21
-66.09999907016754
 31
0.0
  0
LINE
  5
359
330
1F
100
AcDbEntity
  8
16
  6
Continuous
 62
     3
370
    25
100
AcDbLine
 10
-100.5400012275577
 20
-66.09999907016754
 30
0.0
 11
-100.5400012275577
 21
-65.49999906122684
 31
0.0
  0
LINE
  5
35A
330
1F
100
AcDbEntity
  8
16
  6
Continuous
 62
     3
370
    25
100
AcDbLine
 10
-100.5400012275577
 20
-65.49999906122684
 30
0.0
 11
-99.74000121563678
 21
-64.09999904036522
 31
0.0
  0
LINE
  5
35B
330
1F
100
AcDbEntity
  8
16
  6
Continuous
 62
     3
370
    25
100
AcDbLine
 10
-99.74000121563678
 20
-64.09999904036522
 30
0.0
 11
-99.14000120669608
 21
-64.09999904036522
 31
0.0
  0
LINE
  5
35C
330
1F
100
AcDbEntity
  8
16
  6
Continuous
 62
     3
370
    25
100
AcDbLine
 10
-99.14000120669608
 20
-64.09999904036522
 30
0.0
 11
-99.14000120669608
 21
-63.69999903440475
 31
0.0
  0
LINE
  5
35D
330
1F
100
AcDbEntity
  8
16
  6
Continuous
 62
     3
370
    25
100
AcDbLine
 10
-99.14000120669608
 20
-63.69999903440475
 30
0.0
 11
-99.94000121861701
 21
-63.69999903440475
 31
0.0
  0
LINE
  5
35E
330
1F
100
AcDbEntity
  8
16
  6
Continuous
 62
     3
370
    25
100
AcDbLine
 10
-99.94000121861701
 20
-63.69999903440475
 30
0.0
 11
-101.1400012364984
 21
-64.89999905228615
 31
0.0
  0
LINE
  5
35F
330
1F
100
AcDbEntity
  8
16
  6
Continuous
 62
     3
370
    25
100
AcDbLine
 10
-101.1400012364984
 20
-64.89999905228615
 30
0.0
 11
-102.3400012543798
 21
-63.69999903440475
 31
0.0
  0
LINE
  5
360
330
1F
100
AcDbEntity
  8
16
  6
Continuous
 62
     3
370
    25
100
AcDbLine
 10
-102.3400012543798
 20
-63.69999903440475
 30
0.0
 11
-103.1400012663007
 21
-63.69999903440475
 31
0.0
  0
CIRCLE
  5
361
330
1F
100
AcDbEntity
  8
16
  6
Continuous
 62
     3
370
    25
100
AcDbCircle
 10
-101.1400013541445
 20
-64.39999904483555
 30
0.0
 40
0.3599999958276747
  0
LINE
  5
362
330
1F
100
AcDbEntity
  8
16
  6
Continuous
 62
     3
370
    25
100
AcDbLine
 10
-97.55999630033968
 20
-63.69999903440475
 30
0.0
 11
-97.55999630033968
 21
-64.09999904036522
 31
0.0
  0
LINE
  5
363
330
1F
100
AcDbEntity
  8
16
  6
Continuous
 62
     3
370
    25
100
AcDbLine
 10
-97.55999630033968
 20
-64.09999904036522
 30
0.0
 11
-96.95999629139898
 21
-64.09999904036522
 31
0.0
  0
LINE
  5
364
330
1F
100
AcDbEntity
  8
16
  6
Continuous
 62
     3
370
    25
100
AcDbLine
 10
-96.95999629139898
 20
-64.09999904036522
 30
0.0
 11
-96.15999627947805
 21
-65.49999906122684
 31
0.0
  0
LINE
  5
365
330
1F
100
AcDbEntity
  8
16
  6
Continuous
 62
     3
370
    25
100
AcDbLine
 10
-96.15999627947805
 20
-65.49999906122684
 30
0.0
 11
-96.15999627947805
 21
-66.09999907016754
 31
0.0
  0
LINE
  5
366
330
1F
100
AcDbEntity
  8
16
  6
Continuous
 62
     3
370
    25
100
AcDbLine
 10
-96.15999627947805
 20
-66.09999907016754
 30
0.0
 11
-95.95999627649782
 21
-66.29999907314777
 31
0.0
  0
LINE
  5
367
330
1F
100
AcDbEntity
  8
16
  6
Continuous
 62
     3
370
    25
100
AcDbLine
 10
-95.95999627649782
 20
-66.29999907314777
 30
0.0
 11
-95.95999627649782
 21
-70.09999912977219
 31
0.0
  0
LINE
  5
368
330
1F
100
AcDbEntity
  8
16
  6
Continuous
 62
     3
370
    25
100
AcDbLine
 10
-95.95999627649782
 20
-70.09999912977219
 30
0.0
 11
-95.15999626457689
 21
-70.09999912977219
 31
0.0
  0
LINE
  5
369
330
1F
100
AcDbEntity
  8
16
  6
Continuous
 62
     3
370
    25
100
AcDbLine
 10
-95.15999626457689
 20
-70.09999912977219
 30
0.0
 11
-95.15999626457689
 21
-66.29999907314777
 31
0.0
  0
LINE
  5
36A
330
1F
100
AcDbEntity
  8
16
  6
Continuous
 62
     3
370
    25
100
AcDbLine
 10
-95.15999626457689
 20
-66.29999907314777
 30
0.0
 11
-94.95999626159666
 21
-66.09999907016754
 31
0.0
  0
LINE
  5
36B
330
1F
100
AcDbEntity
  8
16
  6
Continuous
 62
     3
370
    25
100
AcDbLine
 10
-94.95999626159666
 20
-66.09999907016754
 30
0.0
 11
-94.95999626159666
 21
-65.49999906122684
 31
0.0
  0
LINE
  5
36C
330
1F
100
AcDbEntity
  8
16
  6
Continuous
 62
     3
370
    25
100
AcDbLine
 10
-94.95999626159666
 20
-65.49999906122684
 30
0.0
 11
-94.15999624967573
 21
-64.09999904036522
 31
0.0
  0
LINE
  5
36D
330
1F
100
AcDbEntity
  8
16
  6
Continuous
 62
     3
370
    25
100
AcDbLine
 10
-94.15999624967573
 20
-64.09999904036522
 30
0.0
 11
-93.55999624073503
 21
-64.09999904036522
 31
0.0
  0
LINE
  5
36E
330
1F
100
AcDbEntity
  8
16
  6
Continuous
 62
     3
370
    25
100
AcDbLine
 10
-93.55999624073503
 20
-64.09999904036522
 30
0.0
 11
-93.55999624073503
 21
-63.69999903440475
 31
0.0
  0
LINE
  5
36F
330
1F
100
AcDbEntity
  8
16
  6
Continuous
 62
     3
370
    25
100
AcDbLine
 10
-93.55999624073503
 20
-63.69999903440475
 30
0.0
 11
-94.35999625265596
 21
-63.69999903440475
 31
0.0
  0
LINE
  5
370
330
1F
100
AcDbEntity
  8
16
  6
Continuous
 62
     3
370
    25
100
AcDbLine
 10
-94.35999625265596
 20
-63.69999903440475
 30
0.0
 11
-95.55999627053735
 21
-64.89999905228615
 31
0.0
  0
LINE
  5
371
330
1F
100
AcDbEntity
  8
16
  6
Continuous
 62
     3
370
    25
100
AcDbLine
 10
-95.55999627053735
 20
-64.89999905228615
 30
0.0
 11
-96.75999628841875
 21
-63.69999903440475
 31
0.0
  0
LINE
  5
372
330
1F
100
AcDbEntity
  8
16
  6
Continuous
 62
     3
370
    25
100
AcDbLine
 10
-96.75999628841875
 20
-63.69999903440475
 30
0.0
 11
-97.55999630033968
 21
-63.69999903440475
 31
0.0
  0
CIRCLE
  5
373
330
1F
100
AcDbEntity
  8
16
  6
Continuous
 62
     3
370
    25
100
AcDbCircle
 10
-95.55999638818352
 20
-64.39999904483555
 30
0.0
 40
0.3599999958276747
  0
LINE
  5
374
330
1F
100
AcDbEntity
  8
16
  6
Continuous
 62
     3
370
    25
100
AcDbLine
 10
-91.97999743789434
 20
-63.69999903440475
 30
0.0
 11
-91.97999743789434
 21
-64.09999904036522
 31
0.0
  0
LINE
  5
375
330
1F
100
AcDbEntity
  8
16
  6
Continuous
 62
     3
370
    25
100
AcDbLine
 10
-91.97999743789434
 20
-64.09999904036522
 30
0.0
 11
-91.37999742895364
 21
-64.09999904036522
 31
0.0
  0
LINE
  5
376
330
1F
100
AcDbEntity
  8
16
  6
Continuous
 62
     3
370
    25
100
AcDbLine
 10
-91.37999742895364
 20
-64.09999904036522
 30
0.0
 11
-90.57999741703271
 21
-65.49999906122684
 31
0.0
  0
LINE
  5
377
330
1F
100
AcDbEntity
  8
16
  6
Continuous
 62
     3
370
    25
100
AcDbLine
 10
-90.57999741703271
 20
-65.49999906122684
 30
0.0
 11
-90.57999741703271
 21
-66.09999907016754
 31
0.0
  0
LINE
  5
378
330
1F
100
AcDbEntity
  8
16
  6
Continuous
 62
     3
370
    25
100
AcDbLine
 10
-90.57999741703271
 20
-66.09999907016754
 30
0.0
 11
-90.37999741405248
 21
-66.29999907314777
 31
0.0
  0
LINE
  5
379
330
1F
100
AcDbEntity
  8
16
  6
Continuous
 62
     3
370
    25
100
AcDbLine
 10
-90.37999741405248
 20
-66.29999907314777
 30
0.0
 11
-90.37999741405248
 21
-70.09999912977219
 31
0.0
  0
LINE
  5
37A
330
1F
100
AcDbEntity
  8
16
  6
Continuous
 62
     3
370
    25
100
AcDbLine
 10
-90.37999741405248
 20
-70.09999912977219
 30
0.0
 11
-89.57999740213155
 21
-70.09999912977219
 31
0.0
  0
LINE
  5
37B
330
1F
100
AcDbEntity
  8
16
  6
Continuous
 62
     3
370
    25
100
AcDbLine
 10
-89.57999740213155
 20
-70.09999912977219
 30
0.0
 11
-89.57999740213155
 21
-66.29999907314777
 31
0.0
  0
LINE
  5
37C
330
1F
100
AcDbEntity
  8
16
  6
Continuous
 62
     3
370
    25
100
AcDbLine
 10
-89.57999740213155
 20
-66.29999907314777
 30
0.0
 11
-89.37999739915132
 21
-66.09999907016754
 31
0.0
  0
LINE
  5
37D
330
1F
100
AcDbEntity
  8
16
  6
Continuous
 62
     3
370
    25
100
AcDbLine
 10
-89.37999739915132
 20
-66.09999907016754
 30
0.0
 11
-89.37999739915132
 21
-65.49999906122684
 31
0.0
  0
LINE
  5
37E
330
1F
100
AcDbEntity
  8
16
  6
Continuous
 62
     3
370
    25
100
AcDbLine
 10
-89.37999739915132
 20
-65.49999906122684
 30
0.0
 11
-88.57999738723039
 21
-64.09999904036522
 31
0.0
  0
LINE
  5
37F
330
1F
100
AcDbEntity
  8
16
  6
Continuous
 62
     3
370
    25
100
AcDbLine
 10
-88.57999738723039
 20
-64.09999904036522
 30
0.0
 11
-87.9799973782897
 21
-64.09999904036522
 31
0.0
  0
LINE
  5
380
330
1F
100
AcDbEntity
  8
16
  6
Continuous
 62
     3
370
    25
100
AcDbLine
 10
-87.9799973782897
 20
-64.09999904036522
 30
0.0
 11
-87.9799973782897
 21
-63.69999903440475
 31
0.0
  0
LINE
  5
381
330
1F
100
AcDbEntity
  8
16
  6
Continuous
 62
     3
370
    25
100
AcDbLine
 10
-87.9799973782897
 20
-63.69999903440475
 30
0.0
 11
-88.77999739021062
 21
-63.69999903440475
 31
0.0
  0
LINE
  5
382
330
1F
100
AcDbEntity
  8
16
  6
Continuous
 62
     3
370
    25
100
AcDbLine
 10
-88.77999739021062
 20
-63.69999903440475
 30
0.0
 11
-89.97999740809202
 21
-64.89999905228615
 31
0.0
  0
LINE
  5
383
330
1F
100
AcDbEntity
  8
16
  6
Continuous
 62
     3
370
    25
100
AcDbLine
 10
-89.97999740809202
 20
-64.89999905228615
 30
0.0
 11
-91.17999742597341
 21
-63.69999903440475
 31
0.0
  0
LINE
  5
384
330
1F
100
AcDbEntity
  8
16
  6
Continuous
 62
     3
370
    25
100
AcDbLine
 10
-91.17999742597341
 20
-63.69999903440475
 30
0.0
 11
-91.97999743789434
 21
-63.69999903440475
 31
0.0
  0
CIRCLE
  5
385
330
1F
100
AcDbEntity
  8
16
  6
Continuous
 62
     3
370
    25
100
AcDbCircle
 10
-89.97999752573817
 20
-64.39999904483555
 30
0.0
 40
0.3599999958276747
  0
LINE
  5
386
330
1F
100
AcDbEntity
  8
16
  6
Continuous
 62
     3
370
    25
100
AcDbLine
 10
-86.399998575449
 20
-63.69999903440475
 30
0.0
 11
-86.399998575449
 21
-64.09999904036522
 31
0.0
  0
LINE
  5
387
330
1F
100
AcDbEntity
  8
16
  6
Continuous
 62
     3
370
    25
100
AcDbLine
 10
-86.399998575449
 20
-64.09999904036522
 30
0.0
 11
-85.79999856650831
 21
-64.09999904036522
 31
0.0
  0
LINE
  5
388
330
1F
100
AcDbEntity
  8
16
  6
Continuous
 62
     3
370
    25
100
AcDbLine
 10
-85.79999856650831
 20
-64.09999904036522
 30
0.0
 11
-84.99999855458738
 21
-65.49999906122684
 31
0.0
  0
LINE
  5
389
330
1F
100
AcDbEntity
  8
16
  6
Continuous
 62
     3
370
    25
100
AcDbLine
 10
-84.99999855458738
 20
-65.49999906122684
 30
0.0
 11
-84.99999855458738
 21
-66.09999907016754
 31
0.0
  0
LINE
  5
38A
330
1F
100
AcDbEntity
  8
16
  6
Continuous
 62
     3
370
    25
100
AcDbLine
 10
-84.99999855458738
 20
-66.09999907016754
 30
0.0
 11
-84.79999855160715
 21
-66.29999907314777
 31
0.0
  0
LINE
  5
38B
330
1F
100
AcDbEntity
  8
16
  6
Continuous
 62
     3
370
    25
100
AcDbLine
 10
-84.79999855160715
 20
-66.29999907314777
 30
0.0
 11
-84.79999855160715
 21
-70.09999912977219
 31
0.0
  0
LINE
  5
38C
330
1F
100
AcDbEntity
  8
16
  6
Continuous
 62
     3
370
    25
100
AcDbLine
 10
-84.79999855160715
 20
-70.09999912977219
 30
0.0
 11
-83.99999853968622
 21
-70.09999912977219
 31
0.0
  0
LINE
  5
38D
330
1F
100
AcDbEntity
  8
16
  6
Continuous
 62
     3
370
    25
100
AcDbLine
 10
-83.99999853968622
 20
-70.09999912977219
 30
0.0
 11
-83.99999853968622
 21
-66.29999907314777
 31
0.0
  0
LINE
  5
38E
330
1F
100
AcDbEntity
  8
16
  6
Continuous
 62
     3
370
    25
100
AcDbLine
 10
-83.99999853968622
 20
-66.29999907314777
 30
0.0
 11
-83.79999853670598
 21
-66.09999907016754
 31
0.0
  0
LINE
  5
38F
330
1F
100
AcDbEntity
  8
16
  6
Continuous
 62
     3
370
    25
100
AcDbLine
 10
-83.79999853670598
 20
-66.09999907016754
 30
0.0
 11
-83.79999853670598
 21
-65.49999906122684
 31
0.0
  0
LINE
  5
390
330
1F
100
AcDbEntity
  8
16
  6
Continuous
 62
     3
370
    25
100
AcDbLine
 10
-83.79999853670598
 20
-65.49999906122684
 30
0.0
 11
-82.99999852478506
 21
-64.09999904036522
 31
0.0
  0
LINE
  5
391
330
1F
100
AcDbEntity
  8
16
  6
Continuous
 62
     3
370
    25
100
AcDbLine
 10
-82.99999852478506
 20
-64.09999904036522
 30
0.0
 11
-82.39999851584436
 21
-64.09999904036522
 31
0.0
  0
LINE
  5
392
330
1F
100
AcDbEntity
  8
16
  6
Continuous
 62
     3
370
    25
100
AcDbLine
 10
-82.39999851584436
 20
-64.09999904036522
 30
0.0
 11
-82.39999851584436
 21
-63.69999903440475
 31
0.0
  0
LINE
  5
393
330
1F
100
AcDbEntity
  8
16
  6
Continuous
 62
     3
370
    25
100
AcDbLine
 10
-82.39999851584436
 20
-63.69999903440475
 30
0.0
 11
-83.19999852776529
 21
-63.69999903440475
 31
0.0
  0
LINE
  5
394
330
1F
100
AcDbEntity
  8
16
  6
Continuous
 62
     3
370
    25
100
AcDbLine
 10
-83.19999852776529
 20
-63.69999903440475
 30
0.0
 11
-84.39999854564668
 21
-64.89999905228615
 31
0.0
  0
LINE
  5
395
330
1F
100
AcDbEntity
  8
16
  6
Continuous
 62
     3
370
    25
100
AcDbLine
 10
-84.39999854564668
 20
-64.89999905228615
 30
0.0
 11
-85.59999856352808
 21
-63.69999903440475
 31
0.0
  0
LINE
  5
396
330
1F
100
AcDbEntity
  8
16
  6
Continuous
 62
     3
370
    25
100
AcDbLine
 10
-85.59999856352808
 20
-63.69999903440475
 30
0.0
 11
-86.399998575449
 21
-63.69999903440475
 31
0.0
  0
CIRCLE
  5
397
330
1F
100
AcDbEntity
  8
16
  6
Continuous
 62
     3
370
    25
100
AcDbCircle
 10
-84.39999866329283
 20
-64.39999904483555
 30
0.0
 40
0.3599999958276747
  0
LINE
  5
398
330
1F
100
AcDbEntity
  8
16
  6
Continuous
 62
     3
370
    25
100
AcDbLine
 10
-80.81999971300367
 20
-63.69999903440475
 30
0.0
 11
-80.81999971300367
 21
-64.09999904036522
 31
0.0
  0
LINE
  5
399
330
1F
100
AcDbEntity
  8
16
  6
Continuous
 62
     3
370
    25
100
AcDbLine
 10
-80.81999971300367
 20
-64.09999904036522
 30
0.0
 11
-80.21999970406297
 21
-64.09999904036522
 31
0.0
  0
LINE
  5
39A
330
1F
100
AcDbEntity
  8
16
  6
Continuous
 62
     3
370
    25
100
AcDbLine
 10
-80.21999970406297
 20
-64.09999904036522
 30
0.0
 11
-79.41999969214204
 21
-65.49999906122684
 31
0.0
  0
LINE
  5
39B
330
1F
100
AcDbEntity
  8
16
  6
Continuous
 62
     3
370
    25
100
AcDbLine
 10
-79.41999969214204
 20
-65.49999906122684
 30
0.0
 11
-79.41999969214204
 21
-66.09999907016754
 31
0.0
  0
LINE
  5
39C
330
1F
100
AcDbEntity
  8
16
  6
Continuous
 62
     3
370
    25
100
AcDbLine
 10
-79.41999969214204
 20
-66.09999907016754
 30
0.0
 11
-79.21999968916181
 21
-66.29999907314777
 31
0.0
  0
LINE
  5
39D
330
1F
100
AcDbEntity
  8
16
  6
Continuous
 62
     3
370
    25
100
AcDbLine
 10
-79.21999968916181
 20
-66.29999907314777
 30
0.0
 11
-79.21999968916181
 21
-70.09999912977219
 31
0.0
  0
LINE
  5
39E
330
1F
100
AcDbEntity
  8
16
  6
Continuous
 62
     3
370
    25
100
AcDbLine
 10
-79.21999968916181
 20
-70.09999912977219
 30
0.0
 11
-78.41999967724088
 21
-70.09999912977219
 31
0.0
  0
LINE
  5
39F
330
1F
100
AcDbEntity
  8
16
  6
Continuous
 62
     3
370
    25
100
AcDbLine
 10
-78.41999967724088
 20
-70.09999912977219
 30
0.0
 11
-78.41999967724088
 21
-66.29999907314777
 31
0.0
  0
LINE
  5
3A0
330
1F
100
AcDbEntity
  8
16
  6
Continuous
 62
     3
370
    25
100
AcDbLine
 10
-78.41999967724088
 20
-66.29999907314777
 30
0.0
 11
-78.21999967426065
 21
-66.09999907016754
 31
0.0
  0
LINE
  5
3A1
330
1F
100
AcDbEntity
  8
16
  6
Continuous
 62
     3
370
    25
100
AcDbLine
 10
-78.21999967426065
 20
-66.09999907016754
 30
0.0
 11
-78.21999967426065
 21
-65.49999906122684
 31
0.0
  0
LINE
  5
3A2
330
1F
100
AcDbEntity
  8
16
  6
Continuous
 62
     3
370
    25
100
AcDbLine
 10
-78.21999967426065
 20
-65.49999906122684
 30
0.0
 11
-77.41999966233972
 21
-64.09999904036522
 31
0.0
  0
LINE
  5
3A3
330
1F
100
AcDbEntity
  8
16
  6
Continuous
 62
     3
370
    25
100
AcDbLine
 10
-77.41999966233972
 20
-64.09999904036522
 30
0.0
 11
-76.81999965339902
 21
-64.09999904036522
 31
0.0
  0
LINE
  5
3A4
330
1F
100
AcDbEntity
  8
16
  6
Continuous
 62
     3
370
    25
100
AcDbLine
 10
-76.81999965339902
 20
-64.09999904036522
 30
0.0
 11
-76.81999965339902
 21
-63.69999903440475
 31
0.0
  0
LINE
  5
3A5
330
1F
100
AcDbEntity
  8
16
  6
Continuous
 62
     3
370
    25
100
AcDbLine
 10
-76.81999965339902
 20
-63.69999903440475
 30
0.0
 11
-77.61999966531995
 21
-63.69999903440475
 31
0.0
  0
LINE
  5
3A6
330
1F
100
AcDbEntity
  8
16
  6
Continuous
 62
     3
370
    25
100
AcDbLine
 10
-77.61999966531995
 20
-63.69999903440475
 30
0.0
 11
-78.81999968320135
 21
-64.89999905228615
 31
0.0
  0
LINE
  5
3A7
330
1F
100
AcDbEntity
  8
16
  6
Continuous
 62
     3
370
    25
100
AcDbLine
 10
-78.81999968320135
 20
-64.89999905228615
 30
0.0
 11
-80.01999970108274
 21
-63.69999903440475
 31
0.0
  0
LINE
  5
3A8
330
1F
100
AcDbEntity
  8
16
  6
Continuous
 62
     3
370
    25
100
AcDbLine
 10
-80.01999970108274
 20
-63.69999903440475
 30
0.0
 11
-80.81999971300367
 21
-63.69999903440475
 31
0.0
  0
CIRCLE
  5
3A9
330
1F
100
AcDbEntity
  8
16
  6
Continuous
 62
     3
370
    25
100
AcDbCircle
 10
-78.81999980084751
 20
-64.39999904483555
 30
0.0
 40
0.3599999958276747
  0
LINE
  5
3AA
330
1F
100
AcDbEntity
  8
16
  6
Continuous
 62
     3
370
    25
100
AcDbLine
 10
-75.24000085055833
 20
-63.69999903440475
 30
0.0
 11
-75.24000085055833
 21
-64.09999904036522
 31
0.0
  0
LINE
  5
3AB
330
1F
100
AcDbEntity
  8
16
  6
Continuous
 62
     3
370
    25
100
AcDbLine
 10
-75.24000085055833
 20
-64.09999904036522
 30
0.0
 11
-74.64000084161763
 21
-64.09999904036522
 31
0.0
  0
LINE
  5
3AC
330
1F
100
AcDbEntity
  8
16
  6
Continuous
 62
     3
370
    25
100
AcDbLine
 10
-74.64000084161763
 20
-64.09999904036522
 30
0.0
 11
-73.8400008296967
 21
-65.49999906122684
 31
0.0
  0
LINE
  5
3AD
330
1F
100
AcDbEntity
  8
16
  6
Continuous
 62
     3
370
    25
100
AcDbLine
 10
-73.8400008296967
 20
-65.49999906122684
 30
0.0
 11
-73.8400008296967
 21
-66.09999907016754
 31
0.0
  0
LINE
  5
3AE
330
1F
100
AcDbEntity
  8
16
  6
Continuous
 62
     3
370
    25
100
AcDbLine
 10
-73.8400008296967
 20
-66.09999907016754
 30
0.0
 11
-73.64000082671647
 21
-66.29999907314777
 31
0.0
  0
LINE
  5
3AF
330
1F
100
AcDbEntity
  8
16
  6
Continuous
 62
     3
370
    25
100
AcDbLine
 10
-73.64000082671647
 20
-66.29999907314777
 30
0.0
 11
-73.64000082671647
 21
-70.09999912977219
 31
0.0
  0
LINE
  5
3B0
330
1F
100
AcDbEntity
  8
16
  6
Continuous
 62
     3
370
    25
100
AcDbLine
 10
-73.64000082671647
 20
-70.09999912977219
 30
0.0
 11
-72.84000081479554
 21
-70.09999912977219
 31
0.0
  0
LINE
  5
3B1
330
1F
100
AcDbEntity
  8
16
  6
Continuous
 62
     3
370
    25
100
AcDbLine
 10
-72.84000081479554
 20
-70.09999912977219
 30
0.0
 11
-72.84000081479554
 21
-66.29999907314777
 31
0.0
  0
LINE
  5
3B2
330
1F
100
AcDbEntity
  8
16
  6
Continuous
 62
     3
370
    25
100
AcDbLine
 10
-72.84000081479554
 20
-66.29999907314777
 30
0.0
 11
-72.64000081181531
 21
-66.09999907016754
 31
0.0
  0
LINE
  5
3B3
330
1F
100
AcDbEntity
  8
16
  6
Continuous
 62
     3
370
    25
100
AcDbLine
 10
-72.64000081181531
 20
-66.09999907016754
 30
0.0
 11
-72.64000081181531
 21
-65.49999906122684
 31
0.0
  0
LINE
  5
3B4
330
1F
100
AcDbEntity
  8
16
  6
Continuous
 62
     3
370
    25
100
AcDbLine
 10
-72.64000081181531
 20
-65.49999906122684
 30
0.0
 11
-71.84000079989438
 21
-64.09999904036522
 31
0.0
  0
LINE
  5
3B5
330
1F
100
AcDbEntity
  8
16
  6
Continuous
 62
     3
370
    25
100
AcDbLine
 10
-71.84000079989438
 20
-64.09999904036522
 30
0.0
 11
-71.24000079095369
 21
-64.09999904036522
 31
0.0
  0
LINE
  5
3B6
330
1F
100
AcDbEntity
  8
16
  6
Continuous
 62
     3
370
    25
100
AcDbLine
 10
-71.24000079095369
 20
-64.09999904036522
 30
0.0
 11
-71.24000079095369
 21
-63.69999903440475
 31
0.0
  0
LINE
  5
3B7
330
1F
100
AcDbEntity
  8
16
  6
Continuous
 62
     3
370
    25
100
AcDbLine
 10
-71.24000079095369
 20
-63.69999903440475
 30
0.0
 11
-72.04000080287462
 21
-63.69999903440475
 31
0.0
  0
LINE
  5
3B8
330
1F
100
AcDbEntity
  8
16
  6
Continuous
 62
     3
370
    25
100
AcDbLine
 10
-72.04000080287462
 20
-63.69999903440475
 30
0.0
 11
-73.24000082075601
 21
-64.89999905228615
 31
0.0
  0
LINE
  5
3B9
330
1F
100
AcDbEntity
  8
16
  6
Continuous
 62
     3
370
    25
100
AcDbLine
 10
-73.24000082075601
 20
-64.89999905228615
 30
0.0
 11
-74.4400008386374
 21
-63.69999903440475
 31
0.0
  0
LINE
  5
3BA
330
1F
100
AcDbEntity
  8
16
  6
Continuous
 62
     3
370
    25
100
AcDbLine
 10
-74.4400008386374
 20
-63.69999903440475
 30
0.0
 11
-75.24000085055833
 21
-63.69999903440475
 31
0.0
  0
CIRCLE
  5
3BB
330
1F
100
AcDbEntity
  8
16
  6
Continuous
 62
     3
370
    25
100
AcDbCircle
 10
-73.24000093840216
 20
-64.39999904483555
 30
0.0
 40
0.3599999958276747
  0
LINE
  5
3BC
330
1F
100
AcDbEntity
  8
16
  6
Continuous
 62
     3
370
    25
100
AcDbLine
 10
-69.65999588459728
 20
-63.69999903440475
 30
0.0
 11
-69.65999588459728
 21
-64.09999904036522
 31
0.0
  0
LINE
  5
3BD
330
1F
100
AcDbEntity
  8
16
  6
Continuous
 62
     3
370
    25
100
AcDbLine
 10
-69.65999588459728
 20
-64.09999904036522
 30
0.0
 11
-69.05999587565658
 21
-64.09999904036522
 31
0.0
  0
LINE
  5
3BE
330
1F
100
AcDbEntity
  8
16
  6
Continuous
 62
     3
370
    25
100
AcDbLine
 10
-69.05999587565658
 20
-64.09999904036522
 30
0.0
 11
-68.25999586373565
 21
-65.49999906122684
 31
0.0
  0
LINE
  5
3BF
330
1F
100
AcDbEntity
  8
16
  6
Continuous
 62
     3
370
    25
100
AcDbLine
 10
-68.25999586373565
 20
-65.49999906122684
 30
0.0
 11
-68.25999586373565
 21
-66.09999907016754
 31
0.0
  0
LINE
  5
3C0
330
1F
100
AcDbEntity
  8
16
  6
Continuous
 62
     3
370
    25
100
AcDbLine
 10
-68.25999586373565
 20
-66.09999907016754
 30
0.0
 11
-68.05999586075542
 21
-66.29999907314777
 31
0.0
  0
LINE
  5
3C1
330
1F
100
AcDbEntity
  8
16
  6
Continuous
 62
     3
370
    25
100
AcDbLine
 10
-68.05999586075542
 20
-66.29999907314777
 30
0.0
 11
-68.05999586075542
 21
-70.09999912977219
 31
0.0
  0
LINE
  5
3C2
330
1F
100
AcDbEntity
  8
16
  6
Continuous
 62
     3
370
    25
100
AcDbLine
 10
-68.05999586075542
 20
-70.09999912977219
 30
0.0
 11
-67.25999584883449
 21
-70.09999912977219
 31
0.0
  0
LINE
  5
3C3
330
1F
100
AcDbEntity
  8
16
  6
Continuous
 62
     3
370
    25
100
AcDbLine
 10
-67.25999584883449
 20
-70.09999912977219
 30
0.0
 11
-67.25999584883449
 21
-66.29999907314777
 31
0.0
  0
LINE
  5
3C4
330
1F
100
AcDbEntity
  8
16
  6
Continuous
 62
     3
370
    25
100
AcDbLine
 10
-67.25999584883449
 20
-66.29999907314777
 30
0.0
 11
-67.05999584585426
 21
-66.09999907016754
 31
0.0
  0
LINE
  5
3C5
330
1F
100
AcDbEntity
  8
16
  6
Continuous
 62
     3
370
    25
100
AcDbLine
 10
-67.05999584585426
 20
-66.09999907016754
 30
0.0
 11
-67.05999584585426
 21
-65.49999906122684
 31
0.0
  0
LINE
  5
3C6
330
1F
100
AcDbEntity
  8
16
  6
Continuous
 62
     3
370
    25
100
AcDbLine
 10
-67.05999584585426
 20
-65.49999906122684
 30
0.0
 11
-66.25999583393333
 21
-64.09999904036522
 31
0.0
  0
LINE
  5
3C7
330
1F
100
AcDbEntity
  8
16
  6
Continuous
 62
     3
370
    25
100
AcDbLine
 10
-66.25999583393333
 20
-64.09999904036522
 30
0.0
 11
-65.65999582499263
 21
-64.09999904036522
 31
0.0
  0
LINE
  5
3C8
330
1F
100
AcDbEntity
  8
16
  6
Continuous
 62
     3
370
    25
100
AcDbLine
 10
-65.65999582499263
 20
-64.09999904036522
 30
0.0
 11
-65.65999582499263
 21
-63.69999903440475
 31
0.0
  0
LINE
  5
3C9
330
1F
100
AcDbEntity
  8
16
  6
Continuous
 62
     3
370
    25
100
AcDbLine
 10
-65.65999582499263
 20
-63.69999903440475
 30
0.0
 11
-66.45999583691356
 21
-63.69999903440475
 31
0.0
  0
LINE
  5
3CA
330
1F
100
AcDbEntity
  8
16
  6
Continuous
 62
     3
370
    25
100
AcDbLine
 10
-66.45999583691356
 20
-63.69999903440475
 30
0.0
 11
-67.65999585479496
 21
-64.89999905228615
 31
0.0
  0
LINE
  5
3CB
330
1F
100
AcDbEntity
  8
16
  6
Continuous
 62
     3
370
    25
100
AcDbLine
 10
-67.65999585479496
 20
-64.89999905228615
 30
0.0
 11
-68.85999587267635
 21
-63.69999903440475
 31
0.0
  0
LINE
  5
3CC
330
1F
100
AcDbEntity
  8
16
  6
Continuous
 62
     3
370
    25
100
AcDbLine
 10
-68.85999587267635
 20
-63.69999903440475
 30
0.0
 11
-69.65999588459728
 21
-63.69999903440475
 31
0.0
  0
CIRCLE
  5
3CD
330
1F
100
AcDbEntity
  8
16
  6
Continuous
 62
     3
370
    25
100
AcDbCircle
 10
-67.65999597244112
 20
-64.39999904483555
 30
0.0
 40
0.3599999958276747
  0
LINE
  5
3CE
330
1F
100
AcDbEntity
  8
16
  6
Continuous
 62
     3
370
    25
100
AcDbLine
 10
-64.08000312566766
 20
-63.69999903440475
 30
0.0
 11
-64.08000312566766
 21
-64.09999904036522
 31
0.0
  0
LINE
  5
3CF
330
1F
100
AcDbEntity
  8
16
  6
Continuous
 62
     3
370
    25
100
AcDbLine
 10
-64.08000312566766
 20
-64.09999904036522
 30
0.0
 11
-63.48000311672695
 21
-64.09999904036522
 31
0.0
  0
LINE
  5
3D0
330
1F
100
AcDbEntity
  8
16
  6
Continuous
 62
     3
370
    25
100
AcDbLine
 10
-63.48000311672695
 20
-64.09999904036522
 30
0.0
 11
-62.68000310480605
 21
-65.49999906122684
 31
0.0
  0
LINE
  5
3D1
330
1F
100
AcDbEntity
  8
16
  6
Continuous
 62
     3
370
    25
100
AcDbLine
 10
-62.68000310480605
 20
-65.49999906122684
 30
0.0
 11
-62.68000310480605
 21
-66.09999907016754
 31
0.0
  0
LINE
  5
3D2
330
1F
100
AcDbEntity
  8
16
  6
Continuous
 62
     3
370
    25
100
AcDbLine
 10
-62.68000310480605
 20
-66.09999907016754
 30
0.0
 11
-62.48000310182579
 21
-66.29999907314777
 31
0.0
  0
LINE
  5
3D3
330
1F
100
AcDbEntity
  8
16
  6
Continuous
 62
     3
370
    25
100
AcDbLine
 10
-62.48000310182579
 20
-66.29999907314777
 30
0.0
 11
-62.48000310182579
 21
-70.09999912977219
 31
0.0
  0
LINE
  5
3D4
330
1F
100
AcDbEntity
  8
16
  6
Continuous
 62
     3
370
    25
100
AcDbLine
 10
-62.48000310182579
 20
-70.09999912977219
 30
0.0
 11
-61.68000308990486
 21
-70.09999912977219
 31
0.0
  0
LINE
  5
3D5
330
1F
100
AcDbEntity
  8
16
  6
Continuous
 62
     3
370
    25
100
AcDbLine
 10
-61.68000308990486
 20
-70.09999912977219
 30
0.0
 11
-61.68000308990486
 21
-66.29999907314777
 31
0.0
  0
LINE
  5
3D6
330
1F
100
AcDbEntity
  8
16
  6
Continuous
 62
     3
370
    25
100
AcDbLine
 10
-61.68000308990486
 20
-66.29999907314777
 30
0.0
 11
-61.48000308692464
 21
-66.09999907016754
 31
0.0
  0
LINE
  5
3D7
330
1F
100
AcDbEntity
  8
16
  6
Continuous
 62
     3
370
    25
100
AcDbLine
 10
-61.48000308692464
 20
-66.09999907016754
 30
0.0
 11
-61.48000308692464
 21
-65.49999906122684
 31
0.0
  0
LINE
  5
3D8
330
1F
100
AcDbEntity
  8
16
  6
Continuous
 62
     3
370
    25
100
AcDbLine
 10
-61.48000308692464
 20
-65.49999906122684
 30
0.0
 11
-60.6800030750037
 21
-64.09999904036522
 31
0.0
  0
LINE
  5
3D9
330
1F
100
AcDbEntity
  8
16
  6
Continuous
 62
     3
370
    25
100
AcDbLine
 10
-60.6800030750037
 20
-64.09999904036522
 30
0.0
 11
-60.08000306606301
 21
-64.09999904036522
 31
0.0
  0
LINE
  5
3DA
330
1F
100
AcDbEntity
  8
16
  6
Continuous
 62
     3
370
    25
100
AcDbLine
 10
-60.08000306606301
 20
-64.09999904036522
 30
0.0
 11
-60.08000306606301
 21
-63.69999903440475
 31
0.0
  0
LINE
  5
3DB
330
1F
100
AcDbEntity
  8
16
  6
Continuous
 62
     3
370
    25
100
AcDbLine
 10
-60.08000306606301
 20
-63.69999903440475
 30
0.0
 11
-60.88000307798396
 21
-63.69999903440475
 31
0.0
  0
LINE
  5
3DC
330
1F
100
AcDbEntity
  8
16
  6
Continuous
 62
     3
370
    25
100
AcDbLine
 10
-60.88000307798396
 20
-63.69999903440475
 30
0.0
 11
-62.08000309586534
 21
-64.89999905228615
 31
0.0
  0
LINE
  5
3DD
330
1F
100
AcDbEntity
  8
16
  6
Continuous
 62
     3
370
    25
100
AcDbLine
 10
-62.08000309586534
 20
-64.89999905228615
 30
0.0
 11
-63.28000311374673
 21
-63.69999903440475
 31
0.0
  0
LINE
  5
3DE
330
1F
100
AcDbEntity
  8
16
  6
Continuous
 62
     3
370
    25
100
AcDbLine
 10
-63.28000311374673
 20
-63.69999903440475
 30
0.0
 11
-64.08000312566766
 21
-63.69999903440475
 31
0.0
  0
CIRCLE
  5
3DF
330
1F
100
AcDbEntity
  8
16
  6
Continuous
 62
     3
370
    25
100
AcDbCircle
 10
-62.0800032135115
 20
-64.39999904483555
 30
0.0
 40
0.3599999958276747
  0
LINE
  5
3E0
330
1F
100
AcDbEntity
  8
16
  6
Continuous
 62
     3
370
    25
100
AcDbLine
 10
-58.49999815970661
 20
-63.69999903440475
 30
0.0
 11
-58.49999815970661
 21
-64.09999904036522
 31
0.0
  0
LINE
  5
3E1
330
1F
100
AcDbEntity
  8
16
  6
Continuous
 62
     3
370
    25
100
AcDbLine
 10
-58.49999815970661
 20
-64.09999904036522
 30
0.0
 11
-57.89999815076591
 21
-64.09999904036522
 31
0.0
  0
LINE
  5
3E2
330
1F
100
AcDbEntity
  8
16
  6
Continuous
 62
     3
370
    25
100
AcDbLine
 10
-57.89999815076591
 20
-64.09999904036522
 30
0.0
 11
-57.09999813884497
 21
-65.49999906122684
 31
0.0
  0
LINE
  5
3E3
330
1F
100
AcDbEntity
  8
16
  6
Continuous
 62
     3
370
    25
100
AcDbLine
 10
-57.09999813884497
 20
-65.49999906122684
 30
0.0
 11
-57.09999813884497
 21
-66.09999907016754
 31
0.0
  0
LINE
  5
3E4
330
1F
100
AcDbEntity
  8
16
  6
Continuous
 62
     3
370
    25
100
AcDbLine
 10
-57.09999813884497
 20
-66.09999907016754
 30
0.0
 11
-56.89999813586475
 21
-66.29999907314777
 31
0.0
  0
LINE
  5
3E5
330
1F
100
AcDbEntity
  8
16
  6
Continuous
 62
     3
370
    25
100
AcDbLine
 10
-56.89999813586475
 20
-66.29999907314777
 30
0.0
 11
-56.89999813586475
 21
-70.09999912977219
 31
0.0
  0
LINE
  5
3E6
330
1F
100
AcDbEntity
  8
16
  6
Continuous
 62
     3
370
    25
100
AcDbLine
 10
-56.89999813586475
 20
-70.09999912977219
 30
0.0
 11
-56.09999812394382
 21
-70.09999912977219
 31
0.0
  0
LINE
  5
3E7
330
1F
100
AcDbEntity
  8
16
  6
Continuous
 62
     3
370
    25
100
AcDbLine
 10
-56.09999812394382
 20
-70.09999912977219
 30
0.0
 11
-56.09999812394382
 21
-66.29999907314777
 31
0.0
  0
LINE
  5
3E8
330
1F
100
AcDbEntity
  8
16
  6
Continuous
 62
     3
370
    25
100
AcDbLine
 10
-56.09999812394382
 20
-66.29999907314777
 30
0.0
 11
-55.89999812096359
 21
-66.09999907016754
 31
0.0
  0
LINE
  5
3E9
330
1F
100
AcDbEntity
  8
16
  6
Continuous
 62
     3
370
    25
100
AcDbLine
 10
-55.89999812096359
 20
-66.09999907016754
 30
0.0
 11
-55.89999812096359
 21
-65.49999906122684
 31
0.0
  0
LINE
  5
3EA
330
1F
100
AcDbEntity
  8
16
  6
Continuous
 62
     3
370
    25
100
AcDbLine
 10
-55.89999812096359
 20
-65.49999906122684
 30
0.0
 11
-55.09999810904266
 21
-64.09999904036522
 31
0.0
  0
LINE
  5
3EB
330
1F
100
AcDbEntity
  8
16
  6
Continuous
 62
     3
370
    25
100
AcDbLine
 10
-55.09999810904266
 20
-64.09999904036522
 30
0.0
 11
-54.49999810010195
 21
-64.09999904036522
 31
0.0
  0
LINE
  5
3EC
330
1F
100
AcDbEntity
  8
16
  6
Continuous
 62
     3
370
    25
100
AcDbLine
 10
-54.49999810010195
 20
-64.09999904036522
 30
0.0
 11
-54.49999810010195
 21
-63.69999903440475
 31
0.0
  0
LINE
  5
3ED
330
1F
100
AcDbEntity
  8
16
  6
Continuous
 62
     3
370
    25
100
AcDbLine
 10
-54.49999810010195
 20
-63.69999903440475
 30
0.0
 11
-55.29999811202288
 21
-63.69999903440475
 31
0.0
  0
LINE
  5
3EE
330
1F
100
AcDbEntity
  8
16
  6
Continuous
 62
     3
370
    25
100
AcDbLine
 10
-55.29999811202288
 20
-63.69999903440475
 30
0.0
 11
-56.49999812990428
 21
-64.89999905228615
 31
0.0
  0
LINE
  5
3EF
330
1F
100
AcDbEntity
  8
16
  6
Continuous
 62
     3
370
    25
100
AcDbLine
 10
-56.49999812990428
 20
-64.89999905228615
 30
0.0
 11
-57.69999814778568
 21
-63.69999903440475
 31
0.0
  0
LINE
  5
3F0
330
1F
100
AcDbEntity
  8
16
  6
Continuous
 62
     3
370
    25
100
AcDbLine
 10
-57.69999814778568
 20
-63.69999903440475
 30
0.0
 11
-58.49999815970661
 21
-63.69999903440475
 31
0.0
  0
CIRCLE
  5
3F1
330
1F
100
AcDbEntity
  8
16
  6
Continuous
 62
     3
370
    25
100
AcDbCircle
 10
-56.49999824755045
 20
-64.39999904483555
 30
0.0
 40
0.3599999958276747
  0
LINE
  5
3F2
330
1F
100
AcDbEntity
  8
16
  6
Continuous
 62
     3
370
    25
100
AcDbLine
 10
-52.91999319374555
 20
-63.69999903440475
 30
0.0
 11
-52.91999319374555
 21
-64.09999904036522
 31
0.0
  0
LINE
  5
3F3
330
1F
100
AcDbEntity
  8
16
  6
Continuous
 62
     3
370
    25
100
AcDbLine
 10
-52.91999319374555
 20
-64.09999904036522
 30
0.0
 11
-52.31999318480486
 21
-64.09999904036522
 31
0.0
  0
LINE
  5
3F4
330
1F
100
AcDbEntity
  8
16
  6
Continuous
 62
     3
370
    25
100
AcDbLine
 10
-52.31999318480486
 20
-64.09999904036522
 30
0.0
 11
-51.51999317288393
 21
-65.49999906122684
 31
0.0
  0
LINE
  5
3F5
330
1F
100
AcDbEntity
  8
16
  6
Continuous
 62
     3
370
    25
100
AcDbLine
 10
-51.51999317288393
 20
-65.49999906122684
 30
0.0
 11
-51.51999317288393
 21
-66.09999907016754
 31
0.0
  0
LINE
  5
3F6
330
1F
100
AcDbEntity
  8
16
  6
Continuous
 62
     3
370
    25
100
AcDbLine
 10
-51.51999317288393
 20
-66.09999907016754
 30
0.0
 11
-51.3199931699037
 21
-66.29999907314777
 31
0.0
  0
LINE
  5
3F7
330
1F
100
AcDbEntity
  8
16
  6
Continuous
 62
     3
370
    25
100
AcDbLine
 10
-51.3199931699037
 20
-66.29999907314777
 30
0.0
 11
-51.3199931699037
 21
-70.09999912977219
 31
0.0
  0
LINE
  5
3F8
330
1F
100
AcDbEntity
  8
16
  6
Continuous
 62
     3
370
    25
100
AcDbLine
 10
-51.3199931699037
 20
-70.09999912977219
 30
0.0
 11
-50.51999315798276
 21
-70.09999912977219
 31
0.0
  0
LINE
  5
3F9
330
1F
100
AcDbEntity
  8
16
  6
Continuous
 62
     3
370
    25
100
AcDbLine
 10
-50.51999315798276
 20
-70.09999912977219
 30
0.0
 11
-50.51999315798276
 21
-66.29999907314777
 31
0.0
  0
LINE
  5
3FA
330
1F
100
AcDbEntity
  8
16
  6
Continuous
 62
     3
370
    25
100
AcDbLine
 10
-50.51999315798276
 20
-66.29999907314777
 30
0.0
 11
-50.31999315500253
 21
-66.09999907016754
 31
0.0
  0
LINE
  5
3FB
330
1F
100
AcDbEntity
  8
16
  6
Continuous
 62
     3
370
    25
100
AcDbLine
 10
-50.31999315500253
 20
-66.09999907016754
 30
0.0
 11
-50.31999315500253
 21
-65.49999906122684
 31
0.0
  0
LINE
  5
3FC
330
1F
100
AcDbEntity
  8
16
  6
Continuous
 62
     3
370
    25
100
AcDbLine
 10
-50.31999315500253
 20
-65.49999906122684
 30
0.0
 11
-49.5199931430816
 21
-64.09999904036522
 31
0.0
  0
LINE
  5
3FD
330
1F
100
AcDbEntity
  8
16
  6
Continuous
 62
     3
370
    25
100
AcDbLine
 10
-49.5199931430816
 20
-64.09999904036522
 30
0.0
 11
-48.9199931341409
 21
-64.09999904036522
 31
0.0
  0
LINE
  5
3FE
330
1F
100
AcDbEntity
  8
16
  6
Continuous
 62
     3
370
    25
100
AcDbLine
 10
-48.9199931341409
 20
-64.09999904036522
 30
0.0
 11
-48.9199931341409
 21
-63.69999903440475
 31
0.0
  0
LINE
  5
3FF
330
1F
100
AcDbEntity
  8
16
  6
Continuous
 62
     3
370
    25
100
AcDbLine
 10
-48.9199931341409
 20
-63.69999903440475
 30
0.0
 11
-49.71999314606183
 21
-63.69999903440475
 31
0.0
  0
LINE
  5
400
330
1F
100
AcDbEntity
  8
16
  6
Continuous
 62
     3
370
    25
100
AcDbLine
 10
-49.71999314606183
 20
-63.69999903440475
 30
0.0
 11
-50.91999316394322
 21
-64.89999905228615
 31
0.0
  0
LINE
  5
401
330
1F
100
AcDbEntity
  8
16
  6
Continuous
 62
     3
370
    25
100
AcDbLine
 10
-50.91999316394322
 20
-64.89999905228615
 30
0.0
 11
-52.11999318182463
 21
-63.69999903440475
 31
0.0
  0
LINE
  5
402
330
1F
100
AcDbEntity
  8
16
  6
Continuous
 62
     3
370
    25
100
AcDbLine
 10
-52.11999318182463
 20
-63.69999903440475
 30
0.0
 11
-52.91999319374555
 21
-63.69999903440475
 31
0.0
  0
CIRCLE
  5
403
330
1F
100
AcDbEntity
  8
16
  6
Continuous
 62
     3
370
    25
100
AcDbCircle
 10
-50.91999328158939
 20
-64.39999904483555
 30
0.0
 40
0.3599999958276747
  0
LINE
  5
404
330
1F
100
AcDbEntity
  8
16
  6
Continuous
 62
     3
370
    25
100
AcDbLine
 10
-47.39999799430371
 20
-63.69999903440475
 30
0.0
 11
-47.39999799430371
 21
-64.09999904036522
 31
0.0
  0
LINE
  5
405
330
1F
100
AcDbEntity
  8
16
  6
Continuous
 62
     3
370
    25
100
AcDbLine
 10
-47.39999799430371
 20
-64.09999904036522
 30
0.0
 11
-46.79999798536301
 21
-64.09999904036522
 31
0.0
  0
LINE
  5
406
330
1F
100
AcDbEntity
  8
16
  6
Continuous
 62
     3
370
    25
100
AcDbLine
 10
-46.79999798536301
 20
-64.09999904036522
 30
0.0
 11
-45.99999797344208
 21
-65.49999906122684
 31
0.0
  0
LINE
  5
407
330
1F
100
AcDbEntity
  8
16
  6
Continuous
 62
     3
370
    25
100
AcDbLine
 10
-45.99999797344208
 20
-65.49999906122684
 30
0.0
 11
-45.99999797344208
 21
-66.09999907016754
 31
0.0
  0
LINE
  5
408
330
1F
100
AcDbEntity
  8
16
  6
Continuous
 62
     3
370
    25
100
AcDbLine
 10
-45.99999797344208
 20
-66.09999907016754
 30
0.0
 11
-45.79999797046185
 21
-66.29999907314777
 31
0.0
  0
LINE
  5
409
330
1F
100
AcDbEntity
  8
16
  6
Continuous
 62
     3
370
    25
100
AcDbLine
 10
-45.79999797046185
 20
-66.29999907314777
 30
0.0
 11
-45.79999797046185
 21
-70.09999912977219
 31
0.0
  0
LINE
  5
40A
330
1F
100
AcDbEntity
  8
16
  6
Continuous
 62
     3
370
    25
100
AcDbLine
 10
-45.79999797046185
 20
-70.09999912977219
 30
0.0
 11
-44.99999795854092
 21
-70.09999912977219
 31
0.0
  0
LINE
  5
40B
330
1F
100
AcDbEntity
  8
16
  6
Continuous
 62
     3
370
    25
100
AcDbLine
 10
-44.99999795854092
 20
-70.09999912977219
 30
0.0
 11
-44.99999795854092
 21
-66.29999907314777
 31
0.0
  0
LINE
  5
40C
330
1F
100
AcDbEntity
  8
16
  6
Continuous
 62
     3
370
    25
100
AcDbLine
 10
-44.99999795854092
 20
-66.29999907314777
 30
0.0
 11
-44.79999795556069
 21
-66.09999907016754
 31
0.0
  0
LINE
  5
40D
330
1F
100
AcDbEntity
  8
16
  6
Continuous
 62
     3
370
    25
100
AcDbLine
 10
-44.79999795556069
 20
-66.09999907016754
 30
0.0
 11
-44.79999795556069
 21
-65.49999906122684
 31
0.0
  0
LINE
  5
40E
330
1F
100
AcDbEntity
  8
16
  6
Continuous
 62
     3
370
    25
100
AcDbLine
 10
-44.79999795556069
 20
-65.49999906122684
 30
0.0
 11
-43.99999794363976
 21
-64.09999904036522
 31
0.0
  0
LINE
  5
40F
330
1F
100
AcDbEntity
  8
16
  6
Continuous
 62
     3
370
    25
100
AcDbLine
 10
-43.99999794363976
 20
-64.09999904036522
 30
0.0
 11
-43.39999793469907
 21
-64.09999904036522
 31
0.0
  0
LINE
  5
410
330
1F
100
AcDbEntity
  8
16
  6
Continuous
 62
     3
370
    25
100
AcDbLine
 10
-43.39999793469907
 20
-64.09999904036522
 30
0.0
 11
-43.39999793469907
 21
-63.69999903440475
 31
0.0
  0
LINE
  5
411
330
1F
100
AcDbEntity
  8
16
  6
Continuous
 62
     3
370
    25
100
AcDbLine
 10
-43.39999793469907
 20
-63.69999903440475
 30
0.0
 11
-44.19999794661999
 21
-63.69999903440475
 31
0.0
  0
LINE
  5
412
330
1F
100
AcDbEntity
  8
16
  6
Continuous
 62
     3
370
    25
100
AcDbLine
 10
-44.19999794661999
 20
-63.69999903440475
 30
0.0
 11
-45.39999796450139
 21
-64.89999905228615
 31
0.0
  0
LINE
  5
413
330
1F
100
AcDbEntity
  8
16
  6
Continuous
 62
     3
370
    25
100
AcDbLine
 10
-45.39999796450139
 20
-64.89999905228615
 30
0.0
 11
-46.59999798238278
 21
-63.69999903440475
 31
0.0
  0
LINE
  5
414
330
1F
100
AcDbEntity
  8
16
  6
Continuous
 62
     3
370
    25
100
AcDbLine
 10
-46.59999798238278
 20
-63.69999903440475
 30
0.0
 11
-47.39999799430371
 21
-63.69999903440475
 31
0.0
  0
CIRCLE
  5
415
330
1F
100
AcDbEntity
  8
16
  6
Continuous
 62
     3
370
    25
100
AcDbCircle
 10
-45.39999808214755
 20
-64.39999904483555
 30
0.0
 40
0.3599999958276747
  0
LINE
  5
416
330
1F
100
AcDbEntity
  8
16
  6
Continuous
 62
     3
370
    25
100
AcDbLine
 10
-142.1999994069338
 20
-63.69999903440475
 30
0.0
 11
-43.39999793469907
 21
-63.69999903440475
 31
0.0
  0
LINE
  5
417
330
1F
100
AcDbEntity
  8
16
  6
Continuous
 62
     3
370
    25
100
AcDbLine
 10
-142.1999994069338
 20
-63.69999903440475
 30
0.0
 11
-142.1999994069338
 21
-68.69999910891056
 31
0.0
  0
LINE
  5
418
330
1F
100
AcDbEntity
  8
16
  6
Continuous
 62
     3
370
    25
100
AcDbLine
 10
-142.1999994069338
 20
-68.69999910891056
 30
0.0
 11
-140.649999383837
 21
-68.69999910891056
 31
0.0
  0
LINE
  5
419
330
1F
100
AcDbEntity
  8
16
  6
Continuous
 62
     3
370
    25
100
AcDbLine
 10
-139.7499993704259
 20
-68.69999910891056
 30
0.0
 11
-135.0699993769824
 21
-68.69999910891056
 31
0.0
  0
LINE
  5
41A
330
1F
100
AcDbEntity
  8
16
  6
Continuous
 62
     3
370
    25
100
AcDbLine
 10
-134.1700005079806
 20
-68.69999910891056
 30
0.0
 11
-129.4900005145371
 21
-68.69999910891056
 31
0.0
  0
LINE
  5
41B
330
1F
100
AcDbEntity
  8
16
  6
Continuous
 62
     3
370
    25
100
AcDbLine
 10
-128.5900016455353
 20
-68.69999910891056
 30
0.0
 11
-123.9100016520918
 21
-68.69999910891056
 31
0.0
  0
LINE
  5
41C
330
1F
100
AcDbEntity
  8
16
  6
Continuous
 62
     3
370
    25
100
AcDbLine
 10
-123.0099966795742
 20
-68.69999910891056
 30
0.0
 11
-118.3299966861307
 21
-68.69999910891056
 31
0.0
  0
LINE
  5
41D
330
1F
100
AcDbEntity
  8
16
  6
Continuous
 62
     3
370
    25
100
AcDbLine
 10
-117.4299978171289
 20
-68.69999910891056
 30
0.0
 11
-112.7499978236854
 21
-68.69999910891056
 31
0.0
  0
LINE
  5
41E
330
1F
100
AcDbEntity
  8
16
  6
Continuous
 62
     3
370
    25
100
AcDbLine
 10
-111.8499989546835
 20
-68.69999910891056
 30
0.0
 11
-107.16999896124
 21
-68.69999910891056
 31
0.0
  0
LINE
  5
41F
330
1F
100
AcDbEntity
  8
16
  6
Continuous
 62
     3
370
    25
100
AcDbLine
 10
-106.2700000922382
 20
-68.69999910891056
 30
0.0
 11
-101.5900000987947
 21
-68.69999910891056
 31
0.0
  0
LINE
  5
420
330
1F
100
AcDbEntity
  8
16
  6
Continuous
 62
     3
370
    25
100
AcDbLine
 10
-100.6900012297929
 20
-68.69999910891056
 30
0.0
 11
-96.0100012363494
 21
-68.69999910891056
 31
0.0
  0
LINE
  5
421
330
1F
100
AcDbEntity
  8
16
  6
Continuous
 62
     3
370
    25
100
AcDbLine
 10
-95.10999626383183
 20
-68.69999910891056
 30
0.0
 11
-90.42999627038834
 21
-68.69999910891056
 31
0.0
  0
LINE
  5
422
330
1F
100
AcDbEntity
  8
16
  6
Continuous
 62
     3
370
    25
100
AcDbLine
 10
-89.5299974013865
 20
-68.69999910891056
 30
0.0
 11
-84.84999740794301
 21
-68.69999910891056
 31
0.0
  0
LINE
  5
423
330
1F
100
AcDbEntity
  8
16
  6
Continuous
 62
     3
370
    25
100
AcDbLine
 10
-83.94999853894116
 20
-68.69999910891056
 30
0.0
 11
-79.26999854549767
 21
-68.69999910891056
 31
0.0
  0
LINE
  5
424
330
1F
100
AcDbEntity
  8
16
  6
Continuous
 62
     3
370
    25
100
AcDbLine
 10
-78.3699935729801
 20
-68.69999910891056
 30
0.0
 11
-73.68999357953662
 21
-68.69999910891056
 31
0.0
  0
LINE
  5
425
330
1F
100
AcDbEntity
  8
16
  6
Continuous
 62
     3
370
    25
100
AcDbLine
 10
-72.79000081405049
 20
-68.69999910891056
 30
0.0
 11
-68.110000820607
 21
-68.69999910891056
 31
0.0
  0
LINE
  5
426
330
1F
100
AcDbEntity
  8
16
  6
Continuous
 62
     3
370
    25
100
AcDbLine
 10
-67.20999584808943
 20
-68.69999910891056
 30
0.0
 11
-62.52999585464594
 21
-68.69999910891056
 31
0.0
  0
LINE
  5
427
330
1F
100
AcDbEntity
  8
16
  6
Continuous
 62
     3
370
    25
100
AcDbLine
 10
-61.63000308915981
 20
-68.69999910891056
 30
0.0
 11
-56.95000309571632
 21
-68.69999910891056
 31
0.0
  0
LINE
  5
428
330
1F
100
AcDbEntity
  8
16
  6
Continuous
 62
     3
370
    25
100
AcDbLine
 10
-56.04999812319875
 20
-68.69999910891056
 30
0.0
 11
-51.36999812975527
 21
-68.69999910891056
 31
0.0
  0
LINE
  5
429
330
1F
100
AcDbEntity
  8
16
  6
Continuous
 62
     3
370
    25
100
AcDbLine
 10
-50.4699931572377
 20
-68.69999910891056
 30
0.0
 11
-45.84999301210039
 21
-68.69999910891056
 31
0.0
  0
LINE
  5
42A
330
1F
100
AcDbEntity
  8
16
  6
Continuous
 62
     3
370
    25
100
AcDbLine
 10
-44.94999795779587
 20
-68.69999910891056
 30
0.0
 11
-43.39999793469907
 21
-68.69999910891056
 31
0.0
  0
LINE
  5
42B
330
1F
100
AcDbEntity
  8
16
  6
Continuous
 62
     3
370
    25
100
AcDbLine
 10
-43.39999793469907
 20
-68.69999910891056
 30
0.0
 11
-43.39999793469907
 21
-63.69999903440475
 31
0.0
  0
LINE
  5
42C
330
1F
100
AcDbEntity
  8
16
  6
Continuous
 62
     3
370
    25
100
AcDbLine
 10
-139.7499993704259
 20
-66.29999907314777
 30
0.0
 11
-139.5499993674457
 21
-66.09999907016754
 31
0.0
  0
LINE
  5
42D
330
1F
100
AcDbEntity
  8
16
  6
Continuous
 62
     3
370
    25
100
AcDbLine
 10
-139.5499993674457
 20
-66.09999907016754
 30
0.0
 11
-135.2699993799627
 21
-66.09999907016754
 31
0.0
  0
LINE
  5
42E
330
1F
100
AcDbEntity
  8
16
  6
Continuous
 62
     3
370
    25
100
AcDbLine
 10
-135.2699993799627
 20
-66.09999907016754
 30
0.0
 11
-135.0699993769824
 21
-66.29999907314777
 31
0.0
  0
LINE
  5
42F
330
1F
100
AcDbEntity
  8
16
  6
Continuous
 62
     3
370
    25
100
AcDbLine
 10
-135.0699993769824
 20
-68.2999991029501
 30
0.0
 11
-135.2699993799627
 21
-68.49999910593033
 31
0.0
  0
LINE
  5
430
330
1F
100
AcDbEntity
  8
16
  6
Continuous
 62
     3
370
    25
100
AcDbLine
 10
-135.2699993799627
 20
-68.49999910593033
 30
0.0
 11
-139.5499993674457
 21
-68.49999910593033
 31
0.0
  0
LINE
  5
431
330
1F
100
AcDbEntity
  8
16
  6
Continuous
 62
     3
370
    25
100
AcDbLine
 10
-139.5499993674457
 20
-68.49999910593033
 30
0.0
 11
-139.7499993704259
 21
-68.2999991029501
 31
0.0
  0
LINE
  5
432
330
1F
100
AcDbEntity
  8
16
  6
Continuous
 62
     3
370
    25
100
AcDbLine
 10
-134.1700005079806
 20
-66.29999907314777
 30
0.0
 11
-133.9700005050004
 21
-66.09999907016754
 31
0.0
  0
LINE
  5
433
330
1F
100
AcDbEntity
  8
16
  6
Continuous
 62
     3
370
    25
100
AcDbLine
 10
-133.9700005050004
 20
-66.09999907016754
 30
0.0
 11
-129.6900005175173
 21
-66.09999907016754
 31
0.0
  0
LINE
  5
434
330
1F
100
AcDbEntity
  8
16
  6
Continuous
 62
     3
370
    25
100
AcDbLine
 10
-129.6900005175173
 20
-66.09999907016754
 30
0.0
 11
-129.4900005145371
 21
-66.29999907314777
 31
0.0
  0
LINE
  5
435
330
1F
100
AcDbEntity
  8
16
  6
Continuous
 62
     3
370
    25
100
AcDbLine
 10
-129.4900005145371
 20
-68.2999991029501
 30
0.0
 11
-129.6900005175173
 21
-68.49999910593033
 31
0.0
  0
LINE
  5
436
330
1F
100
AcDbEntity
  8
16
  6
Continuous
 62
     3
370
    25
100
AcDbLine
 10
-129.6900005175173
 20
-68.49999910593033
 30
0.0
 11
-133.9700005050004
 21
-68.49999910593033
 31
0.0
  0
LINE
  5
437
330
1F
100
AcDbEntity
  8
16
  6
Continuous
 62
     3
370
    25
100
AcDbLine
 10
-133.9700005050004
 20
-68.49999910593033
 30
0.0
 11
-134.1700005079806
 21
-68.2999991029501
 31
0.0
  0
LINE
  5
438
330
1F
100
AcDbEntity
  8
16
  6
Continuous
 62
     3
370
    25
100
AcDbLine
 10
-128.5900016455353
 20
-66.29999907314777
 30
0.0
 11
-128.390001642555
 21
-66.09999907016754
 31
0.0
  0
LINE
  5
439
330
1F
100
AcDbEntity
  8
16
  6
Continuous
 62
     3
370
    25
100
AcDbLine
 10
-128.390001642555
 20
-66.09999907016754
 30
0.0
 11
-124.110001655072
 21
-66.09999907016754
 31
0.0
  0
LINE
  5
43A
330
1F
100
AcDbEntity
  8
16
  6
Continuous
 62
     3
370
    25
100
AcDbLine
 10
-124.110001655072
 20
-66.09999907016754
 30
0.0
 11
-123.9100016520918
 21
-66.29999907314777
 31
0.0
  0
LINE
  5
43B
330
1F
100
AcDbEntity
  8
16
  6
Continuous
 62
     3
370
    25
100
AcDbLine
 10
-123.9100016520918
 20
-68.2999991029501
 30
0.0
 11
-124.110001655072
 21
-68.49999910593033
 31
0.0
  0
LINE
  5
43C
330
1F
100
AcDbEntity
  8
16
  6
Continuous
 62
     3
370
    25
100
AcDbLine
 10
-124.110001655072
 20
-68.49999910593033
 30
0.0
 11
-128.390001642555
 21
-68.49999910593033
 31
0.0
  0
LINE
  5
43D
330
1F
100
AcDbEntity
  8
16
  6
Continuous
 62
     3
370
    25
100
AcDbLine
 10
-128.390001642555
 20
-68.49999910593033
 30
0.0
 11
-128.5900016455353
 21
-68.2999991029501
 31
0.0
  0
LINE
  5
43E
330
1F
100
AcDbEntity
  8
16
  6
Continuous
 62
     3
370
    25
100
AcDbLine
 10
-123.0099966795742
 20
-66.29999907314777
 30
0.0
 11
-122.809996676594
 21
-66.09999907016754
 31
0.0
  0
LINE
  5
43F
330
1F
100
AcDbEntity
  8
16
  6
Continuous
 62
     3
370
    25
100
AcDbLine
 10
-122.809996676594
 20
-66.09999907016754
 30
0.0
 11
-118.5299966891109
 21
-66.09999907016754
 31
0.0
  0
LINE
  5
440
330
1F
100
AcDbEntity
  8
16
  6
Continuous
 62
     3
370
    25
100
AcDbLine
 10
-118.5299966891109
 20
-66.09999907016754
 30
0.0
 11
-118.3299966861307
 21
-66.29999907314777
 31
0.0
  0
LINE
  5
441
330
1F
100
AcDbEntity
  8
16
  6
Continuous
 62
     3
370
    25
100
AcDbLine
 10
-118.3299966861307
 20
-68.2999991029501
 30
0.0
 11
-118.5299966891109
 21
-68.49999910593033
 31
0.0
  0
LINE
  5
442
330
1F
100
AcDbEntity
  8
16
  6
Continuous
 62
     3
370
    25
100
AcDbLine
 10
-118.5299966891109
 20
-68.49999910593033
 30
0.0
 11
-122.809996676594
 21
-68.49999910593033
 31
0.0
  0
LINE
  5
443
330
1F
100
AcDbEntity
  8
16
  6
Continuous
 62
     3
370
    25
100
AcDbLine
 10
-122.809996676594
 20
-68.49999910593033
 30
0.0
 11
-123.0099966795742
 21
-68.2999991029501
 31
0.0
  0
LINE
  5
444
330
1F
100
AcDbEntity
  8
16
  6
Continuous
 62
     3
370
    25
100
AcDbLine
 10
-117.4299978171289
 20
-66.29999907314777
 30
0.0
 11
-117.2299978141486
 21
-66.09999907016754
 31
0.0
  0
LINE
  5
445
330
1F
100
AcDbEntity
  8
16
  6
Continuous
 62
     3
370
    25
100
AcDbLine
 10
-117.2299978141486
 20
-66.09999907016754
 30
0.0
 11
-112.9499978266656
 21
-66.09999907016754
 31
0.0
  0
LINE
  5
446
330
1F
100
AcDbEntity
  8
16
  6
Continuous
 62
     3
370
    25
100
AcDbLine
 10
-112.9499978266656
 20
-66.09999907016754
 30
0.0
 11
-112.7499978236854
 21
-66.29999907314777
 31
0.0
  0
LINE
  5
447
330
1F
100
AcDbEntity
  8
16
  6
Continuous
 62
     3
370
    25
100
AcDbLine
 10
-112.7499978236854
 20
-68.2999991029501
 30
0.0
 11
-112.9499978266656
 21
-68.49999910593033
 31
0.0
  0
LINE
  5
448
330
1F
100
AcDbEntity
  8
16
  6
Continuous
 62
     3
370
    25
100
AcDbLine
 10
-112.9499978266656
 20
-68.49999910593033
 30
0.0
 11
-117.2299978141486
 21
-68.49999910593033
 31
0.0
  0
LINE
  5
449
330
1F
100
AcDbEntity
  8
16
  6
Continuous
 62
     3
370
    25
100
AcDbLine
 10
-117.2299978141486
 20
-68.49999910593033
 30
0.0
 11
-117.4299978171289
 21
-68.2999991029501
 31
0.0
  0
LINE
  5
44A
330
1F
100
AcDbEntity
  8
16
  6
Continuous
 62
     3
370
    25
100
AcDbLine
 10
-111.8499989546835
 20
-66.29999907314777
 30
0.0
 11
-111.6499989517033
 21
-66.09999907016754
 31
0.0
  0
LINE
  5
44B
330
1F
100
AcDbEntity
  8
16
  6
Continuous
 62
     3
370
    25
100
AcDbLine
 10
-111.6499989517033
 20
-66.09999907016754
 30
0.0
 11
-107.3699989642203
 21
-66.09999907016754
 31
0.0
  0
LINE
  5
44C
330
1F
100
AcDbEntity
  8
16
  6
Continuous
 62
     3
370
    25
100
AcDbLine
 10
-107.3699989642203
 20
-66.09999907016754
 30
0.0
 11
-107.16999896124
 21
-66.29999907314777
 31
0.0
  0
LINE
  5
44D
330
1F
100
AcDbEntity
  8
16
  6
Continuous
 62
     3
370
    25
100
AcDbLine
 10
-107.16999896124
 20
-68.2999991029501
 30
0.0
 11
-107.3699989642203
 21
-68.49999910593033
 31
0.0
  0
LINE
  5
44E
330
1F
100
AcDbEntity
  8
16
  6
Continuous
 62
     3
370
    25
100
AcDbLine
 10
-107.3699989642203
 20
-68.49999910593033
 30
0.0
 11
-111.6499989517033
 21
-68.49999910593033
 31
0.0
  0
LINE
  5
44F
330
1F
100
AcDbEntity
  8
16
  6
Continuous
 62
     3
370
    25
100
AcDbLine
 10
-111.6499989517033
 20
-68.49999910593033
 30
0.0
 11
-111.8499989546835
 21
-68.2999991029501
 31
0.0
  0
LINE
  5
450
330
1F
100
AcDbEntity
  8
16
  6
Continuous
 62
     3
370
    25
100
AcDbLine
 10
-106.2700000922382
 20
-66.29999907314777
 30
0.0
 11
-106.070000089258
 21
-66.09999907016754
 31
0.0
  0
LINE
  5
451
330
1F
100
AcDbEntity
  8
16
  6
Continuous
 62
     3
370
    25
100
AcDbLine
 10
-106.070000089258
 20
-66.09999907016754
 30
0.0
 11
-101.7900001017749
 21
-66.09999907016754
 31
0.0
  0
LINE
  5
452
330
1F
100
AcDbEntity
  8
16
  6
Continuous
 62
     3
370
    25
100
AcDbLine
 10
-101.7900001017749
 20
-66.09999907016754
 30
0.0
 11
-101.5900000987947
 21
-66.29999907314777
 31
0.0
  0
LINE
  5
453
330
1F
100
AcDbEntity
  8
16
  6
Continuous
 62
     3
370
    25
100
AcDbLine
 10
-101.5900000987947
 20
-68.2999991029501
 30
0.0
 11
-101.7900001017749
 21
-68.49999910593033
 31
0.0
  0
LINE
  5
454
330
1F
100
AcDbEntity
  8
16
  6
Continuous
 62
     3
370
    25
100
AcDbLine
 10
-101.7900001017749
 20
-68.49999910593033
 30
0.0
 11
-106.070000089258
 21
-68.49999910593033
 31
0.0
  0
LINE
  5
455
330
1F
100
AcDbEntity
  8
16
  6
Continuous
 62
     3
370
    25
100
AcDbLine
 10
-106.070000089258
 20
-68.49999910593033
 30
0.0
 11
-106.2700000922382
 21
-68.2999991029501
 31
0.0
  0
LINE
  5
456
330
1F
100
AcDbEntity
  8
16
  6
Continuous
 62
     3
370
    25
100
AcDbLine
 10
-100.6900012297929
 20
-66.29999907314777
 30
0.0
 11
-100.4900012268127
 21
-66.09999907016754
 31
0.0
  0
LINE
  5
457
330
1F
100
AcDbEntity
  8
16
  6
Continuous
 62
     3
370
    25
100
AcDbLine
 10
-100.4900012268127
 20
-66.09999907016754
 30
0.0
 11
-96.21000123932963
 21
-66.09999907016754
 31
0.0
  0
LINE
  5
458
330
1F
100
AcDbEntity
  8
16
  6
Continuous
 62
     3
370
    25
100
AcDbLine
 10
-96.21000123932963
 20
-66.09999907016754
 30
0.0
 11
-96.0100012363494
 21
-66.29999907314777
 31
0.0
  0
LINE
  5
459
330
1F
100
AcDbEntity
  8
16
  6
Continuous
 62
     3
370
    25
100
AcDbLine
 10
-96.0100012363494
 20
-68.2999991029501
 30
0.0
 11
-96.21000123932963
 21
-68.49999910593033
 31
0.0
  0
LINE
  5
45A
330
1F
100
AcDbEntity
  8
16
  6
Continuous
 62
     3
370
    25
100
AcDbLine
 10
-96.21000123932963
 20
-68.49999910593033
 30
0.0
 11
-100.4900012268127
 21
-68.49999910593033
 31
0.0
  0
LINE
  5
45B
330
1F
100
AcDbEntity
  8
16
  6
Continuous
 62
     3
370
    25
100
AcDbLine
 10
-100.4900012268127
 20
-68.49999910593033
 30
0.0
 11
-100.6900012297929
 21
-68.2999991029501
 31
0.0
  0
LINE
  5
45C
330
1F
100
AcDbEntity
  8
16
  6
Continuous
 62
     3
370
    25
100
AcDbLine
 10
-95.10999626383183
 20
-66.29999907314777
 30
0.0
 11
-94.9099962608516
 21
-66.09999907016754
 31
0.0
  0
LINE
  5
45D
330
1F
100
AcDbEntity
  8
16
  6
Continuous
 62
     3
370
    25
100
AcDbLine
 10
-94.9099962608516
 20
-66.09999907016754
 30
0.0
 11
-90.62999627336858
 21
-66.09999907016754
 31
0.0
  0
LINE
  5
45E
330
1F
100
AcDbEntity
  8
16
  6
Continuous
 62
     3
370
    25
100
AcDbLine
 10
-90.62999627336858
 20
-66.09999907016754
 30
0.0
 11
-90.42999627038834
 21
-66.29999907314777
 31
0.0
  0
LINE
  5
45F
330
1F
100
AcDbEntity
  8
16
  6
Continuous
 62
     3
370
    25
100
AcDbLine
 10
-90.42999627038834
 20
-68.2999991029501
 30
0.0
 11
-90.62999627336858
 21
-68.49999910593033
 31
0.0
  0
LINE
  5
460
330
1F
100
AcDbEntity
  8
16
  6
Continuous
 62
     3
370
    25
100
AcDbLine
 10
-90.62999627336858
 20
-68.49999910593033
 30
0.0
 11
-94.9099962608516
 21
-68.49999910593033
 31
0.0
  0
LINE
  5
461
330
1F
100
AcDbEntity
  8
16
  6
Continuous
 62
     3
370
    25
100
AcDbLine
 10
-94.9099962608516
 20
-68.49999910593033
 30
0.0
 11
-95.10999626383183
 21
-68.2999991029501
 31
0.0
  0
LINE
  5
462
330
1F
100
AcDbEntity
  8
16
  6
Continuous
 62
     3
370
    25
100
AcDbLine
 10
-89.5299974013865
 20
-66.29999907314777
 30
0.0
 11
-89.32999739840626
 21
-66.09999907016754
 31
0.0
  0
LINE
  5
463
330
1F
100
AcDbEntity
  8
16
  6
Continuous
 62
     3
370
    25
100
AcDbLine
 10
-89.32999739840626
 20
-66.09999907016754
 30
0.0
 11
-85.04999741092324
 21
-66.09999907016754
 31
0.0
  0
LINE
  5
464
330
1F
100
AcDbEntity
  8
16
  6
Continuous
 62
     3
370
    25
100
AcDbLine
 10
-85.04999741092324
 20
-66.09999907016754
 30
0.0
 11
-84.84999740794301
 21
-66.29999907314777
 31
0.0
  0
LINE
  5
465
330
1F
100
AcDbEntity
  8
16
  6
Continuous
 62
     3
370
    25
100
AcDbLine
 10
-84.84999740794301
 20
-68.2999991029501
 30
0.0
 11
-85.04999741092324
 21
-68.49999910593033
 31
0.0
  0
LINE
  5
466
330
1F
100
AcDbEntity
  8
16
  6
Continuous
 62
     3
370
    25
100
AcDbLine
 10
-85.04999741092324
 20
-68.49999910593033
 30
0.0
 11
-89.32999739840626
 21
-68.49999910593033
 31
0.0
  0
LINE
  5
467
330
1F
100
AcDbEntity
  8
16
  6
Continuous
 62
     3
370
    25
100
AcDbLine
 10
-89.32999739840626
 20
-68.49999910593033
 30
0.0
 11
-89.5299974013865
 21
-68.2999991029501
 31
0.0
  0
LINE
  5
468
330
1F
100
AcDbEntity
  8
16
  6
Continuous
 62
     3
370
    25
100
AcDbLine
 10
-83.94999853894116
 20
-66.29999907314777
 30
0.0
 11
-83.74999853596093
 21
-66.09999907016754
 31
0.0
  0
LINE
  5
469
330
1F
100
AcDbEntity
  8
16
  6
Continuous
 62
     3
370
    25
100
AcDbLine
 10
-83.74999853596093
 20
-66.09999907016754
 30
0.0
 11
-79.4699985484779
 21
-66.09999907016754
 31
0.0
  0
LINE
  5
46A
330
1F
100
AcDbEntity
  8
16
  6
Continuous
 62
     3
370
    25
100
AcDbLine
 10
-79.4699985484779
 20
-66.09999907016754
 30
0.0
 11
-79.26999854549767
 21
-66.29999907314777
 31
0.0
  0
LINE
  5
46B
330
1F
100
AcDbEntity
  8
16
  6
Continuous
 62
     3
370
    25
100
AcDbLine
 10
-79.26999854549767
 20
-68.2999991029501
 30
0.0
 11
-79.4699985484779
 21
-68.49999910593033
 31
0.0
  0
LINE
  5
46C
330
1F
100
AcDbEntity
  8
16
  6
Continuous
 62
     3
370
    25
100
AcDbLine
 10
-79.4699985484779
 20
-68.49999910593033
 30
0.0
 11
-83.74999853596093
 21
-68.49999910593033
 31
0.0
  0
LINE
  5
46D
330
1F
100
AcDbEntity
  8
16
  6
Continuous
 62
     3
370
    25
100
AcDbLine
 10
-83.74999853596093
 20
-68.49999910593033
 30
0.0
 11
-83.94999853894116
 21
-68.2999991029501
 31
0.0
  0
LINE
  5
46E
330
1F
100
AcDbEntity
  8
16
  6
Continuous
 62
     3
370
    25
100
AcDbLine
 10
-78.3699935729801
 20
-66.29999907314777
 30
0.0
 11
-78.16999356999987
 21
-66.09999907016754
 31
0.0
  0
LINE
  5
46F
330
1F
100
AcDbEntity
  8
16
  6
Continuous
 62
     3
370
    25
100
AcDbLine
 10
-78.16999356999987
 20
-66.09999907016754
 30
0.0
 11
-73.88999358251685
 21
-66.09999907016754
 31
0.0
  0
LINE
  5
470
330
1F
100
AcDbEntity
  8
16
  6
Continuous
 62
     3
370
    25
100
AcDbLine
 10
-73.88999358251685
 20
-66.09999907016754
 30
0.0
 11
-73.68999357953662
 21
-66.29999907314777
 31
0.0
  0
LINE
  5
471
330
1F
100
AcDbEntity
  8
16
  6
Continuous
 62
     3
370
    25
100
AcDbLine
 10
-73.68999357953662
 20
-68.2999991029501
 30
0.0
 11
-73.88999358251685
 21
-68.49999910593033
 31
0.0
  0
LINE
  5
472
330
1F
100
AcDbEntity
  8
16
  6
Continuous
 62
     3
370
    25
100
AcDbLine
 10
-73.88999358251685
 20
-68.49999910593033
 30
0.0
 11
-78.16999356999987
 21
-68.49999910593033
 31
0.0
  0
LINE
  5
473
330
1F
100
AcDbEntity
  8
16
  6
Continuous
 62
     3
370
    25
100
AcDbLine
 10
-78.16999356999987
 20
-68.49999910593033
 30
0.0
 11
-78.3699935729801
 21
-68.2999991029501
 31
0.0
  0
LINE
  5
474
330
1F
100
AcDbEntity
  8
16
  6
Continuous
 62
     3
370
    25
100
AcDbLine
 10
-72.79000081405049
 20
-66.29999907314777
 30
0.0
 11
-72.59000081107025
 21
-66.09999907016754
 31
0.0
  0
LINE
  5
475
330
1F
100
AcDbEntity
  8
16
  6
Continuous
 62
     3
370
    25
100
AcDbLine
 10
-72.59000081107025
 20
-66.09999907016754
 30
0.0
 11
-68.31000082358723
 21
-66.09999907016754
 31
0.0
  0
LINE
  5
476
330
1F
100
AcDbEntity
  8
16
  6
Continuous
 62
     3
370
    25
100
AcDbLine
 10
-68.31000082358723
 20
-66.09999907016754
 30
0.0
 11
-68.110000820607
 21
-66.29999907314777
 31
0.0
  0
LINE
  5
477
330
1F
100
AcDbEntity
  8
16
  6
Continuous
 62
     3
370
    25
100
AcDbLine
 10
-68.110000820607
 20
-68.2999991029501
 30
0.0
 11
-68.31000082358723
 21
-68.49999910593033
 31
0.0
  0
LINE
  5
478
330
1F
100
AcDbEntity
  8
16
  6
Continuous
 62
     3
370
    25
100
AcDbLine
 10
-68.31000082358723
 20
-68.49999910593033
 30
0.0
 11
-72.59000081107025
 21
-68.49999910593033
 31
0.0
  0
LINE
  5
479
330
1F
100
AcDbEntity
  8
16
  6
Continuous
 62
     3
370
    25
100
AcDbLine
 10
-72.59000081107025
 20
-68.49999910593033
 30
0.0
 11
-72.79000081405049
 21
-68.2999991029501
 31
0.0
  0
LINE
  5
47A
330
1F
100
AcDbEntity
  8
16
  6
Continuous
 62
     3
370
    25
100
AcDbLine
 10
-67.20999584808943
 20
-66.29999907314777
 30
0.0
 11
-67.0099958451092
 21
-66.09999907016754
 31
0.0
  0
LINE
  5
47B
330
1F
100
AcDbEntity
  8
16
  6
Continuous
 62
     3
370
    25
100
AcDbLine
 10
-67.0099958451092
 20
-66.09999907016754
 30
0.0
 11
-62.72999585762617
 21
-66.09999907016754
 31
0.0
  0
LINE
  5
47C
330
1F
100
AcDbEntity
  8
16
  6
Continuous
 62
     3
370
    25
100
AcDbLine
 10
-62.72999585762617
 20
-66.09999907016754
 30
0.0
 11
-62.52999585464594
 21
-66.29999907314777
 31
0.0
  0
LINE
  5
47D
330
1F
100
AcDbEntity
  8
16
  6
Continuous
 62
     3
370
    25
100
AcDbLine
 10
-62.52999585464594
 20
-68.2999991029501
 30
0.0
 11
-62.72999585762617
 21
-68.49999910593033
 31
0.0
  0
LINE
  5
47E
330
1F
100
AcDbEntity
  8
16
  6
Continuous
 62
     3
370
    25
100
AcDbLine
 10
-62.72999585762617
 20
-68.49999910593033
 30
0.0
 11
-67.0099958451092
 21
-68.49999910593033
 31
0.0
  0
LINE
  5
47F
330
1F
100
AcDbEntity
  8
16
  6
Continuous
 62
     3
370
    25
100
AcDbLine
 10
-67.0099958451092
 20
-68.49999910593033
 30
0.0
 11
-67.20999584808943
 21
-68.2999991029501
 31
0.0
  0
LINE
  5
480
330
1F
100
AcDbEntity
  8
16
  6
Continuous
 62
     3
370
    25
100
AcDbLine
 10
-61.63000308915981
 20
-66.29999907314777
 30
0.0
 11
-61.43000308617957
 21
-66.09999907016754
 31
0.0
  0
LINE
  5
481
330
1F
100
AcDbEntity
  8
16
  6
Continuous
 62
     3
370
    25
100
AcDbLine
 10
-61.43000308617957
 20
-66.09999907016754
 30
0.0
 11
-57.15000309869655
 21
-66.09999907016754
 31
0.0
  0
LINE
  5
482
330
1F
100
AcDbEntity
  8
16
  6
Continuous
 62
     3
370
    25
100
AcDbLine
 10
-57.15000309869655
 20
-66.09999907016754
 30
0.0
 11
-56.95000309571632
 21
-66.29999907314777
 31
0.0
  0
LINE
  5
483
330
1F
100
AcDbEntity
  8
16
  6
Continuous
 62
     3
370
    25
100
AcDbLine
 10
-56.95000309571632
 20
-68.2999991029501
 30
0.0
 11
-57.15000309869655
 21
-68.49999910593033
 31
0.0
  0
LINE
  5
484
330
1F
100
AcDbEntity
  8
16
  6
Continuous
 62
     3
370
    25
100
AcDbLine
 10
-57.15000309869655
 20
-68.49999910593033
 30
0.0
 11
-61.43000308617957
 21
-68.49999910593033
 31
0.0
  0
LINE
  5
485
330
1F
100
AcDbEntity
  8
16
  6
Continuous
 62
     3
370
    25
100
AcDbLine
 10
-61.43000308617957
 20
-68.49999910593033
 30
0.0
 11
-61.63000308915981
 21
-68.2999991029501
 31
0.0
  0
LINE
  5
486
330
1F
100
AcDbEntity
  8
16
  6
Continuous
 62
     3
370
    25
100
AcDbLine
 10
-56.04999812319875
 20
-66.29999907314777
 30
0.0
 11
-55.84999812021853
 21
-66.09999907016754
 31
0.0
  0
LINE
  5
487
330
1F
100
AcDbEntity
  8
16
  6
Continuous
 62
     3
370
    25
100
AcDbLine
 10
-55.84999812021853
 20
-66.09999907016754
 30
0.0
 11
-51.5699981327355
 21
-66.09999907016754
 31
0.0
  0
LINE
  5
488
330
1F
100
AcDbEntity
  8
16
  6
Continuous
 62
     3
370
    25
100
AcDbLine
 10
-51.5699981327355
 20
-66.09999907016754
 30
0.0
 11
-51.36999812975527
 21
-66.29999907314777
 31
0.0
  0
LINE
  5
489
330
1F
100
AcDbEntity
  8
16
  6
Continuous
 62
     3
370
    25
100
AcDbLine
 10
-51.36999812975527
 20
-68.2999991029501
 30
0.0
 11
-51.5699981327355
 21
-68.49999910593033
 31
0.0
  0
LINE
  5
48A
330
1F
100
AcDbEntity
  8
16
  6
Continuous
 62
     3
370
    25
100
AcDbLine
 10
-51.5699981327355
 20
-68.49999910593033
 30
0.0
 11
-55.84999812021853
 21
-68.49999910593033
 31
0.0
  0
LINE
  5
48B
330
1F
100
AcDbEntity
  8
16
  6
Continuous
 62
     3
370
    25
100
AcDbLine
 10
-55.84999812021853
 20
-68.49999910593033
 30
0.0
 11
-56.04999812319875
 21
-68.2999991029501
 31
0.0
  0
LINE
  5
48C
330
1F
100
AcDbEntity
  8
16
  6
Continuous
 62
     3
370
    25
100
AcDbLine
 10
-50.4699931572377
 20
-66.29999907314777
 30
0.0
 11
-50.26999315425747
 21
-66.09999907016754
 31
0.0
  0
LINE
  5
48D
330
1F
100
AcDbEntity
  8
16
  6
Continuous
 62
     3
370
    25
100
AcDbLine
 10
-50.26999315425747
 20
-66.09999907016754
 30
0.0
 11
-46.04999301508062
 21
-66.09999907016754
 31
0.0
  0
LINE
  5
48E
330
1F
100
AcDbEntity
  8
16
  6
Continuous
 62
     3
370
    25
100
AcDbLine
 10
-46.04999301508062
 20
-66.09999907016754
 30
0.0
 11
-45.84999301210039
 21
-66.29999907314777
 31
0.0
  0
LINE
  5
48F
330
1F
100
AcDbEntity
  8
16
  6
Continuous
 62
     3
370
    25
100
AcDbLine
 10
-45.84999301210039
 20
-68.2999991029501
 30
0.0
 11
-46.04999301508062
 21
-68.49999910593033
 31
0.0
  0
LINE
  5
490
330
1F
100
AcDbEntity
  8
16
  6
Continuous
 62
     3
370
    25
100
AcDbLine
 10
-46.04999301508062
 20
-68.49999910593033
 30
0.0
 11
-50.26999315425747
 21
-68.49999910593033
 31
0.0
  0
LINE
  5
491
330
1F
100
AcDbEntity
  8
16
  6
Continuous
 62
     3
370
    25
100
AcDbLine
 10
-50.26999315425747
 20
-68.49999910593033
 30
0.0
 11
-50.4699931572377
 21
-68.2999991029501
 31
0.0
  0
LINE
  5
492
330
1F
100
AcDbEntity
  8
16
  6
Continuous
 62
     3
370
    25
100
AcDbLine
 10
-140.5999993830919
 20
-70.09999912977219
 30
0.0
 11
-44.99999795854092
 21
-70.09999912977219
 31
0.0
  0
LINE
  5
493
330
1F
100
AcDbEntity
  8
16
  6
Continuous
 62
     3
370
    25
100
AcDbLine
 10
-44.99999795854092
 20
-70.09999912977219
 30
0.0
 11
-44.99999795854092
 21
-81.09999929368496
 31
0.0
  0
LINE
  5
494
330
1F
100
AcDbEntity
  8
16
  6
Continuous
 62
     3
370
    25
100
AcDbLine
 10
-44.99999795854092
 20
-81.09999929368496
 30
0.0
 11
-140.5999993830919
 21
-81.09999929368496
 31
0.0
  0
LINE
  5
495
330
1F
100
AcDbEntity
  8
16
  6
Continuous
 62
     3
370
    25
100
AcDbLine
 10
-140.5999993830919
 20
-81.09999929368496
 30
0.0
 11
-140.5999993830919
 21
-70.09999912977219
 31
0.0
  0
LINE
  5
496
330
1F
100
AcDbEntity
  8
16
  6
Continuous
 62
     3
370
    25
100
AcDbLine
 10
1.600002735853188
 20
51.50000268220901
 30
0.0
 11
6.600002810358994
 21
51.50000268220901
 31
0.0
  0
LINE
  5
497
330
1F
100
AcDbEntity
  8
16
  6
Continuous
 62
     3
370
    25
100
AcDbLine
 10
6.600002810358994
 20
51.50000268220901
 30
0.0
 11
6.600002810358994
 21
52.40000269562006
 31
0.0
  0
LINE
  5
498
330
1F
100
AcDbEntity
  8
16
  6
Continuous
 62
     3
370
    25
100
AcDbLine
 10
6.600002810358994
 20
52.40000269562006
 30
0.0
 11
1.600002735853188
 21
52.40000269562006
 31
0.0
  0
LINE
  5
499
330
1F
100
AcDbEntity
  8
16
  6
Continuous
 62
     3
370
    25
100
AcDbLine
 10
1.600002735853188
 20
52.40000269562006
 30
0.0
 11
1.600002735853188
 21
51.50000268220901
 31
0.0
  0
LINE
  5
49A
330
1F
100
AcDbEntity
  8
16
  6
Continuous
 62
     3
370
    25
100
AcDbLine
 10
1.600002735853188
 20
-18.6999983638525
 30
0.0
 11
6.600002810358994
 21
-18.6999983638525
 31
0.0
  0
LINE
  5
49B
330
1F
100
AcDbEntity
  8
16
  6
Continuous
 62
     3
370
    25
100
AcDbLine
 10
6.600002810358994
 20
-18.6999983638525
 30
0.0
 11
6.600002810358994
 21
-19.59999837726355
 31
0.0
  0
LINE
  5
49C
330
1F
100
AcDbEntity
  8
16
  6
Continuous
 62
     3
370
    25
100
AcDbLine
 10
6.600002810358994
 20
-19.59999837726355
 30
0.0
 11
1.600002735853188
 21
-19.59999837726355
 31
0.0
  0
LINE
  5
49D
330
1F
100
AcDbEntity
  8
16
  6
Continuous
 62
     3
370
    25
100
AcDbLine
 10
1.600002735853188
 20
-19.59999837726355
 30
0.0
 11
1.600002735853188
 21
-18.6999983638525
 31
0.0
  0
ARC
  5
49E
330
1F
100
AcDbEntity
  8
16
  6
Continuous
 62
     3
370
    25
100
AcDbCircle
 10
5.200002789497368
 20
36.40000245720148
 30
0.0
 40
0.800000011920929
100
AcDbArc
 50
46.60000000000011
 51
133.4000000000003
  0
ARC
  5
49F
330
1F
100
AcDbEntity
  8
16
  6
Continuous
 62
     3
370
    25
100
AcDbCircle
 10
5.200002789497368
 20
36.40000245720148
 30
0.0
 40
0.800000011920929
100
AcDbArc
 50
226.6000000000004
 51
313.4000000000007
  0
LINE
  5
4A0
330
1F
100
AcDbEntity
  8
16
  6
Continuous
 62
     3
370
    25
100
AcDbLine
 10
5.600002795457833
 20
37.00000246614218
 30
0.0
 11
4.800002783536904
 21
37.00000246614218
 31
0.0
  0
ARC
  5
4A1
330
1F
100
AcDbEntity
  8
16
  6
Continuous
 62
     3
370
    25
100
AcDbCircle
 10
4.800002587459964
 20
36.40000245720151
 30
0.0
 40
0.6000000089406967
100
AcDbArc
 50
90.0000000000002
 51
270.0000000000006
  0
LINE
  5
4A2
330
1F
100
AcDbEntity
  8
16
  6
Continuous
 62
     3
370
    25
100
AcDbLine
 10
4.800001999229142
 20
35.8000024482611
 30
0.0
 11
5.600002011150071
 21
35.8000024482611
 31
0.0
  0
ARC
  5
4A3
330
1F
100
AcDbEntity
  8
16
  6
Continuous
 62
     3
370
    25
100
AcDbCircle
 10
5.600002599380893
 20
36.40000245720151
 30
0.0
 40
0.6000000089406967
100
AcDbArc
 50
270.0000000000006
 51
90.00000000000102
  0
LINE
  5
4A4
330
1F
100
AcDbEntity
  8
16
  6
Continuous
 62
     3
370
    25
100
AcDbLine
 10
3.60000276565551
 20
36.40000245720148
 30
0.0
 11
6.800002813339226
 21
36.40000245720148
 31
0.0
  0
LINE
  5
4A5
330
1F
100
AcDbEntity
  8
16
  6
Continuous
 62
     3
370
    25
100
AcDbLine
 10
5.200002789497368
 20
37.60000247508288
 30
0.0
 11
5.200002789497368
 21
35.20000243932009
 31
0.0
  0
ARC
  5
4A6
330
1F
100
AcDbEntity
  8
16
  6
Continuous
 62
     3
370
    25
100
AcDbCircle
 10
5.200002789497368
 20
16.40000215917826
 30
0.0
 40
0.800000011920929
100
AcDbArc
 50
46.60000000000011
 51
133.4000000000003
  0
ARC
  5
4A7
330
1F
100
AcDbEntity
  8
16
  6
Continuous
 62
     3
370
    25
100
AcDbCircle
 10
5.200002789497368
 20
16.40000215917826
 30
0.0
 40
0.800000011920929
100
AcDbArc
 50
226.6000000000004
 51
313.4000000000007
  0
LINE
  5
4A8
330
1F
100
AcDbEntity
  8
16
  6
Continuous
 62
     3
370
    25
100
AcDbLine
 10
5.600002795457833
 20
17.00000216811895
 30
0.0
 11
4.800002783536904
 21
17.00000216811895
 31
0.0
  0
ARC
  5
4A9
330
1F
100
AcDbEntity
  8
16
  6
Continuous
 62
     3
370
    25
100
AcDbCircle
 10
4.800002587459964
 20
16.40000215917829
 30
0.0
 40
0.6000000089406967
100
AcDbArc
 50
90.0000000000002
 51
270.0000000000006
  0
LINE
  5
4AA
330
1F
100
AcDbEntity
  8
16
  6
Continuous
 62
     3
370
    25
100
AcDbLine
 10
4.800001999229142
 20
15.80000215023788
 30
0.0
 11
5.600002011150071
 21
15.80000215023788
 31
0.0
  0
ARC
  5
4AB
330
1F
100
AcDbEntity
  8
16
  6
Continuous
 62
     3
370
    25
100
AcDbCircle
 10
5.600002599380893
 20
16.40000215917829
 30
0.0
 40
0.6000000089406967
100
AcDbArc
 50
270.0000000000006
 51
90.00000000000102
  0
LINE
  5
4AC
330
1F
100
AcDbEntity
  8
16
  6
Continuous
 62
     3
370
    25
100
AcDbLine
 10
3.60000276565551
 20
16.40000215917826
 30
0.0
 11
6.800002813339226
 21
16.40000215917826
 31
0.0
  0
LINE
  5
4AD
330
1F
100
AcDbEntity
  8
16
  6
Continuous
 62
     3
370
    25
100
AcDbLine
 10
5.200002789497368
 20
17.60000217705965
 30
0.0
 11
5.200002789497368
 21
15.20000214129686
 31
0.0
  0
ARC
  5
4AE
330
1F
100
AcDbEntity
  8
16
  6
Continuous
 62
     3
370
    25
100
AcDbCircle
 10
5.200002789497368
 20
-3.599998138844967
 30
0.0
 40
0.800000011920929
100
AcDbArc
 50
46.60000000000011
 51
133.4000000000003
  0
ARC
  5
4AF
330
1F
100
AcDbEntity
  8
16
  6
Continuous
 62
     3
370
    25
100
AcDbCircle
 10
5.200002789497368
 20
-3.599998138844967
 30
0.0
 40
0.800000011920929
100
AcDbArc
 50
226.6000000000004
 51
313.4000000000007
  0
LINE
  5
4B0
330
1F
100
AcDbEntity
  8
16
  6
Continuous
 62
     3
370
    25
100
AcDbLine
 10
5.600002795457833
 20
-2.99999812990427
 30
0.0
 11
4.800002783536904
 21
-2.99999812990427
 31
0.0
  0
ARC
  5
4B1
330
1F
100
AcDbEntity
  8
16
  6
Continuous
 62
     3
370
    25
100
AcDbCircle
 10
4.800002587459964
 20
-3.599998138844935
 30
0.0
 40
0.6000000089406967
100
AcDbArc
 50
90.0000000000002
 51
270.0000000000006
  0
LINE
  5
4B2
330
1F
100
AcDbEntity
  8
16
  6
Continuous
 62
     3
370
    25
100
AcDbLine
 10
4.800001999229142
 20
-4.199998147785344
 30
0.0
 11
5.600002011150071
 21
-4.199998147785344
 31
0.0
  0
ARC
  5
4B3
330
1F
100
AcDbEntity
  8
16
  6
Continuous
 62
     3
370
    25
100
AcDbCircle
 10
5.600002599380893
 20
-3.599998138844935
 30
0.0
 40
0.6000000089406967
100
AcDbArc
 50
270.0000000000006
 51
90.00000000000102
  0
LINE
  5
4B4
330
1F
100
AcDbEntity
  8
16
  6
Continuous
 62
     3
370
    25
100
AcDbLine
 10
3.60000276565551
 20
-3.599998138844967
 30
0.0
 11
6.800002813339226
 21
-3.599998138844967
 31
0.0
  0
LINE
  5
4B5
330
1F
100
AcDbEntity
  8
16
  6
Continuous
 62
     3
370
    25
100
AcDbLine
 10
5.200002789497368
 20
-2.399998120963573
 30
0.0
 11
5.200002789497368
 21
-4.79999815672636
 31
0.0
  0
LINE
  5
4B6
330
1F
100
AcDbEntity
  8
16
  6
Continuous
 62
     3
370
    25
100
AcDbLine
 10
1.600002735853188
 20
51.50000268220901
 30
0.0
 11
1.600002735853188
 21
-18.6999983638525
 31
0.0
  0
LINE
  5
4B7
330
1F
100
AcDbEntity
  8
16
  6
Continuous
 62
     3
370
    25
100
AcDbLine
 10
1.600002735853188
 20
-18.6999983638525
 30
0.0
 11
8.00000283122062
 21
-18.6999983638525
 31
0.0
  0
LINE
  5
4B8
330
1F
100
AcDbEntity
  8
16
  6
Continuous
 62
     3
370
    25
100
AcDbLine
 10
8.00000283122062
 20
-18.6999983638525
 30
0.0
 11
8.00000283122062
 21
51.50000268220901
 31
0.0
  0
LINE
  5
4B9
330
1F
100
AcDbEntity
  8
16
  6
Continuous
 62
     3
370
    25
100
AcDbLine
 10
8.00000283122062
 20
51.50000268220901
 30
0.0
 11
1.600002735853188
 21
51.50000268220901
 31
0.0
  0
LINE
  5
4BA
330
1F
100
AcDbEntity
  8
16
  6
Continuous
 62
     3
370
    25
100
AcDbLine
 10
2.000002741813653
 20
51.50000268220901
 30
0.0
 11
2.000002741813653
 21
-18.6999983638525
 31
0.0
  0
LINE
  5
4BB
330
1F
100
AcDbEntity
  8
16
  6
Continuous
 62
     3
370
    25
100
AcDbLine
 10
3.400002762675278
 20
-18.6999983638525
 30
0.0
 11
3.400002762675278
 21
51.50000268220901
 31
0.0
  0
LINE
  5
4BC
330
1F
100
AcDbEntity
  8
16
  6
Continuous
 62
     3
370
    25
100
AcDbLine
 10
4.200002774596207
 20
51.50000268220901
 30
0.0
 11
4.200002774596207
 21
-18.6999983638525
 31
0.0
  0
LINE
  5
4BD
330
1F
100
AcDbEntity
  8
16
  6
Continuous
 62
     3
370
    25
100
AcDbLine
 10
8.00000283122062
 20
50.90000267326832
 30
0.0
 11
19.00000299513339
 21
50.90000267326832
 31
0.0
  0
LINE
  5
4BE
330
1F
100
AcDbEntity
  8
16
  6
Continuous
 62
     3
370
    25
100
AcDbLine
 10
19.00000299513339
 20
50.90000267326832
 30
0.0
 11
19.00000299513339
 21
42.90000255405903
 31
0.0
  0
LINE
  5
4BF
330
1F
100
AcDbEntity
  8
16
  6
Continuous
 62
     3
370
    25
100
AcDbLine
 10
19.00000299513339
 20
42.90000255405903
 30
0.0
 11
8.00000283122062
 21
42.90000255405903
 31
0.0
  0
LINE
  5
4C0
330
1F
100
AcDbEntity
  8
16
  6
Continuous
 62
     3
370
    25
100
AcDbLine
 10
8.00000283122062
 20
42.90000255405903
 30
0.0
 11
8.00000283122062
 21
50.90000267326832
 31
0.0
  0
LINE
  5
4C1
330
1F
100
AcDbEntity
  8
16
  6
Continuous
 62
     3
370
    25
100
AcDbLine
 10
8.600002840161316
 20
50.30000266432762
 30
0.0
 11
18.4000029861927
 21
50.30000266432762
 31
0.0
  0
LINE
  5
4C2
330
1F
100
AcDbEntity
  8
16
  6
Continuous
 62
     3
370
    25
100
AcDbLine
 10
18.4000029861927
 20
50.30000266432762
 30
0.0
 11
18.4000029861927
 21
43.50000256299973
 31
0.0
  0
LINE
  5
4C3
330
1F
100
AcDbEntity
  8
16
  6
Continuous
 62
     3
370
    25
100
AcDbLine
 10
18.4000029861927
 20
43.50000256299973
 30
0.0
 11
8.600002840161316
 21
43.50000256299973
 31
0.0
  0
LINE
  5
4C4
330
1F
100
AcDbEntity
  8
16
  6
Continuous
 62
     3
370
    25
100
AcDbLine
 10
8.600002840161316
 20
43.50000256299973
 30
0.0
 11
8.600002840161316
 21
50.30000266432762
 31
0.0
  0
LINE
  5
4C5
330
1F
100
AcDbEntity
  8
16
  6
Continuous
 62
     3
370
    25
100
AcDbLine
 10
8.00000283122062
 20
-18.0999983549118
 30
0.0
 11
19.00000299513339
 21
-18.0999983549118
 31
0.0
  0
LINE
  5
4C6
330
1F
100
AcDbEntity
  8
16
  6
Continuous
 62
     3
370
    25
100
AcDbLine
 10
19.00000299513339
 20
-18.0999983549118
 30
0.0
 11
19.00000299513339
 21
-10.09999823570251
 31
0.0
  0
LINE
  5
4C7
330
1F
100
AcDbEntity
  8
16
  6
Continuous
 62
     3
370
    25
100
AcDbLine
 10
19.00000299513339
 20
-10.09999823570251
 30
0.0
 11
8.00000283122062
 21
-10.09999823570251
 31
0.0
  0
LINE
  5
4C8
330
1F
100
AcDbEntity
  8
16
  6
Continuous
 62
     3
370
    25
100
AcDbLine
 10
8.00000283122062
 20
-10.09999823570251
 30
0.0
 11
8.00000283122062
 21
-18.0999983549118
 31
0.0
  0
LINE
  5
4C9
330
1F
100
AcDbEntity
  8
16
  6
Continuous
 62
     3
370
    25
100
AcDbLine
 10
8.600002840161316
 20
-17.49999834597111
 30
0.0
 11
18.4000029861927
 21
-17.49999834597111
 31
0.0
  0
LINE
  5
4CA
330
1F
100
AcDbEntity
  8
16
  6
Continuous
 62
     3
370
    25
100
AcDbLine
 10
18.4000029861927
 20
-17.49999834597111
 30
0.0
 11
18.4000029861927
 21
-10.69999824464321
 31
0.0
  0
LINE
  5
4CB
330
1F
100
AcDbEntity
  8
16
  6
Continuous
 62
     3
370
    25
100
AcDbLine
 10
18.4000029861927
 20
-10.69999824464321
 30
0.0
 11
8.600002840161316
 21
-10.69999824464321
 31
0.0
  0
LINE
  5
4CC
330
1F
100
AcDbEntity
  8
16
  6
Continuous
 62
     3
370
    25
100
AcDbLine
 10
8.600002840161316
 20
-10.69999824464321
 30
0.0
 11
8.600002840161316
 21
-17.49999834597111
 31
0.0
  0
LINE
  5
4CD
330
1F
100
AcDbEntity
  8
16
  6
Continuous
 62
     3
370
    25
100
AcDbLine
 10
-44.74999942705038
 20
-66.09999907016754
 30
0.0
 11
-44.34999942108991
 21
-66.09999907016754
 31
0.0
  0
LINE
  5
4CE
330
1F
100
AcDbEntity
  8
16
  6
Continuous
 62
     3
370
    25
100
AcDbLine
 10
-44.34999942108991
 20
-66.09999907016754
 30
0.0
 11
-44.34999942108991
 21
-68.49999910593033
 31
0.0
  0
LINE
  5
4CF
330
1F
100
AcDbEntity
  8
16
  6
Continuous
 62
     3
370
    25
100
AcDbLine
 10
-44.34999942108991
 20
-68.49999910593033
 30
0.0
 11
-44.74999942705038
 21
-68.49999910593033
 31
0.0
  0
LINE
  5
4D0
330
1F
100
AcDbEntity
  8
16
  6
Continuous
 62
     3
370
    25
100
AcDbLine
 10
-140.8499993868174
 20
-66.09999907016754
 30
0.0
 11
-141.2499993927778
 21
-66.09999907016754
 31
0.0
  0
LINE
  5
4D1
330
1F
100
AcDbEntity
  8
16
  6
Continuous
 62
     3
370
    25
100
AcDbLine
 10
-141.2499993927778
 20
-66.09999907016754
 30
0.0
 11
-141.2499993927778
 21
-68.49999910593033
 31
0.0
  0
LINE
  5
4D2
330
1F
100
AcDbEntity
  8
16
  6
Continuous
 62
     3
370
    25
100
AcDbLine
 10
-141.2499993927778
 20
-68.49999910593033
 30
0.0
 11
-140.8499993868174
 21
-68.49999910593033
 31
0.0
  0
LINE
  5
4D3
330
1F
100
AcDbEntity
  8
16
  6
Continuous
 62
     3
370
    25
100
AcDbLine
 10
-44.94999943003061
 20
-66.29999907314777
 30
0.0
 11
-44.74999942705038
 21
-66.09999907016754
 31
0.0
  0
LINE
  5
4D4
330
1F
100
AcDbEntity
  8
16
  6
Continuous
 62
     3
370
    25
100
AcDbLine
 10
-44.74999942705038
 20
-68.49999910593033
 30
0.0
 11
-44.94999943003061
 21
-68.2999991029501
 31
0.0
  0
LINE
  5
4D5
330
1F
100
AcDbEntity
  8
16
  6
Continuous
 62
     3
370
    25
100
AcDbLine
 10
-140.649999383837
 20
-66.29999907314777
 30
0.0
 11
-140.8499993868174
 21
-66.09999907016754
 31
0.0
  0
LINE
  5
4D6
330
1F
100
AcDbEntity
  8
16
  6
Continuous
 62
     3
370
    25
100
AcDbLine
 10
-140.8499993868174
 20
-68.49999910593033
 30
0.0
 11
-140.649999383837
 21
-68.2999991029501
 31
0.0
  0
LINE
  5
4D7
330
1F
100
AcDbEntity
  8
16
  6
DASHED2
 62
     3
370
    25
100
AcDbLine
 10
-140.5999993830919
 20
-70.73999914884567
 30
0.0
 11
-44.99999795854092
 21
-70.73999914884567
 31
0.0
  0
LINE
  5
4D8
330
1F
100
AcDbEntity
  8
16
  6
DASHED2
 62
     3
370
    25
100
AcDbLine
 10
-140.5999993830919
 20
-80.45999989449979
 30
0.0
 11
-44.99999795854092
 21
-80.45999989449979
 31
0.0
  0
LINE
  5
4D9
330
1F
100
AcDbEntity
  8
22
  6
Continuous
 62
     4
370
    25
100
AcDbLine
 10
91.20000407099724
 20
95.70000328421594
 30
0.0
 11
86.20000399649143
 21
95.70000328421594
 31
0.0
  0
LINE
  5
4DA
330
1F
100
AcDbEntity
  8
22
  6
Continuous
 62
     4
370
    25
100
AcDbLine
 10
86.20000399649143
 20
95.70000328421594
 30
0.0
 11
86.20000399649143
 21
91.7000032246113
 31
0.0
  0
LINE
  5
4DB
330
1F
100
AcDbEntity
  8
22
  6
Continuous
 62
     4
370
    25
100
AcDbLine
 10
86.20000399649143
 20
91.7000032246113
 30
0.0
 11
144.2000048607588
 21
91.7000032246113
 31
0.0
  0
LINE
  5
4DC
330
1F
100
AcDbEntity
  8
22
  6
Continuous
 62
     4
370
    25
100
AcDbLine
 10
144.2000048607588
 20
91.7000032246113
 30
0.0
 11
144.2000048607588
 21
95.70000328421594
 31
0.0
  0
LINE
  5
4DD
330
1F
100
AcDbEntity
  8
22
  6
Continuous
 62
     4
370
    25
100
AcDbLine
 10
144.2000048607588
 20
95.70000328421594
 30
0.0
 11
139.200004786253
 21
95.70000328421594
 31
0.0
  0
LINE
  5
4DE
330
1F
100
AcDbEntity
  8
22
  6
Continuous
 62
     4
370
    25
100
AcDbLine
 10
68.20000372827053
 20
27.20000226348639
 30
0.0
 11
67.20000371336937
 21
27.20000226348639
 31
0.0
  0
LINE
  5
4DF
330
1F
100
AcDbEntity
  8
22
  6
Continuous
 62
     4
370
    25
100
AcDbLine
 10
67.20000371336937
 20
27.20000226348639
 30
0.0
 11
67.20000371336937
 21
24.70000222623348
 31
0.0
  0
LINE
  5
4E0
330
1F
100
AcDbEntity
  8
22
  6
Continuous
 62
     4
370
    25
100
AcDbLine
 10
67.20000371336937
 20
24.70000222623348
 30
0.0
 11
81.20000392198563
 21
24.70000222623348
 31
0.0
  0
LINE
  5
4E1
330
1F
100
AcDbEntity
  8
22
  6
Continuous
 62
     4
370
    25
100
AcDbLine
 10
81.20000392198563
 20
24.70000222623348
 30
0.0
 11
81.20000392198563
 21
27.20000226348639
 31
0.0
  0
LINE
  5
4E2
330
1F
100
AcDbEntity
  8
22
  6
Continuous
 62
     4
370
    25
100
AcDbLine
 10
81.20000392198563
 20
27.20000226348639
 30
0.0
 11
80.20000390708447
 21
27.20000226348639
 31
0.0
  0
LINE
  5
4E3
330
1F
100
AcDbEntity
  8
22
  6
Continuous
 62
     4
370
    25
100
AcDbLine
 10
79.2000038921833
 20
17.20000211447477
 30
0.0
 11
91.20000407099724
 21
17.20000211447477
 31
0.0
  0
LINE
  5
4E4
330
1F
100
AcDbEntity
  8
22
  6
Continuous
 62
     4
370
    25
100
AcDbLine
 10
96.20000414550304
 20
17.20000211447477
 30
0.0
 11
100.2000042051077
 21
17.20000211447477
 31
0.0
  0
LINE
  5
4E5
330
1F
100
AcDbEntity
  8
22
  6
Continuous
 62
     4
370
    25
100
AcDbLine
 10
105.2000042796135
 20
17.20000211447477
 30
0.0
 11
137.2000047564507
 21
17.20000211447477
 31
0.0
  0
LINE
  5
4E6
330
1F
100
AcDbEntity
  8
22
  6
Continuous
 62
     4
370
    25
100
AcDbLine
 10
82.20000393688679
 20
-59.29999902546406
 30
0.0
 11
130.2000046521425
 21
-59.29999902546406
 31
0.0
  0
LINE
  5
4E7
330
1F
100
AcDbEntity
  8
22
  6
Continuous
 62
     4
370
    25
100
AcDbLine
 10
-182.0
 20
-128.5
 30
0.0
 11
-178.9999999552965
 21
-128.5
 31
0.0
  0
LINE
  5
4E8
330
1F
100
AcDbEntity
  8
22
  6
Continuous
 62
     4
370
    25
100
AcDbLine
 10
-178.9999999552965
 20
-128.5
 30
0.0
 11
-178.9999999552965
 21
-125.4999999552965
 31
0.0
  0
LINE
  5
4E9
330
1F
100
AcDbEntity
  8
22
  6
Continuous
 62
     4
370
    25
100
AcDbLine
 10
-178.9999999552965
 20
-125.4999999552965
 30
0.0
 11
-182.0
 21
-125.4999999552965
 31
0.0
  0
LINE
  5
4EA
330
1F
100
AcDbEntity
  8
22
  6
Continuous
 62
     4
370
    25
100
AcDbLine
 10
-182.0
 20
-125.4999999552965
 30
0.0
 11
-182.0
 21
-128.5
 31
0.0
  0
LINE
  5
4EB
330
1F
100
AcDbEntity
  8
22
  6
Continuous
 62
     4
370
    25
100
AcDbLine
 10
-182.0
 20
-128.5
 30
0.0
 11
-178.9999999552965
 21
-128.5
 31
0.0
  0
LINE
  5
4EC
330
1F
100
AcDbEntity
  8
22
  6
Continuous
 62
     4
370
    25
100
AcDbLine
 10
-178.9999999552965
 20
-128.5
 30
0.0
 11
-178.9999999552965
 21
-125.4999999552965
 31
0.0
  0
LINE
  5
4ED
330
1F
100
AcDbEntity
  8
22
  6
Continuous
 62
     4
370
    25
100
AcDbLine
 10
-178.9999999552965
 20
-125.4999999552965
 30
0.0
 11
-182.0
 21
-125.4999999552965
 31
0.0
  0
LINE
  5
4EE
330
1F
100
AcDbEntity
  8
22
  6
Continuous
 62
     4
370
    25
100
AcDbLine
 10
-182.0
 20
-125.4999999552965
 30
0.0
 11
-182.0
 21
-128.5
 31
0.0
  0
LINE
  5
4EF
330
1F
100
AcDbEntity
  8
22
  6
Continuous
 62
     4
370
    25
100
AcDbLine
 10
-182.0
 20
-128.5
 30
0.0
 11
-178.9999999552965
 21
-128.5
 31
0.0
  0
LINE
  5
4F0
330
1F
100
AcDbEntity
  8
22
  6
Continuous
 62
     4
370
    25
100
AcDbLine
 10
-178.9999999552965
 20
-128.5
 30
0.0
 11
-178.9999999552965
 21
-125.4999999552965
 31
0.0
  0
LINE
  5
4F1
330
1F
100
AcDbEntity
  8
22
  6
Continuous
 62
     4
370
    25
100
AcDbLine
 10
-178.9999999552965
 20
-125.4999999552965
 30
0.0
 11
-182.0
 21
-125.4999999552965
 31
0.0
  0
LINE
  5
4F2
330
1F
100
AcDbEntity
  8
22
  6
Continuous
 62
     4
370
    25
100
AcDbLine
 10
-182.0
 20
-125.4999999552965
 30
0.0
 11
-182.0
 21
-128.5
 31
0.0
  0
ARC
  5
4F3
330
1F
100
AcDbEntity
  8
22
  6
Continuous
 62
     4
370
    25
100
AcDbCircle
 10
59.20000359416008
 20
102.7000033885241
 30
0.0
 40
5.000000074505806
100
AcDbArc
 50
270.0000000000006
 51
0.0000000000008142
  0
LINE
  5
4F4
330
1F
100
AcDbEntity
  8
22
  6
Continuous
 62
     4
370
    25
100
AcDbLine
 10
59.20000522813459
 20
97.70000331401853
 30
0.0
 11
59.20000359416008
 21
-57.29999899566172
 31
0.0
  0
ARC
  5
4F5
330
1F
100
AcDbEntity
  8
22
  6
Continuous
 62
     4
370
    25
100
AcDbCircle
 10
59.20000196018557
 20
-62.29999907016727
 30
0.0
 40
5.000000074505806
100
AcDbArc
 50
0.0
 51
90.0000000000002
  0
LINE
  5
4F6
330
1F
100
AcDbEntity
  8
22
  6
Continuous
 62
     4
370
    25
100
AcDbLine
 10
64.20000203469138
 20
-62.29999907016727
 30
0.0
 11
164.200005158782
 21
-62.29999907016754
 31
0.0
  0
ARC
  5
4F7
330
1F
100
AcDbEntity
  8
22
  6
Continuous
 62
     4
370
    25
100
AcDbCircle
 10
169.2000052332867
 20
-62.30000233811656
 30
0.0
 40
5.000000074505806
100
AcDbArc
 50
90.0000000000002
 51
180.0000000000004
  0
LINE
  5
4F8
330
1F
100
AcDbEntity
  8
22
  6
Continuous
 62
     4
370
    25
100
AcDbLine
 10
169.2000068672612
 20
-57.30000226361102
 30
0.0
 11
169.2000052332878
 21
97.70000331401826
 31
0.0
  0
ARC
  5
4F9
330
1F
100
AcDbEntity
  8
22
  6
Continuous
 62
     4
370
    25
100
AcDbCircle
 10
169.2000101352113
 20
102.7000033885217
 30
0.0
 40
5.000000074505806
100
AcDbArc
 50
180.0000000000004
 51
270.0000000000006
  0
LINE
  5
4FA
330
1F
100
AcDbEntity
  8
22
  6
Continuous
 62
     4
370
    25
100
AcDbLine
 10
164.2000100607066
 20
102.7000066564707
 30
0.0
 11
64.20000366866589
 21
102.7000033885241
 31
0.0
  0
LINE
  5
4FB
330
1F
100
AcDbEntity
  8
22
  6
Continuous
 62
     4
370
    25
100
AcDbLine
 10
-138.1999993473291
 20
27.10000231862068
 30
0.0
 11
-137.8999993428588
 21
28.56000237852335
 31
0.0
  0
LINE
  5
4FC
330
1F
100
AcDbEntity
  8
22
  6
Continuous
 62
     4
370
    25
100
AcDbLine
 10
-138.1999993473291
 20
27.10000231862068
 30
0.0
 11
-137.199999332428
 21
28.20000233501196
 31
0.0
  0
LINE
  5
4FD
330
1F
100
AcDbEntity
  8
22
  6
Continuous
 62
     4
370
    25
100
AcDbLine
 10
-138.1999993473291
 20
27.10000231862068
 30
0.0
 11
-111.6499989517033
 21
80.20000310987234
 31
0.0
  0
LINE
  5
4FE
330
1F
100
AcDbEntity
  8
22
  6
Continuous
 62
     4
370
    25
100
AcDbLine
 10
-111.6499989517033
 20
80.20000310987234
 30
0.0
 11
-65.64999826624991
 21
80.20000310987234
 31
0.0
  0
LINE
  5
4FF
330
1F
100
AcDbEntity
  8
22
  6
Continuous
 62
     4
370
    25
100
AcDbLine
 10
-126.2499991692602
 20
37.10000246763229
 30
0.0
 11
-125.9499991647899
 21
38.56000252753496
 31
0.0
  0
LINE
  5
500
330
1F
100
AcDbEntity
  8
22
  6
Continuous
 62
     4
370
    25
100
AcDbLine
 10
-126.2499991692602
 20
37.10000246763229
 30
0.0
 11
-125.2499991543591
 21
38.20000248402357
 31
0.0
  0
LINE
  5
501
330
1F
100
AcDbEntity
  8
22
  6
Continuous
 62
     4
370
    25
100
AcDbLine
 10
-126.2499991692602
 20
37.10000246763229
 30
0.0
 11
-106.6999988779425
 21
76.2000030502677
 31
0.0
  0
LINE
  5
502
330
1F
100
AcDbEntity
  8
22
  6
Continuous
 62
     4
370
    25
100
AcDbLine
 10
-106.6999988779425
 20
76.2000030502677
 30
0.0
 11
-62.69999822229148
 21
76.2000030502677
 31
0.0
  0
LINE
  5
503
330
1F
100
AcDbEntity
  8
22
  6
Continuous
 62
     4
370
    25
100
AcDbLine
 10
-109.5099964784085
 20
52.40000269562006
 30
0.0
 11
-109.2099964739382
 21
53.86000275552273
 31
0.0
  0
LINE
  5
504
330
1F
100
AcDbEntity
  8
22
  6
Continuous
 62
     4
370
    25
100
AcDbLine
 10
-109.5099964784085
 20
52.40000269562006
 30
0.0
 11
-108.5099964635074
 21
53.50000271201134
 31
0.0
  0
LINE
  5
505
330
1F
100
AcDbEntity
  8
22
  6
Continuous
 62
     4
370
    25
100
AcDbLine
 10
-109.5099964784085
 20
52.40000269562006
 30
0.0
 11
-99.95999633610246
 21
71.50000298023224
 31
0.0
  0
LINE
  5
506
330
1F
100
AcDbEntity
  8
22
  6
Continuous
 62
     4
370
    25
100
AcDbLine
 10
-99.95999633610246
 20
71.50000298023224
 30
0.0
 11
-57.95999571025371
 21
71.50000298023224
 31
0.0
  0
LINE
  5
507
330
1F
100
AcDbEntity
  8
22
  6
Continuous
 62
     4
370
    25
100
AcDbLine
 10
-95.55999627053735
 20
-63.19999902695417
 30
0.0
 11
-95.55999627053735
 21
-58.19999895244837
 31
0.0
  0
LINE
  5
508
330
1F
100
AcDbEntity
  8
22
  6
Continuous
 62
     4
370
    25
100
AcDbLine
 10
-95.55999627053735
 20
-59.19999896734953
 30
0.0
 11
-97.0599962928891
 21
-58.79999896138906
 31
0.0
  0
LINE
  5
509
330
1F
100
AcDbEntity
  8
22
  6
Continuous
 62
     4
370
    25
100
AcDbLine
 10
-97.0599962928891
 20
-59.59999897330999
 30
0.0
 11
-95.55999627053735
 21
-59.19999896734953
 31
0.0
  0
LINE
  5
50A
330
1F
100
AcDbEntity
  8
22
  6
Continuous
 62
     4
370
    25
100
AcDbLine
 10
-95.55999627053735
 20
-59.19999896734953
 30
0.0
 11
-98.55999631524084
 21
-59.19999896734953
 31
0.0
  0
LINE
  5
50B
330
1F
100
AcDbEntity
  8
22
  6
Continuous
 62
     4
370
    25
100
AcDbLine
 10
-95.55999627053735
 20
-59.19999896734953
 30
0.0
 11
-89.97999626368282
 21
-59.19999896734953
 31
0.0
  0
LINE
  5
50C
330
1F
100
AcDbEntity
  8
22
  6
Continuous
 62
     4
370
    25
100
AcDbLine
 10
-89.97999626368282
 20
-59.19999896734953
 30
0.0
 11
-88.47999624133108
 21
-58.79999896138906
 31
0.0
  0
LINE
  5
50D
330
1F
100
AcDbEntity
  8
22
  6
Continuous
 62
     4
370
    25
100
AcDbLine
 10
-88.47999624133108
 20
-59.59999897330999
 30
0.0
 11
-89.97999626368282
 21
-59.19999896734953
 31
0.0
  0
LINE
  5
50E
330
1F
100
AcDbEntity
  8
22
  6
Continuous
 62
     4
370
    25
100
AcDbLine
 10
-89.97999626368282
 20
-59.19999896734953
 30
0.0
 11
-77.97999608486889
 21
-59.19999896734953
 31
0.0
  0
LINE
  5
50F
330
1F
100
AcDbEntity
  8
22
  6
Continuous
 62
     4
370
    25
100
AcDbLine
 10
-89.97999626368282
 20
-58.19999895244837
 30
0.0
 11
-89.97999626368282
 21
-63.19999902695417
 31
0.0
  0
LINE
  5
510
330
1F
100
AcDbEntity
  8
22
  6
Continuous
 62
     4
370
    25
100
AcDbLine
 10
-142.1999994069338
 20
-63.19999902695417
 30
0.0
 11
-142.1999994069338
 21
-51.19999884814024
 31
0.0
  0
LINE
  5
511
330
1F
100
AcDbEntity
  8
22
  6
Continuous
 62
     4
370
    25
100
AcDbLine
 10
-142.1999994069338
 20
-52.1999988630414
 30
0.0
 11
-140.699999384582
 21
-51.79999885708093
 31
0.0
  0
LINE
  5
512
330
1F
100
AcDbEntity
  8
22
  6
Continuous
 62
     4
370
    25
100
AcDbLine
 10
-140.699999384582
 20
-52.59999886900186
 30
0.0
 11
-142.1999994069338
 21
-52.1999988630414
 31
0.0
  0
LINE
  5
513
330
1F
100
AcDbEntity
  8
22
  6
Continuous
 62
     4
370
    25
100
AcDbLine
 10
-142.1999994069338
 20
-52.1999988630414
 30
0.0
 11
-43.39999793469907
 21
-52.1999988630414
 31
0.0
  0
LINE
  5
514
330
1F
100
AcDbEntity
  8
22
  6
Continuous
 62
     4
370
    25
100
AcDbLine
 10
-43.39999793469907
 20
-52.1999988630414
 30
0.0
 11
-44.89999795705081
 21
-51.79999885708093
 31
0.0
  0
LINE
  5
515
330
1F
100
AcDbEntity
  8
22
  6
Continuous
 62
     4
370
    25
100
AcDbLine
 10
-44.89999795705081
 20
-52.59999886900186
 30
0.0
 11
-43.39999793469907
 21
-52.1999988630414
 31
0.0
  0
LINE
  5
516
330
1F
100
AcDbEntity
  8
22
  6
Continuous
 62
     4
370
    25
100
AcDbLine
 10
-43.39999793469907
 20
-63.19999902695417
 30
0.0
 11
-43.39999793469907
 21
-51.19999884814024
 31
0.0
  0
LINE
  5
517
330
1F
100
AcDbEntity
  8
22
  6
Continuous
 62
     4
370
    25
100
AcDbLine
 10
-140.5999993830919
 20
-90.59999943524599
 30
0.0
 11
-140.5999993830919
 21
-81.59999930113554
 31
0.0
  0
LINE
  5
518
330
1F
100
AcDbEntity
  8
22
  6
Continuous
 62
     4
370
    25
100
AcDbLine
 10
-140.5999993830919
 20
-89.59999942034483
 30
0.0
 11
-139.0999993607402
 21
-89.19999941438437
 31
0.0
  0
LINE
  5
519
330
1F
100
AcDbEntity
  8
22
  6
Continuous
 62
     4
370
    25
100
AcDbLine
 10
-139.0999993607402
 20
-89.9999994263053
 30
0.0
 11
-140.5999993830919
 21
-89.59999942034483
 31
0.0
  0
LINE
  5
51A
330
1F
100
AcDbEntity
  8
22
  6
Continuous
 62
     4
370
    25
100
AcDbLine
 10
-140.5999993830919
 20
-89.59999942034483
 30
0.0
 11
-44.99999795854092
 21
-89.59999942034483
 31
0.0
  0
LINE
  5
51B
330
1F
100
AcDbEntity
  8
22
  6
Continuous
 62
     4
370
    25
100
AcDbLine
 10
-44.99999795854092
 20
-89.59999942034483
 30
0.0
 11
-46.49999798089266
 21
-89.19999941438437
 31
0.0
  0
LINE
  5
51C
330
1F
100
AcDbEntity
  8
22
  6
Continuous
 62
     4
370
    25
100
AcDbLine
 10
-46.49999798089266
 20
-89.9999994263053
 30
0.0
 11
-44.99999795854092
 21
-89.59999942034483
 31
0.0
  0
LINE
  5
51D
330
1F
100
AcDbEntity
  8
22
  6
Continuous
 62
     4
370
    25
100
AcDbLine
 10
-44.99999795854092
 20
-90.59999943524599
 30
0.0
 11
-44.99999795854092
 21
-81.59999930113554
 31
0.0
  0
LINE
  5
51E
330
1F
100
AcDbEntity
  8
22
  6
Continuous
 62
     4
370
    25
100
AcDbLine
 10
-106.7200000989437
 20
-63.19999902695417
 30
0.0
 11
-107.0200001034141
 21
-61.7399989670515
 31
0.0
  0
LINE
  5
51F
330
1F
100
AcDbEntity
  8
22
  6
Continuous
 62
     4
370
    25
100
AcDbLine
 10
-106.7200000989437
 20
-63.19999902695417
 30
0.0
 11
-107.7200001138449
 21
-62.09999901056291
 31
0.0
  0
LINE
  5
520
330
1F
100
AcDbEntity
  8
22
  6
Continuous
 62
     4
370
    25
100
AcDbLine
 10
-106.7200000989437
 20
-63.19999902695417
 30
0.0
 11
-111.7200001734495
 21
-53.19999887794256
 31
0.0
  0
LINE
  5
521
330
1F
100
AcDbEntity
  8
22
  6
Continuous
 62
     4
370
    25
100
AcDbLine
 10
-112.7200001883507
 20
-51.19999884814024
 30
0.0
 11
-115.7200002330542
 21
-45.19999875873327
 31
0.0
  0
LINE
  5
522
330
1F
100
AcDbEntity
  8
22
  6
Continuous
 62
     4
370
    25
100
AcDbLine
 10
-137.7200005608797
 20
-45.19999875873327
 30
0.0
 11
-115.7200002330542
 21
-45.19999875873327
 31
0.0
  0
LINE
  5
523
330
1F
100
AcDbEntity
  8
22
  6
Continuous
 62
     4
370
    25
100
AcDbLine
 10
1.100002728402607
 20
52.40000269562006
 30
0.0
 11
-3.899997346103198
 21
52.40000269562006
 31
0.0
  0
LINE
  5
524
330
1F
100
AcDbEntity
  8
22
  6
Continuous
 62
     4
370
    25
100
AcDbLine
 10
-2.899997331202037
 20
52.40000269562006
 30
0.0
 11
-3.299997337162502
 21
50.90000267326832
 31
0.0
  0
LINE
  5
525
330
1F
100
AcDbEntity
  8
22
  6
Continuous
 62
     4
370
    25
100
AcDbLine
 10
-2.499997325241573
 20
50.90000267326832
 30
0.0
 11
-2.899997331202037
 21
52.40000269562006
 31
0.0
  0
LINE
  5
526
330
1F
100
AcDbEntity
  8
22
  6
Continuous
 62
     4
370
    25
100
AcDbLine
 10
-2.899997331202037
 20
52.40000269562006
 30
0.0
 11
-2.899997331202037
 21
36.40000245720148
 31
0.0
  0
LINE
  5
527
330
1F
100
AcDbEntity
  8
22
  6
Continuous
 62
     4
370
    25
100
AcDbLine
 10
-2.899997331202037
 20
36.40000245720148
 30
0.0
 11
-3.299997337162502
 21
37.90000247955322
 31
0.0
  0
LINE
  5
528
330
1F
100
AcDbEntity
  8
22
  6
Continuous
 62
     4
370
    25
100
AcDbLine
 10
-2.499997325241573
 20
37.90000247955322
 30
0.0
 11
-2.899997331202037
 21
36.40000245720148
 31
0.0
  0
LINE
  5
529
330
1F
100
AcDbEntity
  8
22
  6
Continuous
 62
     4
370
    25
100
AcDbLine
 10
-3.899997346103198
 20
36.40000245720148
 30
0.0
 11
1.100002728402607
 21
36.40000245720148
 31
0.0
  0
LINE
  5
52A
330
1F
100
AcDbEntity
  8
22
  6
Continuous
 62
     4
370
    25
100
AcDbLine
 10
-2.899997331202037
 20
36.40000245720148
 30
0.0
 11
-3.299997337162502
 21
34.90000243484974
 31
0.0
  0
LINE
  5
52B
330
1F
100
AcDbEntity
  8
22
  6
Continuous
 62
     4
370
    25
100
AcDbLine
 10
-2.499997325241573
 20
34.90000243484974
 30
0.0
 11
-2.899997331202037
 21
36.40000245720148
 31
0.0
  0
LINE
  5
52C
330
1F
100
AcDbEntity
  8
22
  6
Continuous
 62
     4
370
    25
100
AcDbLine
 10
-2.899997331202037
 20
36.40000245720148
 30
0.0
 11
-2.899997331202037
 21
16.40000215917826
 31
0.0
  0
LINE
  5
52D
330
1F
100
AcDbEntity
  8
22
  6
Continuous
 62
     4
370
    25
100
AcDbLine
 10
-2.899997331202037
 20
16.40000215917826
 30
0.0
 11
-3.299997337162502
 21
17.90000218153
 31
0.0
  0
LINE
  5
52E
330
1F
100
AcDbEntity
  8
22
  6
Continuous
 62
     4
370
    25
100
AcDbLine
 10
-2.499997325241573
 20
17.90000218153
 30
0.0
 11
-2.899997331202037
 21
16.40000215917826
 31
0.0
  0
LINE
  5
52F
330
1F
100
AcDbEntity
  8
22
  6
Continuous
 62
     4
370
    25
100
AcDbLine
 10
-3.899997346103198
 20
16.40000215917826
 30
0.0
 11
1.100002728402607
 21
16.40000215917826
 31
0.0
  0
LINE
  5
530
330
1F
100
AcDbEntity
  8
22
  6
Continuous
 62
     4
370
    25
100
AcDbLine
 10
1.100002728402607
 20
52.40000269562006
 30
0.0
 11
-10.89999745041133
 21
52.40000269562006
 31
0.0
  0
LINE
  5
531
330
1F
100
AcDbEntity
  8
22
  6
Continuous
 62
     4
370
    25
100
AcDbLine
 10
-9.899997435510166
 20
52.40000269562006
 30
0.0
 11
-10.29999744147063
 21
50.90000267326832
 31
0.0
  0
LINE
  5
532
330
1F
100
AcDbEntity
  8
22
  6
Continuous
 62
     4
370
    25
100
AcDbLine
 10
-9.499997429549701
 20
50.90000267326832
 30
0.0
 11
-9.899997435510166
 21
52.40000269562006
 31
0.0
  0
LINE
  5
533
330
1F
100
AcDbEntity
  8
22
  6
Continuous
 62
     4
370
    25
100
AcDbLine
 10
-9.899997435510166
 20
52.40000269562006
 30
0.0
 11
-9.899997435510166
 21
-19.59999837726355
 31
0.0
  0
LINE
  5
534
330
1F
100
AcDbEntity
  8
22
  6
Continuous
 62
     4
370
    25
100
AcDbLine
 10
-9.899997435510166
 20
-19.59999837726355
 30
0.0
 11
-10.29999744147063
 21
-18.0999983549118
 31
0.0
  0
LINE
  5
535
330
1F
100
AcDbEntity
  8
22
  6
Continuous
 62
     4
370
    25
100
AcDbLine
 10
-9.499997429549701
 20
-18.0999983549118
 30
0.0
 11
-9.899997435510166
 21
-19.59999837726355
 31
0.0
  0
LINE
  5
536
330
1F
100
AcDbEntity
  8
22
  6
Continuous
 62
     4
370
    25
100
AcDbLine
 10
-10.89999745041133
 20
-19.59999837726355
 30
0.0
 11
1.100002728402607
 21
-19.59999837726355
 31
0.0
  0
LINE
  5
537
330
1F
100
AcDbEntity
  8
22
  6
Continuous
 62
     4
370
    25
100
AcDbLine
 10
19.50000300258397
 20
50.90000267326832
 30
0.0
 11
31.50000318139791
 21
50.90000267326832
 31
0.0
  0
LINE
  5
538
330
1F
100
AcDbEntity
  8
22
  6
Continuous
 62
     4
370
    25
100
AcDbLine
 10
30.50000316649675
 20
50.90000267326832
 30
0.0
 11
30.10000316053628
 21
49.40000265091658
 31
0.0
  0
LINE
  5
539
330
1F
100
AcDbEntity
  8
22
  6
Continuous
 62
     4
370
    25
100
AcDbLine
 10
30.90000317245721
 20
49.40000265091658
 30
0.0
 11
30.50000316649675
 21
50.90000267326832
 31
0.0
  0
LINE
  5
53A
330
1F
100
AcDbEntity
  8
22
  6
Continuous
 62
     4
370
    25
100
AcDbLine
 10
30.50000316649675
 20
50.90000267326832
 30
0.0
 11
30.50000316649675
 21
-18.0999983549118
 31
0.0
  0
LINE
  5
53B
330
1F
100
AcDbEntity
  8
22
  6
Continuous
 62
     4
370
    25
100
AcDbLine
 10
30.50000316649675
 20
-18.0999983549118
 30
0.0
 11
30.10000316053628
 21
-16.59999833256006
 31
0.0
  0
LINE
  5
53C
330
1F
100
AcDbEntity
  8
22
  6
Continuous
 62
     4
370
    25
100
AcDbLine
 10
30.90000317245721
 20
-16.59999833256006
 30
0.0
 11
30.50000316649675
 21
-18.0999983549118
 31
0.0
  0
LINE
  5
53D
330
1F
100
AcDbEntity
  8
22
  6
Continuous
 62
     4
370
    25
100
AcDbLine
 10
31.50000318139791
 20
-18.0999983549118
 30
0.0
 11
19.50000300258397
 21
-18.0999983549118
 31
0.0
  0
LINE
  5
53E
330
1F
100
AcDbEntity
  8
22
  6
Continuous
 62
     4
370
    25
100
AcDbLine
 10
16.00000295042991
 20
51.50000268220901
 30
0.0
 11
16.30000295490026
 21
52.96000274211168
 31
0.0
  0
LINE
  5
53F
330
1F
100
AcDbEntity
  8
22
  6
Continuous
 62
     4
370
    25
100
AcDbLine
 10
16.00000295042991
 20
51.50000268220901
 30
0.0
 11
17.00000296533107
 21
52.60000269860029
 31
0.0
  0
LINE
  5
540
330
1F
100
AcDbEntity
  8
22
  6
Continuous
 62
     4
370
    25
100
AcDbLine
 10
16.00000295042991
 20
51.50000268220901
 30
0.0
 11
25.50000309199094
 21
70.50000296533108
 31
0.0
  0
LINE
  5
541
330
1F
100
AcDbEntity
  8
22
  6
Continuous
 62
     4
370
    25
100
AcDbLine
 10
25.50000309199094
 20
70.50000296533108
 30
0.0
 11
2.500002749264233
 21
70.50000296533108
 31
0.0
  0
LINE
  5
542
330
1F
100
AcDbEntity
  8
22
  6
Continuous
 62
     4
370
    25
100
AcDbLine
 10
1.600002735853188
 20
-20.09999838471413
 30
0.0
 11
1.600002735853188
 21
-36.0999986231327
 31
0.0
  0
LINE
  5
543
330
1F
100
AcDbEntity
  8
22
  6
Continuous
 62
     4
370
    25
100
AcDbLine
 10
1.600002735853188
 20
-35.09999860823154
 30
0.0
 11
0.1000027135014463
 21
-34.69999860227108
 31
0.0
  0
LINE
  5
544
330
1F
100
AcDbEntity
  8
22
  6
Continuous
 62
     4
370
    25
100
AcDbLine
 10
0.1000027135014463
 20
-35.49999861419201
 30
0.0
 11
1.600002735853188
 21
-35.09999860823154
 31
0.0
  0
LINE
  5
545
330
1F
100
AcDbEntity
  8
22
  6
Continuous
 62
     4
370
    25
100
AcDbLine
 10
1.600002735853188
 20
-35.09999860823154
 30
0.0
 11
-5.39999736845494
 21
-35.09999860823154
 31
0.0
  0
LINE
  5
546
330
1F
100
AcDbEntity
  8
22
  6
Continuous
 62
     4
370
    25
100
AcDbLine
 10
1.600002735853188
 20
-35.09999860823154
 30
0.0
 11
8.00000283122062
 21
-35.09999860823154
 31
0.0
  0
LINE
  5
547
330
1F
100
AcDbEntity
  8
22
  6
Continuous
 62
     4
370
    25
100
AcDbLine
 10
8.00000283122062
 20
-35.09999860823154
 30
0.0
 11
9.50000285357236
 21
-34.69999860227108
 31
0.0
  0
LINE
  5
548
330
1F
100
AcDbEntity
  8
22
  6
Continuous
 62
     4
370
    25
100
AcDbLine
 10
9.50000285357236
 20
-35.49999861419201
 30
0.0
 11
8.00000283122062
 21
-35.09999860823154
 31
0.0
  0
LINE
  5
549
330
1F
100
AcDbEntity
  8
22
  6
Continuous
 62
     4
370
    25
100
AcDbLine
 10
8.00000283122062
 20
-35.09999860823154
 30
0.0
 11
11.0000028759241
 21
-35.09999860823154
 31
0.0
  0
LINE
  5
54A
330
1F
100
AcDbEntity
  8
22
  6
Continuous
 62
     4
370
    25
100
AcDbLine
 10
8.00000283122062
 20
-36.0999986231327
 30
0.0
 11
8.00000283122062
 21
-20.09999838471413
 31
0.0
  0
LINE
  5
54B
330
1F
100
AcDbEntity
  8
22
  6
Continuous
 62
     4
370
    25
100
AcDbLine
 10
1.600002735853188
 20
-43.09999872744083
 30
0.0
 11
1.600002735853188
 21
-20.09999838471413
 31
0.0
  0
LINE
  5
54C
330
1F
100
AcDbEntity
  8
22
  6
Continuous
 62
     4
370
    25
100
AcDbLine
 10
1.600002735853188
 20
-42.09999871253967
 30
0.0
 11
3.10000275820493
 21
-41.69999870657921
 31
0.0
  0
LINE
  5
54D
330
1F
100
AcDbEntity
  8
22
  6
Continuous
 62
     4
370
    25
100
AcDbLine
 10
3.10000275820493
 20
-42.49999871850014
 30
0.0
 11
1.600002735853188
 21
-42.09999871253967
 31
0.0
  0
LINE
  5
54E
330
1F
100
AcDbEntity
  8
22
  6
Continuous
 62
     4
370
    25
100
AcDbLine
 10
1.600002735853188
 20
-42.09999871253967
 30
0.0
 11
19.00000299513339
 21
-42.09999871253967
 31
0.0
  0
LINE
  5
54F
330
1F
100
AcDbEntity
  8
22
  6
Continuous
 62
     4
370
    25
100
AcDbLine
 10
19.00000299513339
 20
-42.09999871253967
 30
0.0
 11
17.50000297278165
 21
-41.69999870657921
 31
0.0
  0
LINE
  5
550
330
1F
100
AcDbEntity
  8
22
  6
Continuous
 62
     4
370
    25
100
AcDbLine
 10
17.50000297278165
 20
-42.49999871850014
 30
0.0
 11
19.00000299513339
 21
-42.09999871253967
 31
0.0
  0
LINE
  5
551
330
1F
100
AcDbEntity
  8
22
  6
Continuous
 62
     4
370
    25
100
AcDbLine
 10
19.00000299513339
 20
-43.09999872744083
 30
0.0
 11
19.00000299513339
 21
-20.09999838471413
 31
0.0
  0
LINE
  5
552
330
1F
100
AcDbEntity
  8
0
  6
Continuous
 62
     4
370
    25
100
AcDbLine
 10
-135.958333860862
 20
88.48333678928863
 30
0.0
 11
-134.4583338385103
 21
88.8833367952491
 31
0.0
  0
LINE
  5
553
330
1F
100
AcDbEntity
  8
0
  6
Continuous
 62
     4
370
    25
100
AcDbLine
 10
-134.4583338385103
 20
88.08333678332816
 30
0.0
 11
-135.958333860862
 21
88.48333678928863
 31
0.0
  0
LINE
  5
554
330
1F
100
AcDbEntity
  8
0
  6
Continuous
 62
     4
370
    25
100
AcDbLine
 10
-135.958333860862
 20
88.48333678928863
 30
0.0
 11
-105.9583334138272
 21
88.48333678928863
 31
0.0
  0
LINE
  5
555
330
1F
100
AcDbEntity
  8
0
  6
Continuous
 62
     4
370
    25
100
AcDbLine
 10
-105.9583334138272
 20
88.48333678928863
 30
0.0
 11
-107.4583334361789
 21
88.8833367952491
 31
0.0
  0
LINE
  5
556
330
1F
100
AcDbEntity
  8
0
  6
Continuous
 62
     4
370
    25
100
AcDbLine
 10
-107.4583334361789
 20
88.08333678332816
 30
0.0
 11
-105.9583334138272
 21
88.48333678928863
 31
0.0
  0
TEXT
  5
557
330
1F
100
AcDbEntity
  8
0
 62
     2
100
AcDbText
 10
-129.9583337752863
 20
89.18333680176893
 30
0.0
 40
3.0
  1
車両進行方向
 41
0.8333333352623458
  7
dcStyle0
 72
     5
 11
-111.9583335252863
 21
89.18333680176893
 31
0.0
100
AcDbText
  0
VIEWPORT
  5
77
330
1B
100
AcDbEntity
 67
     1
  8
0
100
AcDbViewport
 10
-4.799997359514236
 20
-11.29999825358391
 30
0.0
 40
1063.200015842915
 41
703.2000104784966
 68
     1
 69
     1
 12
-4.799997359514236
 22
-11.29999825358391
 13
0.0
 23
0.0
 14
0.5
 24
0.5
 15
0.0
 25
0.0
 16
0.0
 26
0.0
 36
1.0
 17
0.0
 27
0.0
 37
0.0
 42
50.0
 43
0.0
 44
0.0
 45
703.2000104784966
 50
0.0
 51
0.0
 72
   100
 90
   557152
  1

281
     0
 71
     1
 74
     0
110
0.0
120
0.0
130
0.0
111
1.0
121
0.0
131
0.0
112
0.0
122
1.0
132
0.0
 79
     0
146
0.0
  0
ENDSEC
  0
SECTION
  2
OBJECTS
  0
DICTIONARY
  5
C
330
0
100
AcDbDictionary
281
     1
  3
ACAD_GROUP
350
D
  3
ACAD_LAYOUT
350
1A
  3
ACAD_MATERIAL
350
3B
  3
ACAD_MLEADERSTYLE
350
57C
  3
ACAD_MLINESTYLE
350
17
  3
ACAD_PLOTSETTINGS
350
19
  3
ACAD_PLOTSTYLENAME
350
E
  3
ACAD_SCALELIST
350
558
  3
ACAD_VISUALSTYLE
350
2A
  3
AcDbVariableDictionary
350
57A
  0
DICTIONARY
  5
D
102
{ACAD_REACTORS
330
C
102
}
330
C
100
AcDbDictionary
281
     1
  0
DICTIONARY
  5
1A
102
{ACAD_REACTORS
330
C
102
}
330
C
100
AcDbDictionary
281
     1
  3
Layout1
350
1E
  3
Layout2
350
26
  3
Model
350
22
  0
DICTIONARY
  5
3B
102
{ACAD_REACTORS
330
C
102
}
330
C
100
AcDbDictionary
281
     1
  3
ByBlock
350
3D
  3
ByLayer
350
3C
  3
Global
350
3E
  0
DICTIONARY
  5
57C
102
{ACAD_REACTORS
330
C
102
}
330
C
100
AcDbDictionary
281
     1
  0
DICTIONARY
  5
17
102
{ACAD_REACTORS
330
C
102
}
330
C
100
AcDbDictionary
281
     1
  3
Standard
350
18
  0
DICTIONARY
  5
19
102
{ACAD_REACTORS
330
C
102
}
330
C
100
AcDbDictionary
281
     1
  0
ACDBDICTIONARYWDFLT
  5
E
102
{ACAD_REACTORS
330
C
102
}
330
C
100
AcDbDictionary
281
     1
  3
Normal
350
F
100
AcDbDictionaryWithDefault
340
F
  0
DICTIONARY
  5
558
102
{ACAD_REACTORS
330
C
102
}
330
C
100
AcDbDictionary
281
     1
  3
A0
350
559
  3
A1
350
55A
  3
A2
350
55B
  3
A3
350
55C
  3
A4
350
55D
  3
A5
350
55E
  3
A6
350
55F
  3
A7
350
560
  3
A8
350
561
  3
A9
350
562
  3
B0
350
563
  3
B1
350
564
  3
B2
350
565
  3
B3
350
566
  3
B4
350
567
  3
B5
350
568
  3
B6
350
569
  3
B7
350
56A
  3
B8
350
56B
  3
B9
350
56C
  3
C0
350
56D
  3
C1
350
56E
  3
C2
350
56F
  3
C3
350
570
  3
C4
350
571
  3
C5
350
572
  3
C6
350
573
  3
C7
350
574
  3
C8
350
575
  3
C9
350
576
  3
D0
350
577
  3
D1
350
578
  3
D2
350
579
  0
DICTIONARY
  5
2A
102
{ACAD_REACTORS
330
C
102
}
330
C
100
AcDbDictionary
281
     1
  3
2dWireframe
350
2F
  3
3D Hidden
350
31
  3
3dWireframe
350
30
  3
Basic
350
32
  3
Brighten
350
36
  3
ColorChange
350
3A
  3
Conceptual
350
34
  3
Dim
350
35
  3
Facepattern
350
39
  3
Flat
350
2B
  3
FlatWithEdges
350
2C
  3
Gouraud
350
2D
  3
GouraudWithEdges
350
2E
  3
Linepattern
350
38
  3
Realistic
350
33
  3
Thicken
350
37
  0
DICTIONARY
  5
57A
102
{ACAD_REACTORS
330
C
102
}
330
C
100
AcDbDictionary
281
     1
  3
CANNOSCALE
350
57D
  3
DIMASSOC
350
57E
  3
HIDETEXT
350
57F
  0
LAYOUT
  5
1E
102
{ACAD_REACTORS
330
1A
102
}
330
1A
100
AcDbPlotSettings
  1

  2
none_device
  4

  6

 40
0.0
 41
0.0
 42
0.0
 43
0.0
 44
0.0
 45
0.0
 46
0.0
 47
0.0
 48
0.0
 49
0.0
140
0.0
141
0.0
142
1.0
143
1.0
 70
   688
 72
     0
 73
     0
 74
     5
  7

 75
    16
147
1.0
148
0.0
149
0.0
100
AcDbLayout
  1
Layout1
 70
     0
 71
     1
 10
0.0
 20
0.0
 11
12.0
 21
9.0
 12
0.0
 22
0.0
 32
0.0
 14
1.000000000000000E+20
 24
1.000000000000000E+20
 34
1.000000000000000E+20
 15
-1.000000000000000E+20
 25
-1.000000000000000E+20
 35
-1.000000000000000E+20
146
0.0
 13
0.0
 23
0.0
 33
0.0
 16
1.0
 26
0.0
 36
0.0
 17
0.0
 27
1.0
 37
0.0
 76
     0
330
1B
331
77
  0
LAYOUT
  5
26
102
{ACAD_REACTORS
330
1A
102
}
330
1A
100
AcDbPlotSettings
  1

  2
none_device
  4

  6

 40
0.0
 41
0.0
 42
0.0
 43
0.0
 44
0.0
 45
0.0
 46
0.0
 47
0.0
 48
0.0
 49
0.0
140
0.0
141
0.0
142
1.0
143
1.0
 70
   688
 72
     0
 73
     0
 74
     5
  7

 75
    16
147
1.0
148
0.0
149
0.0
100
AcDbLayout
  1
Layout2
 70
     1
 71
     2
 10
0.0
 20
0.0
 11
0.0
 21
0.0
 12
0.0
 22
0.0
 32
0.0
 14
0.0
 24
0.0
 34
0.0
 15
0.0
 25
0.0
 35
0.0
146
0.0
 13
0.0
 23
0.0
 33
0.0
 16
1.0
 26
0.0
 36
0.0
 17
0.0
 27
1.0
 37
0.0
 76
     0
330
23
  0
LAYOUT
  5
22
102
{ACAD_REACTORS
330
1A
102
}
330
1A
100
AcDbPlotSettings
  1

  2
none_device
  4

  6

 40
0.0
 41
0.0
 42
0.0
 43
0.0
 44
0.0
 45
0.0
 46
0.0
 47
0.0
 48
0.0
 49
0.0
140
0.0
141
0.0
142
1.0
143
1.0
 70
  1712
 72
     0
 73
     0
 74
     0
  7

 75
     0
147
1.0
148
0.0
149
0.0
100
AcDbLayout
  1
Model
 70
     1
 71
     0
 10
-182.0
 20
-128.5
 11
182.0
 21
128.5
 12
0.0
 22
0.0
 32
0.0
 14
-536.4000052809715
 24
-362.9000034928322
 34
0.0
 15
526.800010561943
 25
340.3000069856644
 35
0.0
146
0.0
 13
0.0
 23
0.0
 33
0.0
 16
1.0
 26
0.0
 36
0.0
 17
0.0
 27
1.0
 37
0.0
 76
     0
330
1F
331
29
  0
MATERIAL
  5
3D
102
{ACAD_REACTORS
330
3B
102
}
102
{ACAD_XDICTIONARY
360
5A2
102
}
330
3B
100
AcDbMaterial
  1
ByBlock
  0
MATERIAL
  5
3C
102
{ACAD_REACTORS
330
3B
102
}
102
{ACAD_XDICTIONARY
360
5A0
102
}
330
3B
100
AcDbMaterial
  1
ByLayer
  0
MATERIAL
  5
3E
102
{ACAD_REACTORS
330
3B
102
}
102
{ACAD_XDICTIONARY
360
5A4
102
}
330
3B
100
AcDbMaterial
  1
Global
  0
MLINESTYLE
  5
18
102
{ACAD_REACTORS
330
17
102
}
330
17
100
AcDbMlineStyle
  2
Standard
 70
     0
  3

 62
   256
 51
90.0
 52
90.0
 71
     2
 49
0.5
 62
   256
  6
BYLAYER
 49
-0.5
 62
   256
  6
BYLAYER
  0
ACDBPLACEHOLDER
  5
F
102
{ACAD_REACTORS
330
E
102
}
330
E
  0
SCALE
  5
559
102
{ACAD_REACTORS
330
558
102
}
330
558
100
AcDbScale
 70
     0
300
1:1
140
1.0
141
1.0
290
     1
  0
SCALE
  5
55A
102
{ACAD_REACTORS
330
558
102
}
330
558
100
AcDbScale
 70
     0
300
1:2
140
1.0
141
2.0
290
     0
  0
SCALE
  5
55B
102
{ACAD_REACTORS
330
558
102
}
330
558
100
AcDbScale
 70
     0
300
1:4
140
1.0
141
4.0
290
     0
  0
SCALE
  5
55C
102
{ACAD_REACTORS
330
558
102
}
330
558
100
AcDbScale
 70
     0
300
1:5
140
1.0
141
5.0
290
     0
  0
SCALE
  5
55D
102
{ACAD_REACTORS
330
558
102
}
330
558
100
AcDbScale
 70
     0
300
1:8
140
1.0
141
8.0
290
     0
  0
SCALE
  5
55E
102
{ACAD_REACTORS
330
558
102
}
330
558
100
AcDbScale
 70
     0
300
1:10
140
1.0
141
10.0
290
     0
  0
SCALE
  5
55F
102
{ACAD_REACTORS
330
558
102
}
330
558
100
AcDbScale
 70
     0
300
1:16
140
1.0
141
16.0
290
     0
  0
SCALE
  5
560
102
{ACAD_REACTORS
330
558
102
}
330
558
100
AcDbScale
 70
     0
300
1:20
140
1.0
141
20.0
290
     0
  0
SCALE
  5
561
102
{ACAD_REACTORS
330
558
102
}
330
558
100
AcDbScale
 70
     0
300
1:30
140
1.0
141
30.0
290
     0
  0
SCALE
  5
562
102
{ACAD_REACTORS
330
558
102
}
330
558
100
AcDbScale
 70
     0
300
1:40
140
1.0
141
40.0
290
     0
  0
SCALE
  5
563
102
{ACAD_REACTORS
330
558
102
}
330
558
100
AcDbScale
 70
     0
300
1:50
140
1.0
141
50.0
290
     0
  0
SCALE
  5
564
102
{ACAD_REACTORS
330
558
102
}
330
558
100
AcDbScale
 70
     0
300
1:100
140
1.0
141
100.0
290
     0
  0
SCALE
  5
565
102
{ACAD_REACTORS
330
558
102
}
330
558
100
AcDbScale
 70
     0
300
2:1
140
2.0
141
1.0
290
     0
  0
SCALE
  5
566
102
{ACAD_REACTORS
330
558
102
}
330
558
100
AcDbScale
 70
     0
300
4:1
140
4.0
141
1.0
290
     0
  0
SCALE
  5
567
102
{ACAD_REACTORS
330
558
102
}
330
558
100
AcDbScale
 70
     0
300
8:1
140
8.0
141
1.0
290
     0
  0
SCALE
  5
568
102
{ACAD_REACTORS
330
558
102
}
330
558
100
AcDbScale
 70
     0
300
10:1
140
10.0
141
1.0
290
     0
  0
SCALE
  5
569
102
{ACAD_REACTORS
330
558
102
}
330
558
100
AcDbScale
 70
     0
300
100:1
140
100.0
141
1.0
290
     0
  0
SCALE
  5
56A
102
{ACAD_REACTORS
330
558
102
}
330
558
100
AcDbScale
 70
     0
300
1/128" = 1'-0"
140
0.0078125
141
12.0
290
     0
  0
SCALE
  5
56B
102
{ACAD_REACTORS
330
558
102
}
330
558
100
AcDbScale
 70
     0
300
1/64" = 1'-0"
140
0.015625
141
12.0
290
     0
  0
SCALE
  5
56C
102
{ACAD_REACTORS
330
558
102
}
330
558
100
AcDbScale
 70
     0
300
1/32" = 1'-0"
140
0.03125
141
12.0
290
     0
  0
SCALE
  5
56D
102
{ACAD_REACTORS
330
558
102
}
330
558
100
AcDbScale
 70
     0
300
1/16" = 1'-0"
140
0.0625
141
12.0
290
     0
  0
SCALE
  5
56E
102
{ACAD_REACTORS
330
558
102
}
330
558
100
AcDbScale
 70
     0
300
3/32" = 1'-0"
140
0.09375
141
12.0
290
     0
  0
SCALE
  5
56F
102
{ACAD_REACTORS
330
558
102
}
330
558
100
AcDbScale
 70
     0
300
1/8" = 1'-0"
140
0.125
141
12.0
290
     0
  0
SCALE
  5
570
102
{ACAD_REACTORS
330
558
102
}
330
558
100
AcDbScale
 70
     0
300
3/16" = 1'-0"
140
0.1875
141
12.0
290
     0
  0
SCALE
  5
571
102
{ACAD_REACTORS
330
558
102
}
330
558
100
AcDbScale
 70
     0
300
1/4" = 1'-0"
140
0.25
141
12.0
290
     0
  0
SCALE
  5
572
102
{ACAD_REACTORS
330
558
102
}
330
558
100
AcDbScale
 70
     0
300
3/8" = 1'-0"
140
0.375
141
12.0
290
     0
  0
SCALE
  5
573
102
{ACAD_REACTORS
330
558
102
}
330
558
100
AcDbScale
 70
     0
300
1/2" = 1'-0"
140
0.5
141
12.0
290
     0
  0
SCALE
  5
574
102
{ACAD_REACTORS
330
558
102
}
330
558
100
AcDbScale
 70
     0
300
3/4" = 1'-0"
140
0.75
141
12.0
290
     0
  0
SCALE
  5
575
102
{ACAD_REACTORS
330
558
102
}
330
558
100
AcDbScale
 70
     0
300
1" = 1'-0"
140
1.0
141
12.0
290
     0
  0
SCALE
  5
576
102
{ACAD_REACTORS
330
558
102
}
330
558
100
AcDbScale
 70
     0
300
1-1/2" = 1'-0"
140
1.5
141
12.0
290
     0
  0
SCALE
  5
577
102
{ACAD_REACTORS
330
558
102
}
330
558
100
AcDbScale
 70
     0
300
3" = 1'-0"
140
3.0
141
12.0
290
     0
  0
SCALE
  5
578
102
{ACAD_REACTORS
330
558
102
}
330
558
100
AcDbScale
 70
     0
300
6" = 1'-0"
140
6.0
141
12.0
290
     0
  0
SCALE
  5
579
102
{ACAD_REACTORS
330
558
102
}
330
558
100
AcDbScale
 70
     0
300
1'-0" = 1'-0"
140
12.0
141
12.0
290
     0
  0
VISUALSTYLE
  5
2F
102
{ACAD_REACTORS
330
2A
102
}
102
{ACAD_XDICTIONARY
360
588
102
}
330
2A
100
AcDbVisualStyle
  2
2dWireframe
 70
     4
 71
     0
 72
     2
 73
     0
 90
        0
 40
-0.6
 41
-30.0
 62
     5
 63
     7
 74
     1
 91
        4
 64
     7
 65
   257
 75
     1
175
     1
 42
1.0
 92
        0
 66
   257
 43
1.0
 76
     1
 77
     6
 78
     2
 67
     7
 79
     5
170
     0
171
     0
290
     0
174
     0
 93
        1
 44
0.0
173
     0
291
     0
 45
0.0
1001
ACAD
1000
AcDbSavedByObjectVersion
1070
     0
  0
VISUALSTYLE
  5
31
102
{ACAD_REACTORS
330
2A
102
}
102
{ACAD_XDICTIONARY
360
58C
102
}
330
2A
100
AcDbVisualStyle
  2
3D Hidden
 70
     6
 71
     1
 72
     2
 73
     2
 90
        0
 40
-0.6
 41
-30.0
 62
     5
 63
     7
 74
     2
 91
        2
 64
     7
 65
   257
 75
     2
175
     1
 42
40.0
 92
        0
 66
   257
 43
1.0
 76
     1
 77
     6
 78
     2
 67
     7
 79
     3
170
     0
171
     0
290
     0
174
     0
 93
        1
 44
0.0
173
     0
291
     0
 45
0.0
1001
ACAD
1000
AcDbSavedByObjectVersion
1070
     0
  0
VISUALSTYLE
  5
30
102
{ACAD_REACTORS
330
2A
102
}
102
{ACAD_XDICTIONARY
360
58A
102
}
330
2A
100
AcDbVisualStyle
  2
3dWireframe
 70
     5
 71
     0
 72
     2
 73
     0
 90
        0
 40
-0.6
 41
-30.0
 62
     5
 63
     7
 74
     1
 91
        4
 64
     7
 65
   257
 75
     1
175
     1
 42
1.0
 92
        0
 66
   257
 43
1.0
 76
     1
 77
     6
 78
     2
 67
     7
 79
     5
170
     0
171
     0
290
     0
174
     0
 93
        1
 44
0.0
173
     0
291
     0
 45
0.0
1001
ACAD
1000
AcDbSavedByObjectVersion
1070
     0
  0
VISUALSTYLE
  5
32
102
{ACAD_REACTORS
330
2A
102
}
102
{ACAD_XDICTIONARY
360
58E
102
}
330
2A
100
AcDbVisualStyle
  2
Basic
 70
     7
 71
     1
 72
     0
 73
     1
 90
        0
 40
-0.6
 41
-30.0
 62
     5
 63
     7
 74
     0
 91
        4
 64
     7
 65
   257
 75
     1
175
     1
 42
1.0
 92
        8
 66
     7
 43
1.0
 76
     1
 77
     6
 78
     2
 67
     7
 79
     5
170
     0
171
     0
290
     0
174
     0
 93
        1
 44
0.0
173
     0
291
     1
 45
0.0
1001
ACAD
1000
AcDbSavedByObjectVersion
1070
     0
  0
VISUALSTYLE
  5
36
102
{ACAD_REACTORS
330
2A
102
}
102
{ACAD_XDICTIONARY
360
596
102
}
330
2A
100
AcDbVisualStyle
  2
Brighten
 70
    12
 71
     2
 72
     2
 73
     0
 90
        0
 40
-0.6
 41
-30.0
 62
     5
 63
     7
 74
     1
 91
        4
 64
     7
 65
   257
 75
     1
175
     1
 42
1.0
 92
        8
 66
     7
 43
1.0
 76
     1
 77
     6
 78
     2
 67
     7
 79
     5
170
     0
171
     0
290
     0
174
     0
 93
        1
 44
50.0
173
     0
291
     1
 45
0.0
1001
ACAD
1000
AcDbSavedByObjectVersion
1070
     0
  0
VISUALSTYLE
  5
3A
102
{ACAD_REACTORS
330
2A
102
}
102
{ACAD_XDICTIONARY
360
59E
102
}
330
2A
100
AcDbVisualStyle
  2
ColorChange
 70
    16
 71
     2
 72
     2
 73
     3
 90
        0
 40
-0.6
 41
-30.0
 62
     5
 63
     8
 74
     1
 91
        4
 64
     7
 65
   257
 75
     1
175
     1
 42
1.0
 92
        8
 66
     8
 43
1.0
 76
     1
 77
     6
 78
     2
 67
     7
 79
     5
170
     0
171
     0
290
     0
174
     0
 93
        1
 44
0.0
173
     0
291
     1
 45
0.0
1001
ACAD
1000
AcDbSavedByObjectVersion
1070
     0
  0
VISUALSTYLE
  5
34
102
{ACAD_REACTORS
330
2A
102
}
102
{ACAD_XDICTIONARY
360
592
102
}
330
2A
100
AcDbVisualStyle
  2
Conceptual
 70
     9
 71
     3
 72
     2
 73
     0
 90
        0
 40
-0.6
 41
-30.0
 62
     5
 63
     7
 74
     2
 91
        2
 64
     7
 65
   257
 75
     1
175
     1
 42
40.0
 92
        8
 66
     7
 43
1.0
 76
     1
 77
     6
 78
     2
 67
     7
 79
     3
170
     0
171
     0
290
     0
174
     0
 93
        1
 44
0.0
173
     0
291
     0
 45
0.0
1001
ACAD
1000
AcDbSavedByObjectVersion
1070
     0
  0
VISUALSTYLE
  5
35
102
{ACAD_REACTORS
330
2A
102
}
102
{ACAD_XDICTIONARY
360
594
102
}
330
2A
100
AcDbVisualStyle
  2
Dim
 70
    11
 71
     2
 72
     2
 73
     0
 90
        0
 40
-0.6
 41
-30.0
 62
     5
 63
     7
 74
     1
 91
        4
 64
     7
 65
   257
 75
     1
175
     1
 42
1.0
 92
        8
 66
     7
 43
1.0
 76
     1
 77
     6
 78
     2
 67
     7
 79
     5
170
     0
171
     0
290
     0
174
     0
 93
        1
 44
-50.0
173
     0
291
     1
 45
0.0
1001
ACAD
1000
AcDbSavedByObjectVersion
1070
     0
  0
VISUALSTYLE
  5
39
102
{ACAD_REACTORS
330
2A
102
}
102
{ACAD_XDICTIONARY
360
59C
102
}
330
2A
100
AcDbVisualStyle
  2
Facepattern
 70
    15
 71
     2
 72
     2
 73
     0
 90
        0
 40
-0.6
 41
-30.0
 62
     5
 63
     7
 74
     1
 91
        4
 64
     7
 65
   257
 75
     1
175
     1
 42
1.0
 92
        8
 66
     7
 43
1.0
 76
     1
 77
     6
 78
     2
 67
     7
 79
     5
170
     0
171
     0
290
     0
174
     0
 93
        1
 44
0.0
173
     0
291
     1
 45
0.0
1001
ACAD
1000
AcDbSavedByObjectVersion
1070
     0
  0
VISUALSTYLE
  5
2B
102
{ACAD_REACTORS
330
2A
102
}
102
{ACAD_XDICTIONARY
360
580
102
}
330
2A
100
AcDbVisualStyle
  2
Flat
 70
     0
 71
     2
 72
     1
 73
     1
 90
        2
 40
-0.6
 41
30.0
 62
     5
 63
     7
 74
     0
 91
        4
 64
     7
 65
   257
 75
     1
175
     1
 42
1.0
 92
        8
 66
     7
 43
1.0
 76
     1
 77
     6
 78
     2
 67
     7
 79
     5
170
     0
171
     0
290
     0
174
     0
 93
       13
 44
0.0
173
     0
291
     1
 45
0.0
1001
ACAD
1000
AcDbSavedByObjectVersion
1070
     0
  0
VISUALSTYLE
  5
2C
102
{ACAD_REACTORS
330
2A
102
}
102
{ACAD_XDICTIONARY
360
582
102
}
330
2A
100
AcDbVisualStyle
  2
FlatWithEdges
 70
     1
 71
     2
 72
     1
 73
     1
 90
        2
 40
-0.6
 41
30.0
 62
     5
 63
     7
 74
     1
 91
        4
 64
     7
 65
   257
 75
     1
175
     1
 42
1.0
 92
        0
 66
   257
 43
1.0
 76
     1
 77
     6
 78
     2
 67
     7
 79
     5
170
     0
171
     0
290
     0
174
     0
 93
       13
 44
0.0
173
     0
291
     1
 45
0.0
1001
ACAD
1000
AcDbSavedByObjectVersion
1070
     0
  0
VISUALSTYLE
  5
2D
102
{ACAD_REACTORS
330
2A
102
}
102
{ACAD_XDICTIONARY
360
584
102
}
330
2A
100
AcDbVisualStyle
  2
Gouraud
 70
     2
 71
     2
 72
     2
 73
     1
 90
        2
 40
-0.6
 41
30.0
 62
     5
 63
     7
 74
     0
 91
        4
 64
     7
 65
   257
 75
     1
175
     1
 42
1.0
 92
        0
 66
     7
 43
1.0
 76
     1
 77
     6
 78
     2
 67
     7
 79
     5
170
     0
171
     0
290
     0
174
     0
 93
       13
 44
0.0
173
     0
291
     1
 45
0.0
1001
ACAD
1000
AcDbSavedByObjectVersion
1070
     0
  0
VISUALSTYLE
  5
2E
102
{ACAD_REACTORS
330
2A
102
}
102
{ACAD_XDICTIONARY
360
586
102
}
330
2A
100
AcDbVisualStyle
  2
GouraudWithEdges
 70
     3
 71
     2
 72
     2
 73
     1
 90
        2
 40
-0.6
 41
30.0
 62
     5
 63
     7
 74
     1
 91
        4
 64
     7
 65
   257
 75
     1
175
     1
 42
1.0
 92
        0
 66
   257
 43
1.0
 76
     1
 77
     6
 78
     2
 67
     7
 79
     5
170
     0
171
     0
290
     0
174
     0
 93
       13
 44
0.0
173
     0
291
     1
 45
0.0
1001
ACAD
1000
AcDbSavedByObjectVersion
1070
     0
  0
VISUALSTYLE
  5
38
102
{ACAD_REACTORS
330
2A
102
}
102
{ACAD_XDICTIONARY
360
59A
102
}
330
2A
100
AcDbVisualStyle
  2
Linepattern
 70
    14
 71
     2
 72
     2
 73
     0
 90
        0
 40
-0.6
 41
-30.0
 62
     5
 63
     7
 74
     1
 91
        4
 64
     7
 65
   257
 75
     7
175
     7
 42
1.0
 92
        8
 66
     7
 43
1.0
 76
     1
 77
     6
 78
     2
 67
     7
 79
     5
170
     0
171
     0
290
     0
174
     0
 93
        1
 44
0.0
173
     0
291
     1
 45
0.0
1001
ACAD
1000
AcDbSavedByObjectVersion
1070
     0
  0
VISUALSTYLE
  5
33
102
{ACAD_REACTORS
330
2A
102
}
102
{ACAD_XDICTIONARY
360
590
102
}
330
2A
100
AcDbVisualStyle
  2
Realistic
 70
     8
 71
     2
 72
     2
 73
     0
 90
        0
 40
-0.6
 41
-30.0
 62
     5
 63
     7
 74
     1
 91
        0
 64
     7
 65
   257
 75
     1
175
     1
 42
1.0
 92
        8
 66
     8
 43
1.0
 76
     1
 77
     6
 78
     2
 67
     7
 79
     5
170
     0
171
     0
290
     0
174
     0
 93
       13
 44
0.0
173
     0
291
     0
 45
0.0
1001
ACAD
1000
AcDbSavedByObjectVersion
1070
     0
  0
VISUALSTYLE
  5
37
102
{ACAD_REACTORS
330
2A
102
}
102
{ACAD_XDICTIONARY
360
598
102
}
330
2A
100
AcDbVisualStyle
  2
Thicken
 70
    13
 71
     2
 72
     2
 73
     0
 90
        0
 40
-0.6
 41
-30.0
 62
     5
 63
     7
 74
     1
 91
        4
 64
     7
 65
   257
 75
     1
175
     1
 42
1.0
 92
       12
 66
     7
 43
1.0
 76
     1
 77
     6
 78
     2
 67
     7
 79
     5
170
     0
171
     0
290
     0
174
     0
 93
        1
 44
0.0
173
     0
291
     1
 45
0.0
1001
ACAD
1000
AcDbSavedByObjectVersion
1070
     0
  0
DICTIONARYVAR
  5
57D
102
{ACAD_REACTORS
330
57A
102
}
330
57A
100
DictionaryVariables
280
     0
  1
1:1
  0
DICTIONARYVAR
  5
57E
102
{ACAD_REACTORS
330
57A
102
}
330
57A
100
DictionaryVariables
280
     0
  1
2
  0
DICTIONARYVAR
  5
57F
102
{ACAD_REACTORS
330
57A
102
}
330
57A
100
DictionaryVariables
280
     0
  1
1
  0
DICTIONARY
  5
5A2
330
3D
100
AcDbDictionary
280
     1
281
     1
  3
ACAD_XREC_ROUNDTRIP
360
5A3
  0
DICTIONARY
  5
5A0
330
3C
100
AcDbDictionary
280
     1
281
     1
  3
ACAD_XREC_ROUNDTRIP
360
5A1
  0
DICTIONARY
  5
5A4
330
3E
100
AcDbDictionary
280
     1
281
     1
  3
ACAD_XREC_ROUNDTRIP
360
5A5
  0
DICTIONARY
  5
588
330
2F
100
AcDbDictionary
280
     1
281
     1
  3
ACAD_XREC_ROUNDTRIP
360
589
  0
DICTIONARY
  5
58C
330
31
100
AcDbDictionary
280
     1
281
     1
  3
ACAD_XREC_ROUNDTRIP
360
58D
  0
DICTIONARY
  5
58A
330
30
100
AcDbDictionary
280
     1
281
     1
  3
ACAD_XREC_ROUNDTRIP
360
58B
  0
DICTIONARY
  5
58E
330
32
100
AcDbDictionary
280
     1
281
     1
  3
ACAD_XREC_ROUNDTRIP
360
58F
  0
DICTIONARY
  5
596
330
36
100
AcDbDictionary
280
     1
281
     1
  3
ACAD_XREC_ROUNDTRIP
360
597
  0
DICTIONARY
  5
59E
330
3A
100
AcDbDictionary
280
     1
281
     1
  3
ACAD_XREC_ROUNDTRIP
360
59F
  0
DICTIONARY
  5
592
330
34
100
AcDbDictionary
280
     1
281
     1
  3
ACAD_XREC_ROUNDTRIP
360
593
  0
DICTIONARY
  5
594
330
35
100
AcDbDictionary
280
     1
281
     1
  3
ACAD_XREC_ROUNDTRIP
360
595
  0
DICTIONARY
  5
59C
330
39
100
AcDbDictionary
280
     1
281
     1
  3
ACAD_XREC_ROUNDTRIP
360
59D
  0
DICTIONARY
  5
580
330
2B
100
AcDbDictionary
280
     1
281
     1
  3
ACAD_XREC_ROUNDTRIP
360
581
  0
DICTIONARY
  5
582
330
2C
100
AcDbDictionary
280
     1
281
     1
  3
ACAD_XREC_ROUNDTRIP
360
583
  0
DICTIONARY
  5
584
330
2D
100
AcDbDictionary
280
     1
281
     1
  3
ACAD_XREC_ROUNDTRIP
360
585
  0
DICTIONARY
  5
586
330
2E
100
AcDbDictionary
280
     1
281
     1
  3
ACAD_XREC_ROUNDTRIP
360
587
  0
DICTIONARY
  5
59A
330
38
100
AcDbDictionary
280
     1
281
     1
  3
ACAD_XREC_ROUNDTRIP
360
59B
  0
DICTIONARY
  5
590
330
33
100
AcDbDictionary
280
     1
281
     1
  3
ACAD_XREC_ROUNDTRIP
360
591
  0
DICTIONARY
  5
598
330
37
100
AcDbDictionary
280
     1
281
     1
  3
ACAD_XREC_ROUNDTRIP
360
599
  0
XRECORD
  5
5A3
102
{ACAD_REACTORS
330
5A2
102
}
330
5A2
100
AcDbXrecord
280
     1
102
MATERIAL
148
0.0
149
0.0
149
0.0
 93
        0
 94
      127
282
     0
 72
     1
 77
     1
171
     1
175
     1
179
     1
273
     0
  0
XRECORD
  5
5A1
102
{ACAD_REACTORS
330
5A0
102
}
330
5A0
100
AcDbXrecord
280
     1
102
MATERIAL
148
0.0
149
0.0
149
0.0
 93
        0
 94
      127
282
     0
 72
     1
 77
     1
171
     1
175
     1
179
     1
273
     0
  0
XRECORD
  5
5A5
102
{ACAD_REACTORS
330
5A4
102
}
330
5A4
100
AcDbXrecord
280
     1
102
MATERIAL
148
0.0
149
0.0
149
0.0
 93
        0
 94
      127
282
     0
 72
     1
 77
     1
171
     1
175
     1
179
     1
273
     0
  0
XRECORD
  5
589
102
{ACAD_REACTORS
330
588
102
}
330
588
100
AcDbXrecord
280
     1
102
RTVSPropertyOp0
 70
     1
102
RTVSPropertyOp1
 70
     1
102
RTVSPropertyOp2
 70
     1
102
RTVSPropertyOp3
 70
     1
102
RTVSPropertyOp4
 70
     1
102
RTVSPropertyOp5
 70
     1
102
RTVSPropertyOp6
 70
     1
102
RTVSPropertyOp7
 70
     1
102
RTVSPropertyOp8
 70
     1
102
RTVSPropertyOp9
 70
     1
102
RTVSPropertyOp10
 70
     1
102
RTVSPropertyOp11
 70
     1
102
RTVSPropertyOp12
 70
     1
102
RTVSPropertyOp13
 70
     1
102
RTVSPropertyOp14
 70
     1
102
RTVSPropertyOp15
 70
     1
102
RTVSPropertyOp16
 70
     1
102
RTVSPropertyOp17
 70
     1
102
RTVSPropertyOp18
 70
     1
102
RTVSPropertyOp19
 70
     1
102
RTVSPropertyOp20
 70
     1
102
RTVSPropertyOp21
 70
     1
102
RTVSPropertyOp22
 70
     1
102
RTVSPropertyOp23
 70
     1
102
RTVSPropertyOp24
 70
     1
102
RTVSPropertyOp25
 70
     1
102
RTVSPropertyOp26
 70
     1
102
RTVSPropertyOp27
 70
     1
  0
XRECORD
  5
58D
102
{ACAD_REACTORS
330
58C
102
}
330
58C
100
AcDbXrecord
280
     1
102
RTVSPropertyOp0
 70
     1
102
RTVSPropertyOp1
 70
     1
102
RTVSPropertyOp2
 70
     1
102
RTVSPropertyOp3
 70
     1
102
RTVSPropertyOp4
 70
     1
102
RTVSPropertyOp5
 70
     1
102
RTVSPropertyOp6
 70
     1
102
RTVSPropertyOp7
 70
     1
102
RTVSPropertyOp8
 70
     1
102
RTVSPropertyOp9
 70
     1
102
RTVSPropertyOp10
 70
     1
102
RTVSPropertyOp11
 70
     1
102
RTVSPropertyOp12
 70
     1
102
RTVSPropertyOp13
 70
     1
102
RTVSPropertyOp14
 70
     1
102
RTVSPropertyOp15
 70
     1
102
RTVSPropertyOp16
 70
     1
102
RTVSPropertyOp17
 70
     1
102
RTVSPropertyOp18
 70
     1
102
RTVSPropertyOp19
 70
     1
102
RTVSPropertyOp20
 70
     1
102
RTVSPropertyOp21
 70
     1
102
RTVSPropertyOp22
 70
     1
102
RTVSPropertyOp23
 70
     1
102
RTVSPropertyOp24
 70
     1
102
RTVSPropertyOp25
 70
     1
102
RTVSPropertyOp26
 70
     1
102
RTVSPropertyOp27
 70
     1
  0
XRECORD
  5
58B
102
{ACAD_REACTORS
330
58A
102
}
330
58A
100
AcDbXrecord
280
     1
102
RTVSPropertyOp0
 70
     1
102
RTVSPropertyOp1
 70
     1
102
RTVSPropertyOp2
 70
     1
102
RTVSPropertyOp3
 70
     1
102
RTVSPropertyOp4
 70
     1
102
RTVSPropertyOp5
 70
     1
102
RTVSPropertyOp6
 70
     1
102
RTVSPropertyOp7
 70
     1
102
RTVSPropertyOp8
 70
     1
102
RTVSPropertyOp9
 70
     1
102
RTVSPropertyOp10
 70
     1
102
RTVSPropertyOp11
 70
     1
102
RTVSPropertyOp12
 70
     1
102
RTVSPropertyOp13
 70
     1
102
RTVSPropertyOp14
 70
     1
102
RTVSPropertyOp15
 70
     1
102
RTVSPropertyOp16
 70
     1
102
RTVSPropertyOp17
 70
     1
102
RTVSPropertyOp18
 70
     1
102
RTVSPropertyOp19
 70
     1
102
RTVSPropertyOp20
 70
     1
102
RTVSPropertyOp21
 70
     1
102
RTVSPropertyOp22
 70
     1
102
RTVSPropertyOp23
 70
     1
102
RTVSPropertyOp24
 70
     1
102
RTVSPropertyOp25
 70
     1
102
RTVSPropertyOp26
 70
     1
102
RTVSPropertyOp27
 70
     1
  0
XRECORD
  5
58F
102
{ACAD_REACTORS
330
58E
102
}
330
58E
100
AcDbXrecord
280
     1
102
RTVSPropertyOp0
 70
     1
102
RTVSPropertyOp1
 70
     1
102
RTVSPropertyOp2
 70
     1
102
RTVSPropertyOp3
 70
     1
102
RTVSPropertyOp4
 70
     1
102
RTVSPropertyOp5
 70
     1
102
RTVSPropertyOp6
 70
     1
102
RTVSPropertyOp7
 70
     1
102
RTVSPropertyOp8
 70
     1
102
RTVSPropertyOp9
 70
     1
102
RTVSPropertyOp10
 70
     1
102
RTVSPropertyOp11
 70
     1
102
RTVSPropertyOp12
 70
     1
102
RTVSPropertyOp13
 70
     1
102
RTVSPropertyOp14
 70
     1
102
RTVSPropertyOp15
 70
     1
102
RTVSPropertyOp16
 70
     1
102
RTVSPropertyOp17
 70
     1
102
RTVSPropertyOp18
 70
     1
102
RTVSPropertyOp19
 70
     1
102
RTVSPropertyOp20
 70
     1
102
RTVSPropertyOp21
 70
     1
102
RTVSPropertyOp22
 70
     1
102
RTVSPropertyOp23
 70
     1
102
RTVSPropertyOp24
 70
     1
102
RTVSPropertyOp25
 70
     1
102
RTVSPropertyOp26
 70
     1
102
RTVSPropertyOp27
 70
     1
  0
XRECORD
  5
597
102
{ACAD_REACTORS
330
596
102
}
330
596
100
AcDbXrecord
280
     1
102
RTVSPropertyOp0
 70
     1
102
RTVSPropertyOp1
 70
     1
102
RTVSPropertyOp2
 70
     1
102
RTVSPropertyOp3
 70
     1
102
RTVSPropertyOp4
 70
     1
102
RTVSPropertyOp5
 70
     1
102
RTVSPropertyOp6
 70
     1
102
RTVSPropertyOp7
 70
     1
102
RTVSPropertyOp8
 70
     1
102
RTVSPropertyOp9
 70
     1
102
RTVSPropertyOp10
 70
     1
102
RTVSPropertyOp11
 70
     1
102
RTVSPropertyOp12
 70
     1
102
RTVSPropertyOp13
 70
     1
102
RTVSPropertyOp14
 70
     1
102
RTVSPropertyOp15
 70
     1
102
RTVSPropertyOp16
 70
     1
102
RTVSPropertyOp17
 70
     1
102
RTVSPropertyOp18
 70
     1
102
RTVSPropertyOp19
 70
     1
102
RTVSPropertyOp20
 70
     1
102
RTVSPropertyOp21
 70
     1
102
RTVSPropertyOp22
 70
     1
102
RTVSPropertyOp23
 70
     1
102
RTVSPropertyOp24
 70
     1
102
RTVSPropertyOp25
 70
     1
102
RTVSPropertyOp26
 70
     1
102
RTVSPropertyOp27
 70
     1
  0
XRECORD
  5
59F
102
{ACAD_REACTORS
330
59E
102
}
330
59E
100
AcDbXrecord
280
     1
102
RTVSPropertyOp0
 70
     1
102
RTVSPropertyOp1
 70
     1
102
RTVSPropertyOp2
 70
     1
102
RTVSPropertyOp3
 70
     1
102
RTVSPropertyOp4
 70
     1
102
RTVSPropertyOp5
 70
     1
102
RTVSPropertyOp6
 70
     1
102
RTVSPropertyOp7
 70
     1
102
RTVSPropertyOp8
 70
     1
102
RTVSPropertyOp9
 70
     1
102
RTVSPropertyOp10
 70
     1
102
RTVSPropertyOp11
 70
     1
102
RTVSPropertyOp12
 70
     1
102
RTVSPropertyOp13
 70
     1
102
RTVSPropertyOp14
 70
     1
102
RTVSPropertyOp15
 70
     1
102
RTVSPropertyOp16
 70
     1
102
RTVSPropertyOp17
 70
     1
102
RTVSPropertyOp18
 70
     1
102
RTVSPropertyOp19
 70
     1
102
RTVSPropertyOp20
 70
     1
102
RTVSPropertyOp21
 70
     1
102
RTVSPropertyOp22
 70
     1
102
RTVSPropertyOp23
 70
     1
102
RTVSPropertyOp24
 70
     1
102
RTVSPropertyOp25
 70
     1
102
RTVSPropertyOp26
 70
     1
102
RTVSPropertyOp27
 70
     1
  0
XRECORD
  5
593
102
{ACAD_REACTORS
330
592
102
}
330
592
100
AcDbXrecord
280
     1
102
RTVSPropertyOp0
 70
     1
102
RTVSPropertyOp1
 70
     1
102
RTVSPropertyOp2
 70
     1
102
RTVSPropertyOp3
 70
     1
102
RTVSPropertyOp4
 70
     1
102
RTVSPropertyOp5
 70
     1
102
RTVSPropertyOp6
 70
     1
102
RTVSPropertyOp7
 70
     1
102
RTVSPropertyOp8
 70
     1
102
RTVSPropertyOp9
 70
     1
102
RTVSPropertyOp10
 70
     1
102
RTVSPropertyOp11
 70
     1
102
RTVSPropertyOp12
 70
     1
102
RTVSPropertyOp13
 70
     1
102
RTVSPropertyOp14
 70
     1
102
RTVSPropertyOp15
 70
     1
102
RTVSPropertyOp16
 70
     1
102
RTVSPropertyOp17
 70
     1
102
RTVSPropertyOp18
 70
     1
102
RTVSPropertyOp19
 70
     1
102
RTVSPropertyOp20
 70
     1
102
RTVSPropertyOp21
 70
     1
102
RTVSPropertyOp22
 70
     1
102
RTVSPropertyOp23
 70
     1
102
RTVSPropertyOp24
 70
     1
102
RTVSPropertyOp25
 70
     1
102
RTVSPropertyOp26
 70
     1
102
RTVSPropertyOp27
 70
     1
  0
XRECORD
  5
595
102
{ACAD_REACTORS
330
594
102
}
330
594
100
AcDbXrecord
280
     1
102
RTVSPropertyOp0
 70
     1
102
RTVSPropertyOp1
 70
     1
102
RTVSPropertyOp2
 70
     1
102
RTVSPropertyOp3
 70
     1
102
RTVSPropertyOp4
 70
     1
102
RTVSPropertyOp5
 70
     1
102
RTVSPropertyOp6
 70
     1
102
RTVSPropertyOp7
 70
     1
102
RTVSPropertyOp8
 70
     1
102
RTVSPropertyOp9
 70
     1
102
RTVSPropertyOp10
 70
     1
102
RTVSPropertyOp11
 70
     1
102
RTVSPropertyOp12
 70
     1
102
RTVSPropertyOp13
 70
     1
102
RTVSPropertyOp14
 70
     1
102
RTVSPropertyOp15
 70
     1
102
RTVSPropertyOp16
 70
     1
102
RTVSPropertyOp17
 70
     1
102
RTVSPropertyOp18
 70
     1
102
RTVSPropertyOp19
 70
     1
102
RTVSPropertyOp20
 70
     1
102
RTVSPropertyOp21
 70
     1
102
RTVSPropertyOp22
 70
     1
102
RTVSPropertyOp23
 70
     1
102
RTVSPropertyOp24
 70
     1
102
RTVSPropertyOp25
 70
     1
102
RTVSPropertyOp26
 70
     1
102
RTVSPropertyOp27
 70
     1
  0
XRECORD
  5
59D
102
{ACAD_REACTORS
330
59C
102
}
330
59C
100
AcDbXrecord
280
     1
102
RTVSPropertyOp0
 70
     1
102
RTVSPropertyOp1
 70
     1
102
RTVSPropertyOp2
 70
     1
102
RTVSPropertyOp3
 70
     1
102
RTVSPropertyOp4
 70
     1
102
RTVSPropertyOp5
 70
     1
102
RTVSPropertyOp6
 70
     1
102
RTVSPropertyOp7
 70
     1
102
RTVSPropertyOp8
 70
     1
102
RTVSPropertyOp9
 70
     1
102
RTVSPropertyOp10
 70
     1
102
RTVSPropertyOp11
 70
     1
102
RTVSPropertyOp12
 70
     1
102
RTVSPropertyOp13
 70
     1
102
RTVSPropertyOp14
 70
     1
102
RTVSPropertyOp15
 70
     1
102
RTVSPropertyOp16
 70
     1
102
RTVSPropertyOp17
 70
     1
102
RTVSPropertyOp18
 70
     1
102
RTVSPropertyOp19
 70
     1
102
RTVSPropertyOp20
 70
     1
102
RTVSPropertyOp21
 70
     1
102
RTVSPropertyOp22
 70
     1
102
RTVSPropertyOp23
 70
     1
102
RTVSPropertyOp24
 70
     1
102
RTVSPropertyOp25
 70
     1
102
RTVSPropertyOp26
 70
     1
102
RTVSPropertyOp27
 70
     1
  0
XRECORD
  5
581
102
{ACAD_REACTORS
330
580
102
}
330
580
100
AcDbXrecord
280
     1
102
RTVSPropertyOp0
 70
     1
102
RTVSPropertyOp1
 70
     1
102
RTVSPropertyOp2
 70
     1
102
RTVSPropertyOp3
 70
     1
102
RTVSPropertyOp4
 70
     1
102
RTVSPropertyOp5
 70
     1
102
RTVSPropertyOp6
 70
     1
102
RTVSPropertyOp7
 70
     1
102
RTVSPropertyOp8
 70
     1
102
RTVSPropertyOp9
 70
     1
102
RTVSPropertyOp10
 70
     1
102
RTVSPropertyOp11
 70
     1
102
RTVSPropertyOp12
 70
     1
102
RTVSPropertyOp13
 70
     1
102
RTVSPropertyOp14
 70
     1
102
RTVSPropertyOp15
 70
     1
102
RTVSPropertyOp16
 70
     1
102
RTVSPropertyOp17
 70
     1
102
RTVSPropertyOp18
 70
     1
102
RTVSPropertyOp19
 70
     1
102
RTVSPropertyOp20
 70
     1
102
RTVSPropertyOp21
 70
     1
102
RTVSPropertyOp22
 70
     1
102
RTVSPropertyOp23
 70
     1
102
RTVSPropertyOp24
 70
     1
102
RTVSPropertyOp25
 70
     1
102
RTVSPropertyOp26
 70
     1
102
RTVSPropertyOp27
 70
     1
  0
XRECORD
  5
583
102
{ACAD_REACTORS
330
582
102
}
330
582
100
AcDbXrecord
280
     1
102
RTVSPropertyOp0
 70
     1
102
RTVSPropertyOp1
 70
     1
102
RTVSPropertyOp2
 70
     1
102
RTVSPropertyOp3
 70
     1
102
RTVSPropertyOp4
 70
     1
102
RTVSPropertyOp5
 70
     1
102
RTVSPropertyOp6
 70
     1
102
RTVSPropertyOp7
 70
     1
102
RTVSPropertyOp8
 70
     1
102
RTVSPropertyOp9
 70
     1
102
RTVSPropertyOp10
 70
     1
102
RTVSPropertyOp11
 70
     1
102
RTVSPropertyOp12
 70
     1
102
RTVSPropertyOp13
 70
     1
102
RTVSPropertyOp14
 70
     1
102
RTVSPropertyOp15
 70
     1
102
RTVSPropertyOp16
 70
     1
102
RTVSPropertyOp17
 70
     1
102
RTVSPropertyOp18
 70
     1
102
RTVSPropertyOp19
 70
     1
102
RTVSPropertyOp20
 70
     1
102
RTVSPropertyOp21
 70
     1
102
RTVSPropertyOp22
 70
     1
102
RTVSPropertyOp23
 70
     1
102
RTVSPropertyOp24
 70
     1
102
RTVSPropertyOp25
 70
     1
102
RTVSPropertyOp26
 70
     1
102
RTVSPropertyOp27
 70
     1
  0
XRECORD
  5
585
102
{ACAD_REACTORS
330
584
102
}
330
584
100
AcDbXrecord
280
     1
102
RTVSPropertyOp0
 70
     1
102
RTVSPropertyOp1
 70
     1
102
RTVSPropertyOp2
 70
     1
102
RTVSPropertyOp3
 70
     1
102
RTVSPropertyOp4
 70
     1
102
RTVSPropertyOp5
 70
     1
102
RTVSPropertyOp6
 70
     1
102
RTVSPropertyOp7
 70
     1
102
RTVSPropertyOp8
 70
     1
102
RTVSPropertyOp9
 70
     1
102
RTVSPropertyOp10
 70
     1
102
RTVSPropertyOp11
 70
     1
102
RTVSPropertyOp12
 70
     1
102
RTVSPropertyOp13
 70
     1
102
RTVSPropertyOp14
 70
     1
102
RTVSPropertyOp15
 70
     1
102
RTVSPropertyOp16
 70
     1
102
RTVSPropertyOp17
 70
     1
102
RTVSPropertyOp18
 70
     1
102
RTVSPropertyOp19
 70
     1
102
RTVSPropertyOp20
 70
     1
102
RTVSPropertyOp21
 70
     1
102
RTVSPropertyOp22
 70
     1
102
RTVSPropertyOp23
 70
     1
102
RTVSPropertyOp24
 70
     1
102
RTVSPropertyOp25
 70
     1
102
RTVSPropertyOp26
 70
     1
102
RTVSPropertyOp27
 70
     1
  0
XRECORD
  5
587
102
{ACAD_REACTORS
330
586
102
}
330
586
100
AcDbXrecord
280
     1
102
RTVSPropertyOp0
 70
     1
102
RTVSPropertyOp1
 70
     1
102
RTVSPropertyOp2
 70
     1
102
RTVSPropertyOp3
 70
     1
102
RTVSPropertyOp4
 70
     1
102
RTVSPropertyOp5
 70
     1
102
RTVSPropertyOp6
 70
     1
102
RTVSPropertyOp7
 70
     1
102
RTVSPropertyOp8
 70
     1
102
RTVSPropertyOp9
 70
     1
102
RTVSPropertyOp10
 70
     1
102
RTVSPropertyOp11
 70
     1
102
RTVSPropertyOp12
 70
     1
102
RTVSPropertyOp13
 70
     1
102
RTVSPropertyOp14
 70
     1
102
RTVSPropertyOp15
 70
     1
102
RTVSPropertyOp16
 70
     1
102
RTVSPropertyOp17
 70
     1
102
RTVSPropertyOp18
 70
     1
102
RTVSPropertyOp19
 70
     1
102
RTVSPropertyOp20
 70
     1
102
RTVSPropertyOp21
 70
     1
102
RTVSPropertyOp22
 70
     1
102
RTVSPropertyOp23
 70
     1
102
RTVSPropertyOp24
 70
     1
102
RTVSPropertyOp25
 70
     1
102
RTVSPropertyOp26
 70
     1
102
RTVSPropertyOp27
 70
     1
  0
XRECORD
  5
59B
102
{ACAD_REACTORS
330
59A
102
}
330
59A
100
AcDbXrecord
280
     1
102
RTVSPropertyOp0
 70
     1
102
RTVSPropertyOp1
 70
     1
102
RTVSPropertyOp2
 70
     1
102
RTVSPropertyOp3
 70
     1
102
RTVSPropertyOp4
 70
     1
102
RTVSPropertyOp5
 70
     1
102
RTVSPropertyOp6
 70
     1
102
RTVSPropertyOp7
 70
     1
102
RTVSPropertyOp8
 70
     1
102
RTVSPropertyOp9
 70
     1
102
RTVSPropertyOp10
 70
     1
102
RTVSPropertyOp11
 70
     1
102
RTVSPropertyOp12
 70
     1
102
RTVSPropertyOp13
 70
     1
102
RTVSPropertyOp14
 70
     1
102
RTVSPropertyOp15
 70
     1
102
RTVSPropertyOp16
 70
     1
102
RTVSPropertyOp17
 70
     1
102
RTVSPropertyOp18
 70
     1
102
RTVSPropertyOp19
 70
     1
102
RTVSPropertyOp20
 70
     1
102
RTVSPropertyOp21
 70
     1
102
RTVSPropertyOp22
 70
     1
102
RTVSPropertyOp23
 70
     1
102
RTVSPropertyOp24
 70
     1
102
RTVSPropertyOp25
 70
     1
102
RTVSPropertyOp26
 70
     1
102
RTVSPropertyOp27
 70
     1
  0
XRECORD
  5
591
102
{ACAD_REACTORS
330
590
102
}
330
590
100
AcDbXrecord
280
     1
102
RTVSPropertyOp0
 70
     1
102
RTVSPropertyOp1
 70
     1
102
RTVSPropertyOp2
 70
     1
102
RTVSPropertyOp3
 70
     1
102
RTVSPropertyOp4
 70
     1
102
RTVSPropertyOp5
 70
     1
102
RTVSPropertyOp6
 70
     1
102
RTVSPropertyOp7
 70
     1
102
RTVSPropertyOp8
 70
     1
102
RTVSPropertyOp9
 70
     1
102
RTVSPropertyOp10
 70
     1
102
RTVSPropertyOp11
 70
     1
102
RTVSPropertyOp12
 70
     1
102
RTVSPropertyOp13
 70
     1
102
RTVSPropertyOp14
 70
     1
102
RTVSPropertyOp15
 70
     1
102
RTVSPropertyOp16
 70
     1
102
RTVSPropertyOp17
 70
     1
102
RTVSPropertyOp18
 70
     1
102
RTVSPropertyOp19
 70
     1
102
RTVSPropertyOp20
 70
     1
102
RTVSPropertyOp21
 70
     1
102
RTVSPropertyOp22
 70
     1
102
RTVSPropertyOp23
 70
     1
102
RTVSPropertyOp24
 70
     1
102
RTVSPropertyOp25
 70
     1
102
RTVSPropertyOp26
 70
     1
102
RTVSPropertyOp27
 70
     1
  0
XRECORD
  5
599
102
{ACAD_REACTORS
330
598
102
}
330
598
100
AcDbXrecord
280
     1
102
RTVSPropertyOp0
 70
     1
102
RTVSPropertyOp1
 70
     1
102
RTVSPropertyOp2
 70
     1
102
RTVSPropertyOp3
 70
     1
102
RTVSPropertyOp4
 70
     1
102
RTVSPropertyOp5
 70
     1
102
RTVSPropertyOp6
 70
     1
102
RTVSPropertyOp7
 70
     1
102
RTVSPropertyOp8
 70
     1
102
RTVSPropertyOp9
 70
     1
102
RTVSPropertyOp10
 70
     1
102
RTVSPropertyOp11
 70
     1
102
RTVSPropertyOp12
 70
     1
102
RTVSPropertyOp13
 70
     1
102
RTVSPropertyOp14
 70
     1
102
RTVSPropertyOp15
 70
     1
102
RTVSPropertyOp16
 70
     1
102
RTVSPropertyOp17
 70
     1
102
RTVSPropertyOp18
 70
     1
102
RTVSPropertyOp19
 70
     1
102
RTVSPropertyOp20
 70
     1
102
RTVSPropertyOp21
 70
     1
102
RTVSPropertyOp22
 70
     1
102
RTVSPropertyOp23
 70
     1
102
RTVSPropertyOp24
 70
     1
102
RTVSPropertyOp25
 70
     1
102
RTVSPropertyOp26
 70
     1
102
RTVSPropertyOp27
 70
     1
  0
ENDSEC
  0
EOF
