  0
SECTION
  2
HEADER
  9
$ACADVER
  1
AC1015
  9
$ACADMAINTVER
 70
     6
  9
$DWGCODEPAGE
  3
ANSI_932
  9
$INSBASE
 10
0.0
 20
0.0
 30
0.0
  9
$EXTMIN
 10
-536.4000052809715
 20
-362.9000034928322
 30
0.0
  9
$EXTMAX
 10
526.800010561943
 20
340.3000069856644
 30
0.0
  9
$LIMMIN
 10
-182.0
 20
-128.5
  9
$LIMMAX
 10
182.0
 20
128.5
  9
$ORTHOMODE
 70
     0
  9
$REGENMODE
 70
     1
  9
$FILLMODE
 70
     1
  9
$QTEXTMODE
 70
     0
  9
$MIRRTEXT
 70
     1
  9
$LTSCALE
 40
0.25
  9
$ATTMODE
 70
     1
  9
$TEXTSIZE
 40
0.2
  9
$TRACEWID
 40
0.05
  9
$TEXTSTYLE
  7
Standard
  9
$CLAYER
  8
0
  9
$CELTYPE
  6
ByLayer
  9
$CECOLOR
 62
   256
  9
$CELTSCALE
 40
1.0
  9
$DISPSILH
 70
     0
  9
$DIMSCALE
 40
1.0
  9
$DIMASZ
 40
3.000001882570243
  9
$DIMEXO
 40
1.0
  9
$DIMDLI
 40
10.0
  9
$DIMRND
 40
0.0
  9
$DIMDLE
 40
0.0
  9
$DIMEXE
 40
1.0
  9
$DIMTP
 40
0.0
  9
$DIMTM
 40
0.0
  9
$DIMTXT
 40
3.0
  9
$DIMCEN
 40
0.0
  9
$DIMTSZ
 40
0.0
  9
$DIMTOL
 70
     0
  9
$DIMLIM
 70
     0
  9
$DIMTIH
 70
     0
  9
$DIMTOH
 70
     0
  9
$DIMSE1
 70
     0
  9
$DIMSE2
 70
     0
  9
$DIMTAD
 70
     1
  9
$DIMZIN
 70
     8
  9
$DIMBLK
  1

  9
$DIMASO
 70
     1
  9
$DIMSHO
 70
     1
  9
$DIMPOST
  1

  9
$DIMAPOST
  1

  9
$DIMALT
 70
     0
  9
$DIMALTD
 70
     2
  9
$DIMALTF
 40
25.4
  9
$DIMLFAC
 40
1.0
  9
$DIMTOFL
 70
     0
  9
$DIMTVP
 40
0.0
  9
$DIMTIX
 70
     0
  9
$DIMSOXD
 70
     0
  9
$DIMSAH
 70
     0
  9
$DIMBLK1
  1

  9
$DIMBLK2
  1

  9
$DIMSTYLE
  2
Standard
  9
$DIMCLRD
 70
     0
  9
$DIMCLRE
 70
     0
  9
$DIMCLRT
 70
     0
  9
$DIMTFAC
 40
0.65
  9
$DIMGAP
 40
0.09
  9
$DIMJUST
 70
     0
  9
$DIMSD1
 70
     0
  9
$DIMSD2
 70
     0
  9
$DIMTOLJ
 70
     0
  9
$DIMTZIN
 70
     0
  9
$DIMALTZ
 70
     0
  9
$DIMALTTZ
 70
     0
  9
$DIMUPT
 70
     0
  9
$DIMDEC
 70
     2
  9
$DIMTDEC
 70
     2
  9
$DIMALTU
 70
     2
  9
$DIMALTTD
 70
     2
  9
$DIMTXSTY
  7
Standard
  9
$DIMAUNIT
 70
     0
  9
$DIMADEC
 70
     2
  9
$DIMALTRND
 40
0.0
  9
$DIMAZIN
 70
     2
  9
$DIMDSEP
 70
    46
  9
$DIMATFIT
 70
     3
  9
$DIMFRAC
 70
     0
  9
$DIMLDRBLK
  1

  9
$DIMLUNIT
 70
     2
  9
$DIMLWD
 70
    -2
  9
$DIMLWE
 70
    -2
  9
$DIMTMOVE
 70
     0
  9
$LUNITS
 70
     2
  9
$LUPREC
 70
     4
  9
$SKETCHINC
 40
0.1
  9
$FILLETRAD
 40
0.5
  9
$AUNITS
 70
     0
  9
$AUPREC
 70
     0
  9
$MENU
  1
.
  9
$ELEVATION
 40
0.0
  9
$PELEVATION
 40
0.0
  9
$THICKNESS
 40
0.0
  9
$LIMCHECK
 70
     0
  9
$CHAMFERA
 40
0.5
  9
$CHAMFERB
 40
0.5
  9
$CHAMFERC
 40
1.0
  9
$CHAMFERD
 40
0.0
  9
$SKPOLY
 70
     0
  9
$TDCREATE
 40
2459607.015451389
  9
$TDUCREATE
 40
2459606.640451389
  9
$TDUPDATE
 40
2459607.015451401
  9
$TDUUPDATE
 40
2459606.640451401
  9
$TDINDWG
 40
0.0000000116
  9
$TDUSRTIMER
 40
0.0000000116
  9
$USRTIMER
 70
     1
  9
$ANGBASE
 50
0.0
  9
$ANGDIR
 70
     0
  9
$PDMODE
 70
     0
  9
$PDSIZE
 40
1.0
  9
$PLINEWID
 40
0.0
  9
$SPLFRAME
 70
     0
  9
$SPLINETYPE
 70
     6
  9
$SPLINESEGS
 70
     8
  9
$HANDSEED
  5
5F8
  9
$SURFTAB1
 70
     6
  9
$SURFTAB2
 70
     6
  9
$SURFTYPE
 70
     6
  9
$SURFU
 70
     6
  9
$SURFV
 70
     6
  9
$UCSBASE
  2

  9
$UCSNAME
  2

  9
$UCSORG
 10
0.0
 20
0.0
 30
0.0
  9
$UCSXDIR
 10
1.0
 20
0.0
 30
0.0
  9
$UCSYDIR
 10
0.0
 20
1.0
 30
0.0
  9
$UCSORTHOREF
  2

  9
$UCSORTHOVIEW
 70
     0
  9
$UCSORGTOP
 10
0.0
 20
0.0
 30
0.0
  9
$UCSORGBOTTOM
 10
0.0
 20
0.0
 30
0.0
  9
$UCSORGLEFT
 10
0.0
 20
0.0
 30
0.0
  9
$UCSORGRIGHT
 10
0.0
 20
0.0
 30
0.0
  9
$UCSORGFRONT
 10
0.0
 20
0.0
 30
0.0
  9
$UCSORGBACK
 10
0.0
 20
0.0
 30
0.0
  9
$PUCSBASE
  2

  9
$PUCSNAME
  2

  9
$PUCSORG
 10
0.0
 20
0.0
 30
0.0
  9
$PUCSXDIR
 10
1.0
 20
0.0
 30
0.0
  9
$PUCSYDIR
 10
0.0
 20
1.0
 30
0.0
  9
$PUCSORTHOREF
  2

  9
$PUCSORTHOVIEW
 70
     0
  9
$PUCSORGTOP
 10
0.0
 20
0.0
 30
0.0
  9
$PUCSORGBOTTOM
 10
0.0
 20
0.0
 30
0.0
  9
$PUCSORGLEFT
 10
0.0
 20
0.0
 30
0.0
  9
$PUCSORGRIGHT
 10
0.0
 20
0.0
 30
0.0
  9
$PUCSORGFRONT
 10
0.0
 20
0.0
 30
0.0
  9
$PUCSORGBACK
 10
0.0
 20
0.0
 30
0.0
  9
$USERI1
 70
     0
  9
$USERI2
 70
     0
  9
$USERI3
 70
     0
  9
$USERI4
 70
     0
  9
$USERI5
 70
     0
  9
$USERR1
 40
0.0
  9
$USERR2
 40
0.0
  9
$USERR3
 40
0.0
  9
$USERR4
 40
0.0
  9
$USERR5
 40
0.0
  9
$WORLDVIEW
 70
     1
  9
$SHADEDGE
 70
     3
  9
$SHADEDIF
 70
    70
  9
$TILEMODE
 70
     1
  9
$MAXACTVP
 70
    64
  9
$PINSBASE
 10
0.0
 20
0.0
 30
0.0
  9
$PLIMCHECK
 70
     0
  9
$PEXTMIN
 10
1.000000000000000E+20
 20
1.000000000000000E+20
 30
1.000000000000000E+20
  9
$PEXTMAX
 10
-1.000000000000000E+20
 20
-1.000000000000000E+20
 30
-1.000000000000000E+20
  9
$PLIMMIN
 10
0.0
 20
0.0
  9
$PLIMMAX
 10
12.0
 20
9.0
  9
$UNITMODE
 70
     0
  9
$VISRETAIN
 70
     0
  9
$PLINEGEN
 70
     1
  9
$PSLTSCALE
 70
     0
  9
$TREEDEPTH
 70
  3020
  9
$CMLSTYLE
  2
Standard
  9
$CMLJUST
 70
     0
  9
$CMLSCALE
 40
1.0
  9
$PROXYGRAPHICS
 70
     0
  9
$MEASUREMENT
 70
     1
  9
$CELWEIGHT
370
    -1
  9
$ENDCAPS
280
     0
  9
$JOINSTYLE
280
     0
  9
$LWDISPLAY
290
     1
  9
$INSUNITS
 70
     4
  9
$HYPERLINKBASE
  1

  9
$STYLESHEET
  1

  9
$XEDIT
290
     1
  9
$CEPSNTYPE
380
     0
  9
$PSTYLEMODE
290
     1
  9
$FINGERPRINTGUID
  2
{8C38678D-AA4B-485D-89BF-67D77300032B}
  9
$VERSIONGUID
  2
{FAEB1C32-E019-11D5-929B-00C0DF256EC4}
  9
$EXTNAMES
290
     1
  9
$PSVPSCALE
 40
0.0
  9
$OLESTARTUP
290
     0
  0
ENDSEC
  0
SECTION
  2
CLASSES
  0
CLASS
  1
ACDBDICTIONARYWDFLT
  2
AcDbDictionaryWithDefault
  3
ObjectDBX Classes
 90
        0
280
     0
281
     0
  0
CLASS
  1
VISUALSTYLE
  2
AcDbVisualStyle
  3
ObjectDBX Classes
 90
     4095
280
     0
281
     0
  0
CLASS
  1
MATERIAL
  2
AcDbMaterial
  3
ObjectDBX Classes
 90
     1153
280
     0
281
     0
  0
CLASS
  1
SCALE
  2
AcDbScale
  3
ObjectDBX Classes
 90
     1153
280
     0
281
     0
  0
CLASS
  1
DICTIONARYVAR
  2
AcDbDictionaryVar
  3
ObjectDBX Classes
 90
        0
280
     0
281
     0
  0
CLASS
  1
ACDBPLACEHOLDER
  2
AcDbPlaceHolder
  3
ObjectDBX Classes
 90
        0
280
     0
281
     0
  0
CLASS
  1
LAYOUT
  2
AcDbLayout
  3
ObjectDBX Classes
 90
        0
280
     0
281
     0
  0
ENDSEC
  0
SECTION
  2
TABLES
  0
TABLE
  2
VPORT
  5
8
330
0
100
AcDbSymbolTable
 70
     1
  0
VPORT
  5
29
330
8
100
AcDbSymbolTableRecord
100
AcDbViewportTableRecord
  2
*Active
 70
     0
 10
0.0
 20
0.0
 11
1.0
 21
1.0
 12
-4.79999735951424
 22
-11.29999825358391
 13
0.0
 23
0.0
 14
0.5
 24
0.5
 15
0.5
 25
0.5
 16
0.0
 26
0.0
 36
1.0
 17
0.0
 27
0.0
 37
0.0
 40
239.0880035626888
 41
1.511945392491467
 42
50.0
 43
0.0
 44
0.0
 50
0.0
 51
0.0
 71
     0
 72
  1000
 73
     1
 74
     1
 75
     0
 76
     0
 77
     0
 78
     0
281
     0
 65
     1
110
0.0
120
0.0
130
0.0
111
1.0
121
0.0
131
0.0
112
0.0
122
1.0
132
0.0
 79
     0
146
0.0
  0
ENDTAB
  0
TABLE
  2
LTYPE
  5
5
330
0
100
AcDbSymbolTable
 70
    53
  0
LTYPE
  5
14
330
5
100
AcDbSymbolTableRecord
100
AcDbLinetypeTableRecord
  2
ByBlock
 70
     0
  3

 72
    65
 73
     0
 40
0.0
  0
LTYPE
  5
15
330
5
100
AcDbSymbolTableRecord
100
AcDbLinetypeTableRecord
  2
ByLayer
 70
     0
  3

 72
    65
 73
     0
 40
0.0
  0
LTYPE
  5
16
330
5
100
AcDbSymbolTableRecord
100
AcDbLinetypeTableRecord
  2
Continuous
 70
     0
  3
Solid line
 72
    65
 73
     0
 40
0.0
  0
LTYPE
  5
40
330
5
100
AcDbSymbolTableRecord
100
AcDbLinetypeTableRecord
  2
HIDDENX2
 70
     0
  3
Hidden (2x) ____ ____ ____ ____ ____ ____ ____ 
 72
    65
 73
     2
 40
19.05
 49
12.7
 74
     0
 49
-6.35
 74
     0
  0
LTYPE
  5
41
330
5
100
AcDbSymbolTableRecord
100
AcDbLinetypeTableRecord
  2
HIDDEN
 70
     0
  3
Hidden __ __ __ __ __ __ __ __ __ __ __ __ __ __
 72
    65
 73
     2
 40
9.524999999999999
 49
6.35
 74
     0
 49
-3.175
 74
     0
  0
LTYPE
  5
42
330
5
100
AcDbSymbolTableRecord
100
AcDbLinetypeTableRecord
  2
HIDDEN2
 70
     0
  3
Hidden (.5x) _ _ _ _ _ _ _ _ _ _ _ _ _ _ _ _ _ 
 72
    65
 73
     2
 40
4.762499999999999
 49
3.175
 74
     0
 49
-1.5875
 74
     0
  0
LTYPE
  5
43
330
5
100
AcDbSymbolTableRecord
100
AcDbLinetypeTableRecord
  2
DASHED
 70
     0
  3
Dashed __ __ __ __ __ __ __ __ __ __ __ __ __ _
 72
    65
 73
     2
 40
19.05
 49
12.7
 74
     0
 49
-6.35
 74
     0
  0
LTYPE
  5
44
330
5
100
AcDbSymbolTableRecord
100
AcDbLinetypeTableRecord
  2
DASHED2
 70
     0
  3
Dashed (.5x) _ _ _ _ _ _ _ _ _ _ _ _ _ _ _ _ _ 
 72
    65
 73
     2
 40
9.524999999999999
 49
6.35
 74
     0
 49
-3.175
 74
     0
  0
LTYPE
  5
45
330
5
100
AcDbSymbolTableRecord
100
AcDbLinetypeTableRecord
  2
DASHEDX2
 70
     0
  3
Dashed (2x) ____  ____  ____  ____  ____  ___
 72
    65
 73
     2
 40
38.09999999999999
 49
25.4
 74
     0
 49
-12.7
 74
     0
  0
LTYPE
  5
46
330
5
100
AcDbSymbolTableRecord
100
AcDbLinetypeTableRecord
  2
DOTX2
 70
     0
  3
Dot (2x) .  .  .  .  .  .  .  .  .  .  .  .  .  .
 72
    65
 73
     2
 40
12.7
 49
0.0
 74
     0
 49
-12.7
 74
     0
  0
LTYPE
  5
47
330
5
100
AcDbSymbolTableRecord
100
AcDbLinetypeTableRecord
  2
DOT
 70
     0
  3
Dot . . . . . . . . . . . . . . . . . . . . . . . .
 72
    65
 73
     2
 40
6.35
 49
0.0
 74
     0
 49
-6.35
 74
     0
  0
LTYPE
  5
48
330
5
100
AcDbSymbolTableRecord
100
AcDbLinetypeTableRecord
  2
DOT2
 70
     0
  3
Dot (.5x) ........................................
 72
    65
 73
     2
 40
3.175
 49
0.0
 74
     0
 49
-3.175
 74
     0
  0
LTYPE
  5
49
330
5
100
AcDbSymbolTableRecord
100
AcDbLinetypeTableRecord
  2
CENTERX2
 70
     0
  3
Center (2x) ________  __  ________  __  _____
 72
    65
 73
     4
 40
101.6
 49
63.5
 74
     0
 49
-12.7
 74
     0
 49
12.7
 74
     0
 49
-12.7
 74
     0
  0
LTYPE
  5
4A
330
5
100
AcDbSymbolTableRecord
100
AcDbLinetypeTableRecord
  2
CENTER
 70
     0
  3
Center ____ _ ____ _ ____ _ ____ _ ____ _ ____
 72
    65
 73
     4
 40
50.8
 49
31.75
 74
     0
 49
-6.35
 74
     0
 49
6.35
 74
     0
 49
-6.35
 74
     0
  0
LTYPE
  5
4B
330
5
100
AcDbSymbolTableRecord
100
AcDbLinetypeTableRecord
  2
CENTER2
 70
     0
  3
Center (.5x) ___ _ ___ _ ___ _ ___ _ ___ _ ___
 72
    65
 73
     4
 40
28.575
 49
19.05
 74
     0
 49
-3.175
 74
     0
 49
3.175
 74
     0
 49
-3.175
 74
     0
  0
LTYPE
  5
4C
330
5
100
AcDbSymbolTableRecord
100
AcDbLinetypeTableRecord
  2
DASHDOTX2
 70
     0
  3
Dash dot (2x) ____  .  ____  .  ____  .  ___
 72
    65
 73
     4
 40
50.8
 49
25.4
 74
     0
 49
-12.7
 74
     0
 49
0.0
 74
     0
 49
-12.7
 74
     0
  0
LTYPE
  5
4D
330
5
100
AcDbSymbolTableRecord
100
AcDbLinetypeTableRecord
  2
DASHDOT
 70
     0
  3
Dash dot __ . __ . __ . __ . __ . __ . __ . __
 72
    65
 73
     4
 40
25.4
 49
12.7
 74
     0
 49
-6.35
 74
     0
 49
0.0
 74
     0
 49
-6.35
 74
     0
  0
LTYPE
  5
4E
330
5
100
AcDbSymbolTableRecord
100
AcDbLinetypeTableRecord
  2
DASHDOT2
 70
     0
  3
Dash dot (.5x) _._._._._._._._._._._._._._._.
 72
    65
 73
     4
 40
12.7
 49
6.35
 74
     0
 49
-3.175
 74
     0
 49
0.0
 74
     0
 49
-3.175
 74
     0
  0
LTYPE
  5
4F
330
5
100
AcDbSymbolTableRecord
100
AcDbLinetypeTableRecord
  2
DIVIDEX2
 70
     0
  3
Divide (2x) ________  .  .  ________  .  .  _
 72
    65
 73
     6
 40
63.5
 49
25.4
 74
     0
 49
-12.7
 74
     0
 49
0.0
 74
     0
 49
-12.7
 74
     0
 49
0.0
 74
     0
 49
-12.7
 74
     0
  0
LTYPE
  5
50
330
5
100
AcDbSymbolTableRecord
100
AcDbLinetypeTableRecord
  2
DIVIDE
 70
     0
  3
Divide ____ . . ____ . . ____ . . ____ . . ____
 72
    65
 73
     6
 40
31.75
 49
12.7
 74
     0
 49
-6.35
 74
     0
 49
0.0
 74
     0
 49
-6.35
 74
     0
 49
0.0
 74
     0
 49
-6.35
 74
     0
  0
LTYPE
  5
51
330
5
100
AcDbSymbolTableRecord
100
AcDbLinetypeTableRecord
  2
DIVIDE2
 70
     0
  3
Divide (.5x) __..__..__..__..__..__..__..__.._
 72
    65
 73
     6
 40
15.875
 49
6.35
 74
     0
 49
-3.175
 74
     0
 49
0.0
 74
     0
 49
-3.175
 74
     0
 49
0.0
 74
     0
 49
-3.175
 74
     0
  0
LTYPE
  5
52
330
5
100
AcDbSymbolTableRecord
100
AcDbLinetypeTableRecord
  2
BORDERX2
 70
     0
  3
Border (2x) ____  ____  .  ____  ____  .  ___
 72
    65
 73
     6
 40
88.89999999999999
 49
25.4
 74
     0
 49
-12.7
 74
     0
 49
25.4
 74
     0
 49
-12.7
 74
     0
 49
0.0
 74
     0
 49
-12.7
 74
     0
  0
LTYPE
  5
53
330
5
100
AcDbSymbolTableRecord
100
AcDbLinetypeTableRecord
  2
BORDER
 70
     0
  3
Border __ __ . __ __ . __ __ . __ __ . __ __ .
 72
    65
 73
     6
 40
44.45
 49
12.7
 74
     0
 49
-6.35
 74
     0
 49
12.7
 74
     0
 49
-6.35
 74
     0
 49
0.0
 74
     0
 49
-6.35
 74
     0
  0
LTYPE
  5
54
330
5
100
AcDbSymbolTableRecord
100
AcDbLinetypeTableRecord
  2
BORDER2
 70
     0
  3
Border (.5x) __.__.__.__.__.__.__.__.__.__.__.
 72
    65
 73
     6
 40
22.225
 49
6.35
 74
     0
 49
-3.175
 74
     0
 49
6.35
 74
     0
 49
-3.175
 74
     0
 49
0.0
 74
     0
 49
-3.175
 74
     0
  0
LTYPE
  5
55
330
5
100
AcDbSymbolTableRecord
100
AcDbLinetypeTableRecord
  2
PHANTOMX2
 70
     0
  3
Phantom (2x) ____________    ____    ____   _
 72
    65
 73
     6
 40
127.0
 49
63.5
 74
     0
 49
-12.7
 74
     0
 49
12.7
 74
     0
 49
-12.7
 74
     0
 49
12.7
 74
     0
 49
-12.7
 74
     0
  0
LTYPE
  5
56
330
5
100
AcDbSymbolTableRecord
100
AcDbLinetypeTableRecord
  2
PHANTOM
 70
     0
  3
Phantom ______  __  __  ______  __  __  ______ 
 72
    65
 73
     6
 40
63.5
 49
31.75
 74
     0
 49
-6.35
 74
     0
 49
6.35
 74
     0
 49
-6.35
 74
     0
 49
6.35
 74
     0
 49
-6.35
 74
     0
  0
LTYPE
  5
57
330
5
100
AcDbSymbolTableRecord
100
AcDbLinetypeTableRecord
  2
PHANTOM2
 70
     0
  3
Phantom (.5x) ___ _ _ ___ _ _ ___ _ _ ___ _ _
 72
    65
 73
     6
 40
31.75
 49
15.875
 74
     0
 49
-3.175
 74
     0
 49
3.175
 74
     0
 49
-3.175
 74
     0
 49
3.175
 74
     0
 49
-3.175
 74
     0
  0
LTYPE
  5
58
330
5
100
AcDbSymbolTableRecord
100
AcDbLinetypeTableRecord
  2
ACAD_ISO06W100
 70
     0
  3
ISO long-dash triple-dot ____ ... ____ ... ____
 72
    65
 73
     8
 40
36.0
 49
24.0
 74
     0
 49
-3.0
 74
     0
 49
0.0
 74
     0
 49
-3.0
 74
     0
 49
0.0
 74
     0
 49
-3.0
 74
     0
 49
0.0
 74
     0
 49
-3.0
 74
     0
  0
LTYPE
  5
59
330
5
100
AcDbSymbolTableRecord
100
AcDbLinetypeTableRecord
  2
ACAD_ISO13W100
 70
     0
  3
ISO double-dash double-dot __ __ . . __ __ . . _
 72
    65
 73
     8
 40
36.0
 49
12.0
 74
     0
 49
-3.0
 74
     0
 49
12.0
 74
     0
 49
-3.0
 74
     0
 49
0.0
 74
     0
 49
-3.0
 74
     0
 49
0.0
 74
     0
 49
-3.0
 74
     0
  0
LTYPE
  5
5A
330
5
100
AcDbSymbolTableRecord
100
AcDbLinetypeTableRecord
  2
ACAD_ISO14W100
 70
     0
  3
ISO dash triple-dot __ . . . __ . . . __ . . . _
 72
    65
 73
     8
 40
24.0
 49
12.0
 74
     0
 49
-3.0
 74
     0
 49
0.0
 74
     0
 49
-3.0
 74
     0
 49
0.0
 74
     0
 49
-3.0
 74
     0
 49
0.0
 74
     0
 49
-3.0
 74
     0
  0
LTYPE
  5
5B
330
5
100
AcDbSymbolTableRecord
100
AcDbLinetypeTableRecord
  2
ACAD_ISO02W100
 70
     0
  3
ISO dash __ __ __ __ __ __ __ __ __ __ __ __ __
 72
    65
 73
     2
 40
15.0
 49
12.0
 74
     0
 49
-3.0
 74
     0
  0
LTYPE
  5
5C
330
5
100
AcDbSymbolTableRecord
100
AcDbLinetypeTableRecord
  2
ACAD_ISO03W100
 70
     0
  3
ISO dash space __    __    __    __    __    __
 72
    65
 73
     2
 40
30.0
 49
12.0
 74
     0
 49
-18.0
 74
     0
  0
LTYPE
  5
5D
330
5
100
AcDbSymbolTableRecord
100
AcDbLinetypeTableRecord
  2
ACAD_ISO04W100
 70
     0
  3
ISO long-dash dot ____ . ____ . ____ . ____ . _
 72
    65
 73
     4
 40
30.0
 49
24.0
 74
     0
 49
-3.0
 74
     0
 49
0.0
 74
     0
 49
-3.0
 74
     0
  0
LTYPE
  5
5E
330
5
100
AcDbSymbolTableRecord
100
AcDbLinetypeTableRecord
  2
ACAD_ISO05W100
 70
     0
  3
ISO long-dash double-dot ____ .. ____ .. ____ . 
 72
    65
 73
     6
 40
33.0
 49
24.0
 74
     0
 49
-3.0
 74
     0
 49
0.0
 74
     0
 49
-3.0
 74
     0
 49
0.0
 74
     0
 49
-3.0
 74
     0
  0
LTYPE
  5
5F
330
5
100
AcDbSymbolTableRecord
100
AcDbLinetypeTableRecord
  2
ACAD_ISO07W100
 70
     0
  3
ISO dot . . . . . . . . . . . . . . . . . . . . 
 72
    65
 73
     2
 40
3.0
 49
0.0
 74
     0
 49
-3.0
 74
     0
  0
LTYPE
  5
60
330
5
100
AcDbSymbolTableRecord
100
AcDbLinetypeTableRecord
  2
ACAD_ISO08W100
 70
     0
  3
ISO long-dash short-dash ____ __ ____ __ ____ _
 72
    65
 73
     4
 40
36.0
 49
24.0
 74
     0
 49
-3.0
 74
     0
 49
6.0
 74
     0
 49
-3.0
 74
     0
  0
LTYPE
  5
61
330
5
100
AcDbSymbolTableRecord
100
AcDbLinetypeTableRecord
  2
ACAD_ISO09W100
 70
     0
  3
ISO long-dash double-short-dash ____ __ __ ____
 72
    65
 73
     6
 40
45.0
 49
24.0
 74
     0
 49
-3.0
 74
     0
 49
6.0
 74
     0
 49
-3.0
 74
     0
 49
6.0
 74
     0
 49
-3.0
 74
     0
  0
LTYPE
  5
62
330
5
100
AcDbSymbolTableRecord
100
AcDbLinetypeTableRecord
  2
ACAD_ISO10W100
 70
     0
  3
ISO dash dot __ . __ . __ . __ . __ . __ . __ . 
 72
    65
 73
     4
 40
18.0
 49
12.0
 74
     0
 49
-3.0
 74
     0
 49
0.0
 74
     0
 49
-3.0
 74
     0
  0
LTYPE
  5
63
330
5
100
AcDbSymbolTableRecord
100
AcDbLinetypeTableRecord
  2
ACAD_ISO11W100
 70
     0
  3
ISO double-dash dot __ __ . __ __ . __ __ . __ _
 72
    65
 73
     6
 40
33.0
 49
12.0
 74
     0
 49
-3.0
 74
     0
 49
12.0
 74
     0
 49
-3.0
 74
     0
 49
0.0
 74
     0
 49
-3.0
 74
     0
  0
LTYPE
  5
64
330
5
100
AcDbSymbolTableRecord
100
AcDbLinetypeTableRecord
  2
ACAD_ISO12W100
 70
     0
  3
ISO dash double-dot __ . . __ . . __ . . __ . . 
 72
    65
 73
     6
 40
21.0
 49
12.0
 74
     0
 49
-3.0
 74
     0
 49
0.0
 74
     0
 49
-3.0
 74
     0
 49
0.0
 74
     0
 49
-3.0
 74
     0
  0
LTYPE
  5
65
330
5
100
AcDbSymbolTableRecord
100
AcDbLinetypeTableRecord
  2
ACAD_ISO15W100
 70
     0
  3
ISO double-dash triple-dot __ __ . . . __ __ . .
 72
    65
 73
    10
 40
39.0
 49
12.0
 74
     0
 49
-3.0
 74
     0
 49
12.0
 74
     0
 49
-3.0
 74
     0
 49
0.0
 74
     0
 49
-3.0
 74
     0
 49
0.0
 74
     0
 49
-3.0
 74
     0
 49
0.0
 74
     0
 49
-3.0
 74
     0
  0
LTYPE
  5
66
330
5
100
AcDbSymbolTableRecord
100
AcDbLinetypeTableRecord
  2
JIS_02_0.7
 70
     0
  3
HIDDEN0.75 _ _ _ _ _ _ _ _ _ _ _ _ _ _ _ _ _ 
 72
    65
 73
     2
 40
1.35
 49
0.75
 74
     0
 49
-0.6
 74
     0
  0
LTYPE
  5
67
330
5
100
AcDbSymbolTableRecord
100
AcDbLinetypeTableRecord
  2
JIS_02_1.0
 70
     0
  3
HIDDEN01 _ _ _ _ _ _ _ _ _ _ _ _ _ _ _ _ _ 
 72
    65
 73
     2
 40
2.0
 49
1.0
 74
     0
 49
-1.0
 74
     0
  0
LTYPE
  5
68
330
5
100
AcDbSymbolTableRecord
100
AcDbLinetypeTableRecord
  2
JIS_02_1.2
 70
     0
  3
HIDDEN01.25  _ _ _ _ _ _ _ _ _ _ _ _ _ _ _ _ _ 
 72
    65
 73
     2
 40
2.5
 49
1.25
 74
     0
 49
-1.25
 74
     0
  0
LTYPE
  5
69
330
5
100
AcDbSymbolTableRecord
100
AcDbLinetypeTableRecord
  2
JIS_02_2.0
 70
     0
  3
HIDDEN02 __ __ __ __ __ __ __ __ __ __ __ 
 72
    65
 73
     2
 40
3.0
 49
2.0
 74
     0
 49
-1.0
 74
     0
  0
LTYPE
  5
6A
330
5
100
AcDbSymbolTableRecord
100
AcDbLinetypeTableRecord
  2
JIS_02_4.0
 70
     0
  3
HIDDEN04 ____ ____ ____ ____ ____ ____ ____ 
 72
    65
 73
     2
 40
5.5
 49
4.0
 74
     0
 49
-1.5
 74
     0
  0
LTYPE
  5
6B
330
5
100
AcDbSymbolTableRecord
100
AcDbLinetypeTableRecord
  2
JIS_08_11
 70
     0
  3
1SASEN11 ___ _ ___ _ ___ _ ___ _ ___ _ ___
 72
    65
 73
     4
 40
12.8
 49
11.0
 74
     0
 49
-0.6
 74
     0
 49
0.6
 74
     0
 49
-0.6
 74
     0
  0
LTYPE
  5
6C
330
5
100
AcDbSymbolTableRecord
100
AcDbLinetypeTableRecord
  2
JIS_08_15
 70
     0
  3
1SASEN15 ____ _ ____ _ ____ _ ____ _ ____ 
 72
    65
 73
     4
 40
17.25
 49
15.0
 74
     0
 49
-0.75
 74
     0
 49
0.75
 74
     0
 49
-0.75
 74
     0
  0
LTYPE
  5
6D
330
5
100
AcDbSymbolTableRecord
100
AcDbLinetypeTableRecord
  2
JIS_08_25
 70
     0
  3
1SASEN25 ________  __  ________  __  _____
 72
    65
 73
     4
 40
28.0
 49
25.0
 74
     0
 49
-1.125
 74
     0
 49
0.75
 74
     0
 49
-1.125
 74
     0
  0
LTYPE
  5
6E
330
5
100
AcDbSymbolTableRecord
100
AcDbLinetypeTableRecord
  2
JIS_08_37
 70
     0
  3
1SASEN37 ________  __  ________  __  _____
 72
    65
 73
     4
 40
40.5
 49
37.5
 74
     0
 49
-1.125
 74
     0
 49
0.75
 74
     0
 49
-1.125
 74
     0
  0
LTYPE
  5
6F
330
5
100
AcDbSymbolTableRecord
100
AcDbLinetypeTableRecord
  2
JIS_08_50
 70
     0
  3
1SASEN50 _______________  __  ____________
 72
    65
 73
     4
 40
53.0
 49
50.0
 74
     0
 49
-1.125
 74
     0
 49
0.75
 74
     0
 49
-1.125
 74
     0
  0
LTYPE
  5
70
330
5
100
AcDbSymbolTableRecord
100
AcDbLinetypeTableRecord
  2
JIS_09_08
 70
     0
  3
2SASEN8 __ _ _ __ _ _ __ _ _ __ _ _ __ _ _ 
 72
    65
 73
     6
 40
10.75
 49
8.0
 74
     0
 49
-0.55
 74
     0
 49
0.55
 74
     0
 49
-0.55
 74
     0
 49
0.55
 74
     0
 49
-0.55
 74
     0
  0
LTYPE
  5
71
330
5
100
AcDbSymbolTableRecord
100
AcDbLinetypeTableRecord
  2
JIS_09_15
 70
     0
  3
2SASEN15 ___ _ _ ___ _ _ ___ _ _ ___ _ _ ___ 
 72
    65
 73
     6
 40
18.9
 49
15.0
 74
     0
 49
-0.9
 74
     0
 49
0.6
 74
     0
 49
-0.9
 74
     0
 49
0.6
 74
     0
 49
-0.9
 74
     0
  0
LTYPE
  5
72
330
5
100
AcDbSymbolTableRecord
100
AcDbLinetypeTableRecord
  2
JIS_09_29
 70
     0
  3
2SASEN29 ______　__  __  ______　__  __  ___
 72
    65
 73
     6
 40
34.0
 49
29.0
 74
     0
 49
-1.2
 74
     0
 49
0.7
 74
     0
 49
-1.2
 74
     0
 49
0.7
 74
     0
 49
-1.2
 74
     0
  0
LTYPE
  5
73
330
5
100
AcDbSymbolTableRecord
100
AcDbLinetypeTableRecord
  2
JIS_09_50
 70
     0
  3
2SASEN50 ____________　__  __  _____________
 72
    65
 73
     6
 40
55.0
 49
50.0
 74
     0
 49
-1.2
 74
     0
 49
0.7
 74
     0
 49
-1.2
 74
     0
 49
0.7
 74
     0
 49
-1.2
 74
     0
  0
ENDTAB
  0
TABLE
  2
LAYER
  5
2
330
0
100
AcDbSymbolTable
 70
     4
  0
LAYER
  5
10
330
2
100
AcDbSymbolTableRecord
100
AcDbLayerTableRecord
  2
0
 70
     0
 62
     7
  6
Continuous
370
    -3
390
F
  0
LAYER
  5
74
330
2
100
AcDbSymbolTableRecord
100
AcDbLayerTableRecord
  2
16
 70
     0
 62
     7
  6
Continuous
370
    -3
390
F
  0
LAYER
  5
75
330
2
100
AcDbSymbolTableRecord
100
AcDbLayerTableRecord
  2
22
 70
     0
 62
     7
  6
Continuous
370
    -3
390
F
  0
LAYER
  5
76
330
2
100
AcDbSymbolTableRecord
100
AcDbLayerTableRecord
  2
32
 70
     0
 62
     7
  6
Continuous
370
    -3
390
F
  0
ENDTAB
  0
TABLE
  2
STYLE
  5
3
330
0
100
AcDbSymbolTable
 70
     2
  0
STYLE
  5
11
330
3
100
AcDbSymbolTableRecord
100
AcDbTextStyleTableRecord
  2
Standard
 70
     0
 40
0.0
 41
1.0
 50
0.0
 71
     0
 42
0.2
  3
txt.shx
  4
bigfont.shx
  0
STYLE
  5
9A
330
3
100
AcDbSymbolTableRecord
100
AcDbTextStyleTableRecord
  2
dcStyle0
 70
     0
 40
0.0
 41
0.8333333354938274
 50
0.0
 71
     0
 42
0.2
  3
txt.shx
  4
bigfont
  0
ENDTAB
  0
TABLE
  2
VIEW
  5
6
330
0
100
AcDbSymbolTable
 70
     0
  0
ENDTAB
  0
TABLE
  2
UCS
  5
7
330
0
100
AcDbSymbolTable
 70
     0
  0
ENDTAB
  0
TABLE
  2
APPID
  5
9
330
0
100
AcDbSymbolTable
 70
     2
  0
APPID
  5
12
330
9
100
AcDbSymbolTableRecord
100
AcDbRegAppTableRecord
  2
ACAD
 70
     0
  0
APPID
  5
3F
330
9
100
AcDbSymbolTableRecord
100
AcDbRegAppTableRecord
  2
DaFusionOut
 70
     0
  0
ENDTAB
  0
TABLE
  2
DIMSTYLE
  5
A
330
0
100
AcDbSymbolTable
 70
     1
100
AcDbDimStyleTable
  0
DIMSTYLE
105
27
330
A
100
AcDbSymbolTableRecord
100
AcDbDimStyleTableRecord
  2
Standard
 70
     0
178
     0
340
11
  0
ENDTAB
  0
TABLE
  2
BLOCK_RECORD
  5
1
330
0
100
AcDbSymbolTable
 70
     1
  0
BLOCK_RECORD
  5
1F
330
1
100
AcDbSymbolTableRecord
100
AcDbBlockTableRecord
  2
*Model_Space
340
22
  0
BLOCK_RECORD
  5
1B
330
1
100
AcDbSymbolTableRecord
100
AcDbBlockTableRecord
  2
*Paper_Space
340
1E
  0
BLOCK_RECORD
  5
23
330
1
100
AcDbSymbolTableRecord
100
AcDbBlockTableRecord
  2
*Paper_Space0
340
26
  0
ENDTAB
  0
ENDSEC
  0
SECTION
  2
BLOCKS
  0
BLOCK
  5
20
330
1F
100
AcDbEntity
  8
0
100
AcDbBlockBegin
  2
*Model_Space
 70
     0
 10
0.0
 20
0.0
 30
0.0
  3
*Model_Space
  1

  0
ENDBLK
  5
21
330
1F
100
AcDbEntity
  8
0
100
AcDbBlockEnd
  0
BLOCK
  5
1C
330
1B
100
AcDbEntity
 67
     1
  8
0
100
AcDbBlockBegin
  2
*Paper_Space
 70
     0
 10
0.0
 20
0.0
 30
0.0
  3
*Paper_Space
  1

  0
ENDBLK
  5
1D
330
1B
100
AcDbEntity
 67
     1
  8
0
100
AcDbBlockEnd
  0
BLOCK
  5
24
330
23
100
AcDbEntity
  8
0
100
AcDbBlockBegin
  2
*Paper_Space0
 70
     0
 10
0.0
 20
0.0
 30
0.0
  3
*Paper_Space0
  1

  0
ENDBLK
  5
25
330
23
100
AcDbEntity
  8
0
100
AcDbBlockEnd
  0
ENDSEC
  0
SECTION
  2
ENTITIES
  0
LINE
  5
78
330
1F
100
AcDbEntity
  8
0
  6
Continuous
 62
   150
370
    25
100
AcDbLine
 10
-173.5999998748302
 20
-114.0999997854233
 30
0.0
 11
-173.5999998748302
 21
105.9000034928322
 31
0.0
  0
LINE
  5
79
330
1F
100
AcDbEntity
  8
0
  6
Continuous
 62
   150
370
    25
100
AcDbLine
 10
-173.5999998748302
 20
105.9000034928322
 30
0.0
 11
172.4000052809715
 21
105.9000034928322
 31
0.0
  0
LINE
  5
7A
330
1F
100
AcDbEntity
  8
0
  6
Continuous
 62
   150
370
    25
100
AcDbLine
 10
172.4000052809715
 20
105.9000034928322
 30
0.0
 11
172.4000052809715
 21
-114.0999997854233
 31
0.0
  0
LINE
  5
7B
330
1F
100
AcDbEntity
  8
0
  6
Continuous
 62
   150
370
    25
100
AcDbLine
 10
172.4000052809715
 20
-114.0999997854233
 30
0.0
 11
-173.5999998748302
 21
-114.0999997854233
 31
0.0
  0
LINE
  5
7C
330
1F
100
AcDbEntity
  8
0
  6
Continuous
 62
   150
370
    25
100
AcDbLine
 10
172.4000052809715
 20
-84.09999933838844
 30
0.0
 11
10.40000286698341
 21
-84.09999933838844
 31
0.0
  0
LINE
  5
7D
330
1F
100
AcDbEntity
  8
0
  6
Continuous
 62
   150
370
    25
100
AcDbLine
 10
10.40000286698341
 20
-84.09999933838844
 30
0.0
 11
10.40000286698341
 21
-114.0999997854233
 31
0.0
  0
LINE
  5
7E
330
1F
100
AcDbEntity
  8
0
  6
Continuous
 62
   150
370
    25
100
AcDbLine
 10
10.40000286698341
 20
-97.09999953210354
 30
0.0
 11
96.40000414848328
 21
-97.09999953210354
 31
0.0
  0
LINE
  5
7F
330
1F
100
AcDbEntity
  8
0
  6
Continuous
 62
   150
370
    25
100
AcDbLine
 10
96.40000414848328
 20
-88.59999940544367
 30
0.0
 11
10.40000286698341
 21
-88.59999940544367
 31
0.0
  0
LINE
  5
80
330
1F
100
AcDbEntity
  8
0
  6
Continuous
 62
   150
370
    25
100
AcDbLine
 10
23.40000306069851
 20
-84.09999933838844
 30
0.0
 11
23.40000306069851
 21
-97.09999953210354
 31
0.0
  0
LINE
  5
81
330
1F
100
AcDbEntity
  8
0
  6
Continuous
 62
   150
370
    25
100
AcDbLine
 10
36.4000032544136
 20
-97.09999953210354
 30
0.0
 11
36.4000032544136
 21
-84.09999933838844
 31
0.0
  0
LINE
  5
82
330
1F
100
AcDbEntity
  8
0
  6
Continuous
 62
   150
370
    25
100
AcDbLine
 10
49.4000034481287
 20
-84.09999933838844
 30
0.0
 11
49.4000034481287
 21
-97.09999953210354
 31
0.0
  0
LINE
  5
83
330
1F
100
AcDbEntity
  8
0
  6
Continuous
 62
   150
370
    25
100
AcDbLine
 10
75.40000383555889
 20
-97.09999953210354
 30
0.0
 11
75.40000383555889
 21
-84.09999933838844
 31
0.0
  0
LINE
  5
84
330
1F
100
AcDbEntity
  8
0
  6
Continuous
 62
   150
370
    25
100
AcDbLine
 10
96.40000414848328
 20
-84.09999933838844
 30
0.0
 11
96.40000414848328
 21
-114.0999997854233
 31
0.0
  0
LINE
  5
85
330
1F
100
AcDbEntity
  8
0
  6
Continuous
 62
   150
370
    25
100
AcDbLine
 10
101.4000042229891
 20
-114.0999997854233
 30
0.0
 11
101.4000042229891
 21
-100.5999995842576
 31
0.0
  0
LINE
  5
86
330
1F
100
AcDbEntity
  8
0
  6
Continuous
 62
   150
370
    25
100
AcDbLine
 10
96.40000414848328
 20
-100.5999995842576
 30
0.0
 11
172.4000052809715
 21
-100.5999995842576
 31
0.0
  0
LINE
  5
87
330
1F
100
AcDbEntity
  8
0
  6
Continuous
 62
   150
370
    25
100
AcDbLine
 10
168.4000052213669
 20
-94.59999949485064
 30
0.0
 11
100.4000042080879
 21
-94.59999949485064
 31
0.0
  0
LINE
  5
88
330
1F
100
AcDbEntity
  8
0
  6
Continuous
 62
   150
370
    25
100
AcDbLine
 10
19.40000300109386
 20
-109.1999997124076
 30
0.0
 11
23.90000306814909
 21
-106.6999996751547
 31
0.0
  0
LINE
  5
89
330
1F
100
AcDbEntity
  8
0
  6
Continuous
 62
   150
370
    25
100
AcDbLine
 10
23.90000306814909
 20
-106.6999996751547
 30
0.0
 11
28.40000313520432
 21
-109.1999997124076
 31
0.0
  0
LINE
  5
8A
330
1F
100
AcDbEntity
  8
0
  6
Continuous
 62
   150
370
    25
100
AcDbLine
 10
28.40000313520432
 20
-109.1999997124076
 30
0.0
 11
23.90000306814909
 21
-111.6999997496605
 31
0.0
  0
LINE
  5
8B
330
1F
100
AcDbEntity
  8
0
  6
Continuous
 62
   150
370
    25
100
AcDbLine
 10
23.90000306814909
 20
-111.6999997496605
 30
0.0
 11
19.40000300109386
 21
-109.1999997124076
 31
0.0
  0
LINE
  5
8C
330
1F
100
AcDbEntity
  8
0
  6
Continuous
 62
   150
370
    25
100
AcDbLine
 10
23.40000306069851
 20
-107.6999996900558
 30
0.0
 11
24.40000307559967
 21
-107.6999996900558
 31
0.0
  0
LINE
  5
8D
330
1F
100
AcDbEntity
  8
0
  6
Continuous
 62
   150
370
    25
100
AcDbLine
 10
24.40000307559967
 20
-107.6999996900558
 30
0.0
 11
24.40000307559967
 21
-110.6999997347593
 31
0.0
  0
LINE
  5
8E
330
1F
100
AcDbEntity
  8
0
  6
Continuous
 62
   150
370
    25
100
AcDbLine
 10
24.40000307559967
 20
-110.6999997347593
 30
0.0
 11
23.40000306069851
 21
-110.6999997347593
 31
0.0
  0
LINE
  5
8F
330
1F
100
AcDbEntity
  8
0
  6
Continuous
 62
   150
370
    25
100
AcDbLine
 10
23.40000306069851
 20
-110.6999997347593
 30
0.0
 11
23.40000306069851
 21
-107.6999996900558
 31
0.0
  0
LINE
  5
90
330
1F
100
AcDbEntity
  8
0
  6
Continuous
 62
   150
370
    25
100
AcDbLine
 10
23.40000306069851
 20
-107.6999996900558
 30
0.0
 11
23.60000306367874
 21
-107.6999996900558
 31
0.0
  0
LINE
  5
91
330
1F
100
AcDbEntity
  8
0
  6
Continuous
 62
   150
370
    25
100
AcDbLine
 10
23.60000306367874
 20
-107.6999996900558
 30
0.0
 11
23.60000306367874
 21
-110.6999997347593
 31
0.0
  0
LINE
  5
92
330
1F
100
AcDbEntity
  8
0
  6
Continuous
 62
   150
370
    25
100
AcDbLine
 10
23.60000306367874
 20
-110.6999997347593
 30
0.0
 11
23.80000306665897
 21
-110.6999997347593
 31
0.0
  0
LINE
  5
93
330
1F
100
AcDbEntity
  8
0
  6
Continuous
 62
   150
370
    25
100
AcDbLine
 10
23.80000306665897
 20
-110.6999997347593
 30
0.0
 11
23.80000306665897
 21
-107.6999996900558
 31
0.0
  0
LINE
  5
94
330
1F
100
AcDbEntity
  8
0
  6
Continuous
 62
   150
370
    25
100
AcDbLine
 10
23.80000306665897
 20
-107.6999996900558
 30
0.0
 11
24.00000306963921
 21
-107.6999996900558
 31
0.0
  0
LINE
  5
95
330
1F
100
AcDbEntity
  8
0
  6
Continuous
 62
   150
370
    25
100
AcDbLine
 10
24.00000306963921
 20
-107.6999996900558
 30
0.0
 11
24.00000306963921
 21
-110.6999997347593
 31
0.0
  0
LINE
  5
96
330
1F
100
AcDbEntity
  8
0
  6
Continuous
 62
   150
370
    25
100
AcDbLine
 10
24.00000306963921
 20
-110.6999997347593
 30
0.0
 11
24.20000307261944
 21
-110.6999997347593
 31
0.0
  0
LINE
  5
97
330
1F
100
AcDbEntity
  8
0
  6
Continuous
 62
   150
370
    25
100
AcDbLine
 10
24.20000307261944
 20
-110.6999997347593
 30
0.0
 11
24.20000307261944
 21
-107.6999996900558
 31
0.0
  0
LINE
  5
98
330
1F
100
AcDbEntity
  8
0
  6
Continuous
 62
   150
370
    25
100
AcDbLine
 10
24.20000307261944
 20
-107.6999996900558
 30
0.0
 11
24.40000307559967
 21
-107.6999996900558
 31
0.0
  0
LINE
  5
99
330
1F
100
AcDbEntity
  8
0
  6
Continuous
 62
   150
370
    25
100
AcDbLine
 10
24.40000307559967
 20
-107.6999996900558
 30
0.0
 11
24.40000307559967
 21
-110.6999997347593
 31
0.0
  0
TEXT
  5
9B
330
1F
100
AcDbEntity
  8
0
 62
   150
100
AcDbText
 10
12.4000029
 20
-87.8999994
 30
0.0
 40
3.0
  1
担　当
 41
0.8333333354938274
  7
dcStyle0
 72
     5
 11
21.40000304
 21
-87.8999994
 31
0.0
100
AcDbText
  0
TEXT
  5
9C
330
1F
100
AcDbEntity
  8
0
 62
   150
100
AcDbText
 10
25.40000309
 20
-87.8999994
 30
0.0
 40
3.0
  1
製　図
 41
0.833333335493827
  7
dcStyle0
 72
     5
 11
34.40000323
 21
-87.8999994
 31
0.0
100
AcDbText
  0
TEXT
  5
9D
330
1F
100
AcDbEntity
  8
0
 62
   150
100
AcDbText
 10
38.40000328
 20
-87.8999994
 30
0.0
 40
3.0
  1
検　図
 41
0.833333335493827
  7
dcStyle0
 72
     5
 11
47.40000342
 21
-87.8999994
 31
0.0
100
AcDbText
  0
TEXT
  5
9E
330
1F
100
AcDbEntity
  8
0
 62
   150
100
AcDbText
 10
56.40000355
 20
-87.8999994
 30
0.0
 40
3.0
  1
尺　　度
 41
0.8333333354166672
  7
dcStyle0
 72
     5
 11
68.40000373000001
 21
-87.8999994
 31
0.0
100
AcDbText
  0
TEXT
  5
9F
330
1F
100
AcDbEntity
  8
0
 62
   150
100
AcDbText
 10
79.9000039
 20
-87.8999994
 30
0.0
 40
3.0
  1
作　　図
 41
0.8333333354166668
  7
dcStyle0
 72
     5
 11
91.90000408
 21
-87.8999994
 31
0.0
100
AcDbText
  0
TEXT
  5
A0
330
1F
100
AcDbEntity
  8
0
 62
   150
100
AcDbText
 10
97.40000416
 20
-87.8999994
 30
0.0
 40
3.0
  1
工事名
 41
0.833333335493827
  7
dcStyle0
 72
     5
 11
106.4000043
 21
-87.8999994
 31
0.0
100
AcDbText
  0
TEXT
  5
A1
330
1F
100
AcDbEntity
  8
0
 62
   150
100
AcDbText
 10
97.40000416
 20
-99.39999957
 30
0.0
 40
2.5
  1
図面番号
 41
0.8333333354166671
  7
dcStyle0
 72
     5
 11
107.40000431
 21
-99.39999957
 31
0.0
100
AcDbText
  0
TEXT
  5
A2
330
1F
100
AcDbEntity
  8
0
 62
   150
100
AcDbText
 10
97.40000416
 20
-104.09999964
 30
0.0
 40
2.5
  1
図
 41
0.8333333333333334
  7
dcStyle0
 72
     5
 11
99.90000416
 21
-104.09999964
 31
0.0
100
AcDbText
  0
TEXT
  5
A3
330
1F
100
AcDbEntity
  8
0
 62
   150
100
AcDbText
 10
97.40000416
 20
-107.09999968
 30
0.0
 40
2.5
  1
面
 41
0.8333333333333334
  7
dcStyle0
 72
     5
 11
99.90000416
 21
-107.09999968
 31
0.0
100
AcDbText
  0
TEXT
  5
A4
330
1F
100
AcDbEntity
  8
0
 62
   150
100
AcDbText
 10
97.40000416
 20
-110.09999973
 30
0.0
 40
2.5
  1
名
 41
0.8333333333333334
  7
dcStyle0
 72
     5
 11
99.90000416
 21
-110.09999973
 31
0.0
100
AcDbText
  0
TEXT
  5
A5
330
1F
100
AcDbEntity
  8
0
 62
   150
100
AcDbText
 10
97.40000416
 20
-113.09999977
 30
0.0
 40
2.5
  1
称
 41
0.8333333333333334
  7
dcStyle0
 72
     5
 11
99.90000416
 21
-113.09999977
 31
0.0
100
AcDbText
  0
TEXT
  5
A6
330
1F
100
AcDbEntity
  8
0
 62
   150
100
AcDbText
 10
80.60000391
 20
-94.09999949
 30
0.0
 40
2.5
  1
年
 41
0.8333333333333334
  7
dcStyle0
 72
     5
 11
83.10000391
 21
-94.09999949
 31
0.0
100
AcDbText
  0
TEXT
  5
A7
330
1F
100
AcDbEntity
  8
0
 62
   150
100
AcDbText
 10
87.10000401
 20
-94.09999949
 30
0.0
 40
2.5
  1
月
 41
0.8333333333333334
  7
dcStyle0
 72
     5
 11
89.60000401
 21
-94.09999949
 31
0.0
100
AcDbText
  0
TEXT
  5
A8
330
1F
100
AcDbEntity
  8
0
 62
   150
100
AcDbText
 10
93.60000411
 20
-94.09999949
 30
0.0
 40
2.5
  1
日
 41
0.8333333333333334
  7
dcStyle0
 72
     5
 11
96.10000411
 21
-94.09999949
 31
0.0
100
AcDbText
  0
TEXT
  5
A9
330
1F
100
AcDbEntity
  8
0
 62
   222
100
AcDbText
 10
24.90000308
 20
-103.89999963
 30
0.0
 40
4.0
  1
タイヘイグレーチング
 41
1.041666666041667
  7
dcStyle0
 72
     5
 11
74.90000380000001
 21
-103.89999963
 31
0.0
100
AcDbText
  0
TEXT
  5
AA
330
1F
100
AcDbEntity
  8
0
 62
   222
100
AcDbText
 10
30.15000316
 20
-111.39999975
 30
0.0
 40
5.0
  1
石田鉄工株式会社
 41
0.8461538481952661
  7
dcStyle0
 72
     5
 11
74.15000384999999
 21
-111.39999975
 31
0.0
100
AcDbText
  0
LINE
  5
AB
330
1F
100
AcDbEntity
  8
22
  6
Continuous
 62
     2
370
    25
100
AcDbLine
 10
-182.0
 20
-128.5
 30
0.0
 11
-178.9999999552965
 21
-128.5
 31
0.0
  0
LINE
  5
AC
330
1F
100
AcDbEntity
  8
22
  6
Continuous
 62
     2
370
    25
100
AcDbLine
 10
-178.9999999552965
 20
-128.5
 30
0.0
 11
-178.9999999552965
 21
-125.4999999552965
 31
0.0
  0
LINE
  5
AD
330
1F
100
AcDbEntity
  8
22
  6
Continuous
 62
     2
370
    25
100
AcDbLine
 10
-178.9999999552965
 20
-125.4999999552965
 30
0.0
 11
-182.0
 21
-125.4999999552965
 31
0.0
  0
LINE
  5
AE
330
1F
100
AcDbEntity
  8
22
  6
Continuous
 62
     2
370
    25
100
AcDbLine
 10
-182.0
 20
-125.4999999552965
 30
0.0
 11
-182.0
 21
-128.5
 31
0.0
  0
LINE
  5
AF
330
1F
100
AcDbEntity
  8
22
  6
Continuous
 62
     2
370
    25
100
AcDbLine
 10
-182.0
 20
-128.5
 30
0.0
 11
-178.9999999552965
 21
-128.5
 31
0.0
  0
LINE
  5
B0
330
1F
100
AcDbEntity
  8
22
  6
Continuous
 62
     2
370
    25
100
AcDbLine
 10
-178.9999999552965
 20
-128.5
 30
0.0
 11
-178.9999999552965
 21
-125.4999999552965
 31
0.0
  0
LINE
  5
B1
330
1F
100
AcDbEntity
  8
22
  6
Continuous
 62
     2
370
    25
100
AcDbLine
 10
-178.9999999552965
 20
-125.4999999552965
 30
0.0
 11
-182.0
 21
-125.4999999552965
 31
0.0
  0
LINE
  5
B2
330
1F
100
AcDbEntity
  8
22
  6
Continuous
 62
     2
370
    25
100
AcDbLine
 10
-182.0
 20
-125.4999999552965
 30
0.0
 11
-182.0
 21
-128.5
 31
0.0
  0
LINE
  5
B3
330
1F
100
AcDbEntity
  8
22
  6
Continuous
 62
     2
370
    25
100
AcDbLine
 10
-182.0
 20
-128.5
 30
0.0
 11
-178.9999999552965
 21
-128.5
 31
0.0
  0
LINE
  5
B4
330
1F
100
AcDbEntity
  8
22
  6
Continuous
 62
     2
370
    25
100
AcDbLine
 10
-178.9999999552965
 20
-128.5
 30
0.0
 11
-178.9999999552965
 21
-125.4999999552965
 31
0.0
  0
LINE
  5
B5
330
1F
100
AcDbEntity
  8
22
  6
Continuous
 62
     2
370
    25
100
AcDbLine
 10
-178.9999999552965
 20
-125.4999999552965
 30
0.0
 11
-182.0
 21
-125.4999999552965
 31
0.0
  0
LINE
  5
B6
330
1F
100
AcDbEntity
  8
22
  6
Continuous
 62
     2
370
    25
100
AcDbLine
 10
-182.0
 20
-125.4999999552965
 30
0.0
 11
-182.0
 21
-128.5
 31
0.0
  0
TEXT
  5
B7
330
1F
100
AcDbEntity
  8
22
 62
     2
100
AcDbText
 10
102.40000424
 20
-104.6666663266667
 30
0.0
 40
3.2
  1
TYKHC
 41
0.9375000009375004
  7
dcStyle0
 72
     5
 11
117.40000448
 21
-104.6666663266667
 31
0.0
100
AcDbText
  0
TEXT
  5
B8
330
1F
100
AcDbEntity
  8
22
 62
     2
100
AcDbText
 10
117.40000446
 20
-104.6666663266667
 30
0.0
 40
3.2
  1
 510 
 41
0.7812500027343752
  7
dcStyle0
 72
     5
 11
129.90000466
 21
-104.6666663266667
 31
0.0
100
AcDbText
  0
TEXT
  5
B9
330
1F
100
AcDbEntity
  8
22
 62
     2
100
AcDbText
 10
127.40000461
 20
-104.6666663266667
 30
0.0
 40
3.0
  1
×
 41
0.6944444444444445
  7
dcStyle0
 72
     5
 11
129.90000461
 21
-104.6666663266667
 31
0.0
100
AcDbText
  0
TEXT
  5
BA
330
1F
100
AcDbEntity
  8
22
 62
     2
100
AcDbText
 10
128.90000463
 20
-104.6666663266667
 30
0.0
 40
3.0
  1
 494 
 41
0.8333333355555547
  7
dcStyle0
 72
     5
 11
141.40000483
 21
-104.6666663266667
 31
0.0
100
AcDbText
  0
TEXT
  5
BB
330
1F
100
AcDbEntity
  8
22
 62
     2
100
AcDbText
 10
138.90000478
 20
-104.6666663266667
 30
0.0
 40
3.0
  1
×
 41
0.6944444444444445
  7
dcStyle0
 72
     5
 11
141.40000478
 21
-104.6666663266667
 31
0.0
100
AcDbText
  0
TEXT
  5
BC
330
1F
100
AcDbEntity
  8
22
 62
     2
100
AcDbText
 10
140.4000048
 20
-104.6666663266667
 30
0.0
 40
3.0
  1
 44 
 41
0.8333333354166671
  7
dcStyle0
 72
     5
 11
150.40000495
 21
-104.6666663266667
 31
0.0
100
AcDbText
  0
TEXT
  5
BD
330
1F
100
AcDbEntity
  8
22
 62
     2
100
AcDbText
 10
147.90000492
 20
-104.6666663266667
 30
0.0
 40
3.0
  1
/
 41
0.8333333333333334
  7
dcStyle0
 72
     5
 11
150.40000492
 21
-104.6666663266667
 31
0.0
100
AcDbText
  0
TEXT
  5
BE
330
1F
100
AcDbEntity
  8
22
 62
     2
100
AcDbText
 10
147.90000492
 20
-104.6666663266667
 30
0.0
 40
3.0
  1
 110 
 41
0.8333333355555547
  7
dcStyle0
 72
     5
 11
160.4000051199999
 21
-104.6666663266667
 31
0.0
100
AcDbText
  0
TEXT
  5
BF
330
1F
100
AcDbEntity
  8
22
 62
     2
100
AcDbText
 10
25.65000309
 20
-94.59999948999999
 30
0.0
 40
3.0
  1
岡本　
 41
0.8536585384889945
  7
dcStyle0
 72
     5
 11
36.15000325
 21
-94.59999948999999
 31
0.0
100
AcDbText
  0
TEXT
  5
C0
330
1F
100
AcDbEntity
  8
22
 62
     2
100
AcDbText
 10
56.70000356
 20
-94.09999948999999
 30
0.0
 40
3.0
  1
1/
  7
dcStyle0
 72
     5
 11
62.70000365
 21
-94.09999948999999
 31
0.0
100
AcDbText
  0
TEXT
  5
C1
330
1F
100
AcDbEntity
  8
22
 62
     2
100
AcDbText
 10
59.7000036
 20
-94.09999948999999
 30
0.0
 40
3.0
  1
 6 
 41
0.9999999999999998
  7
dcStyle0
 72
     5
 11
68.70000374
 21
-94.09999948999999
 31
0.0
100
AcDbText
  0
TEXT
  5
C2
330
1F
100
AcDbEntity
  8
22
 62
     2
100
AcDbText
 10
112.00000438
 20
-99.76666624666666
 30
0.0
 40
3.0
  1
TYKHC44-400A T-14
 41
0.8333333354248365
  7
dcStyle0
 72
     5
 11
154.50000502
 21
-99.76666624666666
 31
0.0
100
AcDbText
  0
TEXT
  5
C3
330
1F
100
AcDbEntity
  8
22
 62
     2
100
AcDbText
 10
73.95000381
 20
-70.46666586666666
 30
0.0
 40
3.5
  1
＜表面処理＞
 41
0.7446808537799908
  7
dcStyle0
 72
     5
 11
94.95000411
 21
-70.46666586666666
 31
0.0
100
AcDbText
  0
TEXT
  5
C4
330
1F
100
AcDbEntity
  8
22
 62
     2
100
AcDbText
 10
78.95000389
 20
-75.46666594666667
 30
0.0
 40
3.5
  1
本体：溶融亜鉛メッキ
 41
0.7446808537256675
  7
dcStyle0
 72
     5
 11
113.95000438
 21
-75.46666594666667
 31
0.0
100
AcDbText
  0
TEXT
  5
C5
330
1F
100
AcDbEntity
  8
22
 62
     2
100
AcDbText
 10
117.8666713366667
 20
-75.46666594666667
 30
0.0
 40
3.5
  1
（セラミック充填）
 41
0.7446808539610686
  7
dcStyle0
 72
     5
 11
149.3666718166667
 21
-75.46666594666667
 31
0.0
100
AcDbText
  0
TEXT
  5
C6
330
1F
100
AcDbEntity
  8
22
 62
     2
100
AcDbText
 10
93.2000041
 20
93.70000324999998
 30
0.0
 40
4.0
  1
◇　荷　重　計　算　◇
 41
0.833333335542929
  7
dcStyle0
 72
     5
 11
137.2000048
 21
93.70000324999998
 31
0.0
100
AcDbText
  0
TEXT
  5
C7
330
1F
100
AcDbEntity
  8
22
 62
     2
100
AcDbText
 10
63.85000366000001
 20
83.70000311
 30
0.0
 40
3.299999999999999
  1
設計条件
 41
0.8583691004600374
  7
dcStyle0
 72
     5
 11
79.85000389
 21
83.70000311
 31
0.0
100
AcDbText
  0
TEXT
  5
C8
330
1F
100
AcDbEntity
  8
22
 62
     2
100
AcDbText
 10
69.10000373999998
 20
77.70000301999998
 30
0.0
 40
3.299999999999999
  1
荷　　重：　
 41
0.841346155753051
  7
dcStyle0
 72
     5
 11
90.10000403999997
 21
77.70000301999998
 31
0.0
100
AcDbText
  0
TEXT
  5
C9
330
1F
100
AcDbEntity
  8
22
 62
     2
100
AcDbText
 10
90.10000405
 20
77.70000302
 30
0.0
 40
3.0
  1
T-
  7
dcStyle0
 72
     5
 11
96.10000414
 21
77.70000302
 31
0.0
100
AcDbText
  0
TEXT
  5
CA
330
1F
100
AcDbEntity
  8
22
 62
     2
100
AcDbText
 10
94.10000411
 20
77.70000302
 30
0.0
 40
3.0
  1
 14 
 41
0.8333333354166671
  7
dcStyle0
 72
     5
 11
104.10000426
 21
77.70000302
 31
0.0
100
AcDbText
  0
TEXT
  5
CB
330
1F
100
AcDbEntity
  8
22
 62
     2
100
AcDbText
 10
104.00000426
 20
77.70000301999998
 30
0.0
 40
3.299999999999999
  1
（後輪一輪荷重：
 41
0.8413461558960684
  7
dcStyle0
 72
     5
 11
132.00000469
 21
77.70000301999998
 31
0.0
100
AcDbText
  0
TEXT
  5
CC
330
1F
100
AcDbEntity
  8
22
 62
     2
100
AcDbText
 10
132.00000468
 20
77.70000302
 30
0.0
 40
3.0
  1
5600
 41
0.8333333354166671
  7
dcStyle0
 72
     5
 11
142.00000483
 21
77.70000302
 31
0.0
100
AcDbText
  0
TEXT
  5
CD
330
1F
100
AcDbEntity
  8
22
 62
     2
100
AcDbText
 10
142.00000483
 20
77.70000302
 30
0.0
 40
3.0
  1
Kg
 41
0.5000000033333338
  7
dcStyle0
 72
     5
 11
145.00000487
 21
77.70000302
 31
0.0
100
AcDbText
  0
TEXT
  5
CE
330
1F
100
AcDbEntity
  8
22
 62
     2
100
AcDbText
 10
145.00000487
 20
77.70000301999998
 30
0.0
 40
3.299999999999999
  1
）
 41
0.8333333333333364
  7
dcStyle0
 72
     5
 11
148.30000487
 21
77.70000301999998
 31
0.0
100
AcDbText
  0
TEXT
  5
CF
330
1F
100
AcDbEntity
  8
22
 62
     2
100
AcDbText
 10
69.10000373999998
 20
72.70000293999998
 30
0.0
 40
3.299999999999999
  1
載荷寸法：　
 41
0.841346155753051
  7
dcStyle0
 72
     5
 11
90.10000403999997
 21
72.70000293999998
 31
0.0
100
AcDbText
  0
TEXT
  5
D0
330
1F
100
AcDbEntity
  8
22
 62
     2
100
AcDbText
 10
90.10000405
 20
72.70000293999999
 30
0.0
 40
3.0
  1
200
 41
0.8333333355555551
  7
dcStyle0
 72
     5
 11
97.60000416999999
 21
72.70000293999999
 31
0.0
100
AcDbText
  0
TEXT
  5
D1
330
1F
100
AcDbEntity
  8
22
 62
     2
100
AcDbText
 10
97.60000416999999
 20
72.70000293999999
 30
0.0
 40
3.0
  1
mm
 41
0.6666666700000008
  7
dcStyle0
 72
     5
 11
101.60000423
 21
72.70000293999999
 31
0.0
100
AcDbText
  0
TEXT
  5
D2
330
1F
100
AcDbEntity
  8
22
 62
     2
100
AcDbText
 10
101.50000422
 20
72.70000293999998
 30
0.0
 40
3.299999999999999
  1
×
 41
0.8333333333333328
  7
dcStyle0
 72
     5
 11
104.80000422
 21
72.70000293999998
 31
0.0
100
AcDbText
  0
TEXT
  5
D3
330
1F
100
AcDbEntity
  8
22
 62
     2
100
AcDbText
 10
105.00000428
 20
72.70000293999999
 30
0.0
 40
3.0
  1
500
 41
0.8333333355555551
  7
dcStyle0
 72
     5
 11
112.5000044
 21
72.70000293999999
 31
0.0
100
AcDbText
  0
TEXT
  5
D4
330
1F
100
AcDbEntity
  8
22
 62
     2
100
AcDbText
 10
112.50000439
 20
72.70000293999999
 30
0.0
 40
3.0
  1
mm
 41
0.6666666700000008
  7
dcStyle0
 72
     5
 11
116.50000445
 21
72.70000293999999
 31
0.0
100
AcDbText
  0
TEXT
  5
D5
330
1F
100
AcDbEntity
  8
22
 62
     2
100
AcDbText
 10
116.40000445
 20
72.70000293999998
 30
0.0
 40
3.299999999999999
  1
　（等分布負載）
 41
0.8413461558960684
  7
dcStyle0
 72
     5
 11
144.40000488
 21
72.70000293999998
 31
0.0
100
AcDbText
  0
TEXT
  5
D6
330
1F
100
AcDbEntity
  8
22
 62
     2
100
AcDbText
 10
69.10000373999998
 20
67.70000286999998
 30
0.0
 40
3.299999999999999
  1
許容応力：　
 41
0.841346155753051
  7
dcStyle0
 72
     5
 11
90.10000403999997
 21
67.70000286999998
 31
0.0
100
AcDbText
  0
TEXT
  5
D7
330
1F
100
AcDbEntity
  8
22
 62
     2
100
AcDbText
 10
90.10000405
 20
67.70000286999998
 30
0.0
 40
3.299999999999999
  1
σｂ＝
 41
0.6313131350372408
  7
dcStyle0
 72
     5
 11
97.60000416999999
 21
67.70000286999998
 31
0.0
100
AcDbText
  0
TEXT
  5
D8
330
1F
100
AcDbEntity
  8
22
 62
     2
100
AcDbText
 10
97.60000416999999
 20
67.70000286999999
 30
0.0
 40
3.0
  1
 
 41
0.8333333333333334
  7
dcStyle0
 72
     5
 11
100.10000417
 21
67.70000286999999
 31
0.0
100
AcDbText
  0
TEXT
  5
D9
330
1F
100
AcDbEntity
  8
22
 62
     2
100
AcDbText
 10
98.10000416999999
 20
67.70000286999999
 30
0.0
 40
3.0
  1
 18.0
 41
0.8333333355555557
  7
dcStyle0
 72
     5
 11
110.60000437
 21
67.70000286999999
 31
0.0
100
AcDbText
  0
TEXT
  5
DA
330
1F
100
AcDbEntity
  8
22
 62
     2
100
AcDbText
 10
110.70000436
 20
67.70000286999999
 30
0.0
 40
3.0
  1
Kg
 41
0.6666666700000008
  7
dcStyle0
 72
     5
 11
114.70000442
 21
67.70000286999999
 31
0.0
100
AcDbText
  0
TEXT
  5
DB
330
1F
100
AcDbEntity
  8
22
 62
     2
100
AcDbText
 10
114.45000442
 20
67.70000286999999
 30
0.0
 40
3.0
  1
／
 41
0.8333333333333334
  7
dcStyle0
 72
     5
 11
117.45000442
 21
67.70000286999999
 31
0.0
100
AcDbText
  0
TEXT
  5
DC
330
1F
100
AcDbEntity
  8
22
 62
     2
100
AcDbText
 10
117.95000447
 20
67.70000286999999
 30
0.0
 40
3.0
  1
mm
 41
0.6666666700000008
  7
dcStyle0
 72
     5
 11
121.95000453
 21
67.70000286999999
 31
0.0
100
AcDbText
  0
TEXT
  5
DD
330
1F
100
AcDbEntity
  8
22
 62
     2
100
AcDbText
 10
121.95000453
 20
69.70000289999999
 30
0.0
 40
1.8
  1
2
 41
0.8333333333333333
  7
dcStyle0
 72
     5
 11
123.45000453
 21
69.70000289999999
 31
0.0
100
AcDbText
  0
TEXT
  5
DE
330
1F
100
AcDbEntity
  8
22
 62
     2
100
AcDbText
 10
124.45000457
 20
67.70000286999998
 30
0.0
 40
3.299999999999999
  1
（ＳＳ４００使用）
 41
0.7575757602965683
  7
dcStyle0
 72
     5
 11
151.45000497
 21
67.70000286999998
 31
0.0
100
AcDbText
  0
TEXT
  5
DF
330
1F
100
AcDbEntity
  8
22
 62
     2
100
AcDbText
 10
69.10000373999998
 20
57.70000272
 30
0.0
 40
3.299999999999999
  1
スパン　：　
 41
0.841346155753051
  7
dcStyle0
 72
     5
 11
90.10000403999997
 21
57.70000272
 31
0.0
100
AcDbText
  0
TEXT
  5
E0
330
1F
100
AcDbEntity
  8
22
 62
     2
100
AcDbText
 10
90.10000405
 20
57.70000272
 30
0.0
 40
3.0
  1
L = 
 41
0.8333333354166671
  7
dcStyle0
 72
     5
 11
100.1000042
 21
57.70000272
 31
0.0
100
AcDbText
  0
TEXT
  5
E1
330
1F
100
AcDbEntity
  8
22
 62
     2
100
AcDbText
 10
98.10000416999999
 20
57.70000272
 30
0.0
 40
3.0
  1
 420 
 41
0.8333333355555557
  7
dcStyle0
 72
     5
 11
110.60000437
 21
57.70000272
 31
0.0
100
AcDbText
  0
TEXT
  5
E2
330
1F
100
AcDbEntity
  8
22
 62
     2
100
AcDbText
 10
110.60000436
 20
57.70000272
 30
0.0
 40
3.0
  1
mm
 41
0.6666666700000008
  7
dcStyle0
 72
     5
 11
114.60000442
 21
57.70000272
 31
0.0
100
AcDbText
  0
TEXT
  5
E3
330
1F
100
AcDbEntity
  8
22
 62
     2
100
AcDbText
 10
79.10000388999998
 20
49.7000026
 30
0.0
 40
3.299999999999999
  1
　Ｗ　：主部材が支える最大後輪一輪荷重
 41
0.8413461559738497
  7
dcStyle0
 72
     5
 11
145.60000495
 21
49.7000026
 31
0.0
100
AcDbText
  0
TEXT
  5
E4
330
1F
100
AcDbEntity
  8
22
 62
     2
100
AcDbText
 10
145.60000488
 20
49.7000026
 30
0.0
 40
3.0
  1
(Kg)
 41
0.6666666700000008
  7
dcStyle0
 72
     5
 11
153.600005
 21
49.7000026
 31
0.0
100
AcDbText
  0
TEXT
  5
E5
330
1F
100
AcDbEntity
  8
22
 62
     2
100
AcDbText
 10
79.10000388999998
 20
45.70000253999999
 30
0.0
 40
3.299999999999999
  1
　Ｎ　：荷重を受ける主部材本数
 41
0.8413461558293269
  7
dcStyle0
 72
     5
 11
131.60000467
 21
45.70000253999999
 31
0.0
100
AcDbText
  0
TEXT
  5
E6
330
1F
100
AcDbEntity
  8
22
 62
     2
100
AcDbText
 10
79.10000388999998
 20
41.70000248
 30
0.0
 40
3.299999999999999
  1
〔Ｚ〕：主部材断面係数
 41
0.8413461559264053
  7
dcStyle0
 72
     5
 11
117.60000449
 21
41.70000248
 31
0.0
100
AcDbText
  0
TEXT
  5
E7
330
1F
100
AcDbEntity
  8
22
 62
     2
100
AcDbText
 10
79.10000388999998
 20
37.70000242
 30
0.0
 40
3.299999999999999
  1
　Ｓ　：溝幅方向載荷寸法
 41
0.8413461560073042
  7
dcStyle0
 72
     5
 11
121.10000457
 21
37.70000242
 31
0.0
100
AcDbText
  0
TEXT
  5
E8
330
1F
100
AcDbEntity
  8
22
 62
     2
100
AcDbText
 10
63.85000366000001
 20
32.70000235
 30
0.0
 40
3.299999999999999
  1
荷重計算
 41
0.8583691004600374
  7
dcStyle0
 72
     5
 11
79.85000389
 21
32.70000235
 31
0.0
100
AcDbText
  0
TEXT
  5
E9
330
1F
100
AcDbEntity
  8
22
 62
     2
100
AcDbText
 10
69.10000373999998
 20
25.70000224
 30
0.0
 40
3.299999999999999
  1
側　溝
 41
0.8413461558801776
  7
dcStyle0
 72
     5
 11
79.60000389999998
 21
25.70000224
 31
0.0
100
AcDbText
  0
TEXT
  5
EA
330
1F
100
AcDbEntity
  8
22
 62
     2
100
AcDbText
 10
79.5000039
 20
25.70000224
 30
0.0
 40
3.299999999999999
  1
　（溝幅≦載荷寸法Ｓの場合）
 41
0.8413461557802926
  7
dcStyle0
 72
     5
 11
128.50000461
 21
25.70000224
 31
0.0
100
AcDbText
  0
TEXT
  5
EB
330
1F
100
AcDbEntity
  8
22
 62
     2
100
AcDbText
 10
69.20000374
 20
15.70000209
 30
0.0
 40
3.0
  1
Ｗ　＝
 41
0.6944444478395059
  7
dcStyle0
 72
     5
 11
76.70000386
 21
15.70000209
 31
0.0
100
AcDbText
  0
TEXT
  5
EC
330
1F
100
AcDbEntity
  8
22
 62
     2
100
AcDbText
 10
80.20000390999999
 20
18.20000213
 30
0.0
 40
3.299999999999999
  1
８
 41
0.8333333333333328
  7
dcStyle0
 72
     5
 11
83.50000390999999
 21
18.20000213
 31
0.0
100
AcDbText
  0
TEXT
  5
ED
330
1F
100
AcDbEntity
  8
22
 62
     2
100
AcDbText
 10
83.50000395999999
 20
18.20000213
 30
0.0
 40
3.299999999999999
  1
σｂ
 41
0.6313131345717273
  7
dcStyle0
 72
     5
 11
88.50000402999999
 21
18.20000213
 31
0.0
100
AcDbText
  0
TEXT
  5
EE
330
1F
100
AcDbEntity
  8
22
 62
     2
100
AcDbText
 10
88.50000403
 20
18.20000213
 30
0.0
 40
3.299999999999999
  1
Ｚ
 41
0.8333333333333328
  7
dcStyle0
 72
     5
 11
91.80000403
 21
18.20000213
 31
0.0
100
AcDbText
  0
TEXT
  5
EF
330
1F
100
AcDbEntity
  8
22
 62
     2
100
AcDbText
 10
79.70000389999998
 20
13.20000204999999
 30
0.0
 40
3.0
  1
 L 
 41
1.0
  7
dcStyle0
 72
     5
 11
91.70000407999999
 21
13.20000204999999
 31
0.0
100
AcDbText
  0
TEXT
  5
F0
330
1F
100
AcDbEntity
  8
22
 62
     2
100
AcDbText
 10
92.20000409
 20
15.70000209
 30
0.0
 40
3.299999999999999
  1
×
 41
0.7575757575757578
  7
dcStyle0
 72
     5
 11
95.20000409
 21
15.70000209
 31
0.0
100
AcDbText
  0
TEXT
  5
F1
330
1F
100
AcDbEntity
  8
22
 62
     2
100
AcDbText
 10
97.20000416
 20
18.20000212999999
 30
0.0
 40
3.0
  1
S
  7
dcStyle0
 72
     5
 11
100.20000416
 21
18.20000212999999
 31
0.0
100
AcDbText
  0
TEXT
  5
F2
330
1F
100
AcDbEntity
  8
22
 62
     2
100
AcDbText
 10
97.20000416
 20
13.20000204999999
 30
0.0
 40
3.0
  1
L
  7
dcStyle0
 72
     5
 11
100.20000416
 21
13.20000204999999
 31
0.0
100
AcDbText
  0
TEXT
  5
F3
330
1F
100
AcDbEntity
  8
22
 62
     2
100
AcDbText
 10
101.20000422
 20
15.70000209
 30
0.0
 40
3.299999999999999
  1
＝
 41
0.7575757575757578
  7
dcStyle0
 72
     5
 11
104.20000422
 21
15.70000209
 31
0.0
100
AcDbText
  0
TEXT
  5
F4
330
1F
100
AcDbEntity
  8
22
 62
     2
100
AcDbText
 10
106.7000043
 20
18.20000212999999
 30
0.0
 40
3.0
  1
8
 41
0.8333333333333334
  7
dcStyle0
 72
     5
 11
109.2000043
 21
18.20000212999999
 31
0.0
100
AcDbText
  0
TEXT
  5
F5
330
1F
100
AcDbEntity
  8
22
 62
     2
100
AcDbText
 10
109.20000434
 20
18.20000213
 30
0.0
 40
3.299999999999999
  1
×
 41
0.7575757575757578
  7
dcStyle0
 72
     5
 11
112.20000434
 21
18.20000213
 31
0.0
100
AcDbText
  0
TEXT
  5
F6
330
1F
100
AcDbEntity
  8
22
 62
     2
100
AcDbText
 10
110.20000435
 20
18.20000212999999
 30
0.0
 40
3.0
  1
 18 
 41
0.8333333354166671
  7
dcStyle0
 72
     5
 11
120.2000045
 21
18.20000212999999
 31
0.0
100
AcDbText
  0
TEXT
  5
F7
330
1F
100
AcDbEntity
  8
22
 62
     2
100
AcDbText
 10
118.20000447
 20
18.20000213
 30
0.0
 40
3.299999999999999
  1
×
 41
0.7575757575757578
  7
dcStyle0
 72
     5
 11
121.20000447
 21
18.20000213
 31
0.0
100
AcDbText
  0
TEXT
  5
F8
330
1F
100
AcDbEntity
  8
22
 62
     2
100
AcDbText
 10
119.20000449
 20
18.20000212999999
 30
0.0
 40
3.0
  1
 500 
 41
0.8333333355555547
  7
dcStyle0
 72
     5
 11
131.70000469
 21
18.20000212999999
 31
0.0
100
AcDbText
  0
TEXT
  5
F9
330
1F
100
AcDbEntity
  8
22
 62
     2
100
AcDbText
 10
128.60000463
 20
18.20000213
 30
0.0
 40
3.299999999999999
  1
×
 41
0.8333333333333364
  7
dcStyle0
 72
     5
 11
131.90000463
 21
18.20000213
 31
0.0
100
AcDbText
  0
TEXT
  5
FA
330
1F
100
AcDbEntity
  8
22
 62
     2
100
AcDbText
 10
132.10000468
 20
18.20000212999999
 30
0.0
 40
3.0
  1
Z
 41
0.8333333333333334
  7
dcStyle0
 72
     5
 11
134.60000468
 21
18.20000212999999
 31
0.0
100
AcDbText
  0
TEXT
  5
FB
330
1F
100
AcDbEntity
  8
22
 62
     2
100
AcDbText
 10
112.70000439
 20
13.20000204999999
 30
0.0
 40
3.0
  1
 420 
 41
0.8333333355555557
  7
dcStyle0
 72
     5
 11
125.20000459
 21
13.20000204999999
 31
0.0
100
AcDbText
  0
TEXT
  5
FC
330
1F
100
AcDbEntity
  8
22
 62
     2
100
AcDbText
 10
123.20000455
 20
15.20000208
 30
0.0
 40
1.8
  1
2
 41
0.8333333333333333
  7
dcStyle0
 72
     5
 11
124.70000455
 21
15.20000208
 31
0.0
100
AcDbText
  0
TEXT
  5
FD
330
1F
100
AcDbEntity
  8
22
 62
     2
100
AcDbText
 10
138.20000477
 20
15.70000209
 30
0.0
 40
3.299999999999999
  1
＝
 41
0.7575757575757578
  7
dcStyle0
 72
     5
 11
141.20000477
 21
15.70000209
 31
0.0
100
AcDbText
  0
TEXT
  5
FE
330
1F
100
AcDbEntity
  8
22
 62
     2
100
AcDbText
 10
143.20000485
 20
15.70000209
 30
0.0
 40
3.0
  1
 0.408
 41
0.8333333351851846
  7
dcStyle0
 72
     5
 11
158.20000505
 21
15.70000209
 31
0.0
100
AcDbText
  0
TEXT
  5
FF
330
1F
100
AcDbEntity
  8
22
 62
     2
100
AcDbText
 10
158.20000507
 20
15.70000209
 30
0.0
 40
3.299999999999999
  1
×
 41
0.7575757575757578
  7
dcStyle0
 72
     5
 11
161.20000507
 21
15.70000209
 31
0.0
100
AcDbText
  0
TEXT
  5
100
330
1F
100
AcDbEntity
  8
22
 62
     2
100
AcDbText
 10
161.20000511
 20
15.70000209
 30
0.0
 40
3.0
  1
Z
 41
0.8333333333333334
  7
dcStyle0
 72
     5
 11
163.70000511
 21
15.70000209
 31
0.0
100
AcDbText
  0
TEXT
  5
101
330
1F
100
AcDbEntity
  8
22
 62
     2
100
AcDbText
 10
69.20000374
 20
5.700001939999996
 30
0.0
 40
3.299999999999999
  1
Ｚ　＝　Ｎ　〔Ｚ〕　＝
 41
0.631313134698686
  7
dcStyle0
 72
     5
 11
96.70000414
 21
5.700001939999996
 31
0.0
100
AcDbText
  0
TEXT
  5
102
330
1F
100
AcDbEntity
  8
22
 62
     2
100
AcDbText
 10
96.70000415
 20
5.700001939999996
 30
0.0
 40
3.0
  1
 8 
 41
0.8333333355555551
  7
dcStyle0
 72
     5
 11
104.20000427
 21
5.700001939999996
 31
0.0
100
AcDbText
  0
TEXT
  5
103
330
1F
100
AcDbEntity
  8
22
 62
     2
100
AcDbText
 10
102.20000423
 20
5.700001939999996
 30
0.0
 40
3.299999999999999
  1
×
 41
0.7575757575757578
  7
dcStyle0
 72
     5
 11
105.20000423
 21
5.700001939999996
 31
0.0
100
AcDbText
  0
TEXT
  5
104
330
1F
100
AcDbEntity
  8
22
 62
     2
100
AcDbText
 10
105.20000428
 20
5.700001939999996
 30
0.0
 40
3.0
  1
  2.163
 41
0.8333333352380955
  7
dcStyle0
 72
     5
 11
122.70000452
 21
5.700001939999996
 31
0.0
100
AcDbText
  0
TEXT
  5
105
330
1F
100
AcDbEntity
  8
22
 62
     2
100
AcDbText
 10
122.60000454
 20
5.700001939999996
 30
0.0
 40
3.299999999999999
  1
×
 41
0.8333333333333328
  7
dcStyle0
 72
     5
 11
125.90000454
 21
5.700001939999996
 31
0.0
100
AcDbText
  0
TEXT
  5
106
330
1F
100
AcDbEntity
  8
22
 62
     2
100
AcDbText
 10
126.10000459
 20
5.700001939999996
 30
0.0
 40
3.0
  1
10
 41
0.83333333527778
  7
dcStyle0
 72
     5
 11
131.10000466
 21
5.700001939999996
 31
0.0
100
AcDbText
  0
TEXT
  5
107
330
1F
100
AcDbEntity
  8
22
 62
     2
100
AcDbText
 10
131.10000467
 20
7.700001969999997
 30
0.0
 40
1.8
  1
3
 41
0.8333333333333333
  7
dcStyle0
 72
     5
 11
132.60000467
 21
7.700001969999997
 31
0.0
100
AcDbText
  0
TEXT
  5
108
330
1F
100
AcDbEntity
  8
22
 62
     2
100
AcDbText
 10
133.6000047
 20
5.700001939999996
 30
0.0
 40
3.0
  1
=
  7
dcStyle0
 72
     5
 11
136.6000047
 21
5.700001939999996
 31
0.0
100
AcDbText
  0
TEXT
  5
109
330
1F
100
AcDbEntity
  8
22
 62
     2
100
AcDbText
 10
136.60000475
 20
5.700001939999996
 30
0.0
 40
3.0
  1
 17.30
 41
0.8333333351851846
  7
dcStyle0
 72
     5
 11
151.60000495
 21
5.700001939999996
 31
0.0
100
AcDbText
  0
TEXT
  5
10A
330
1F
100
AcDbEntity
  8
22
 62
     2
100
AcDbText
 10
151.50000497
 20
5.700001939999996
 30
0.0
 40
3.299999999999999
  1
×
 41
0.8333333333333364
  7
dcStyle0
 72
     5
 11
154.80000497
 21
5.700001939999996
 31
0.0
100
AcDbText
  0
TEXT
  5
10B
330
1F
100
AcDbEntity
  8
22
 62
     2
100
AcDbText
 10
155.00000502
 20
5.700001939999996
 30
0.0
 40
3.0
  1
10
 41
0.8333333352777776
  7
dcStyle0
 72
     5
 11
160.00000509
 21
5.700001939999996
 31
0.0
100
AcDbText
  0
TEXT
  5
10C
330
1F
100
AcDbEntity
  8
22
 62
     2
100
AcDbText
 10
160.0000051
 20
7.700001969999997
 30
0.0
 40
1.8
  1
3
 41
0.8333333333333333
  7
dcStyle0
 72
     5
 11
161.5000051
 21
7.700001969999997
 31
0.0
100
AcDbText
  0
TEXT
  5
10D
330
1F
100
AcDbEntity
  8
22
 62
     2
100
AcDbText
 10
64.20000367
 20
-2.299998180000002
 30
0.0
 40
3.299999999999999
  1
∴　Ｗ　＝
 41
0.6313131350372414
  7
dcStyle0
 72
     5
 11
76.70000387
 21
-2.299998180000002
 31
0.0
100
AcDbText
  0
TEXT
  5
10E
330
1F
100
AcDbEntity
  8
22
 62
     2
100
AcDbText
 10
76.70000385
 20
-2.299998180000003
 30
0.0
 40
3.0
  1
 0.408
 41
0.8333333351851854
  7
dcStyle0
 72
     5
 11
91.70000405
 21
-2.299998180000003
 31
0.0
100
AcDbText
  0
TEXT
  5
10F
330
1F
100
AcDbEntity
  8
22
 62
     2
100
AcDbText
 10
91.60000407999999
 20
-2.299998180000002
 30
0.0
 40
3.299999999999999
  1
×
 41
0.8333333333333328
  7
dcStyle0
 72
     5
 11
94.90000407999999
 21
-2.299998180000002
 31
0.0
100
AcDbText
  0
TEXT
  5
110
330
1F
100
AcDbEntity
  8
22
 62
     2
100
AcDbText
 10
95.10000413
 20
-2.299998180000003
 30
0.0
 40
3.0
  1
 17.30
 41
0.8333333351851854
  7
dcStyle0
 72
     5
 11
110.10000433
 21
-2.299998180000003
 31
0.0
100
AcDbText
  0
TEXT
  5
111
330
1F
100
AcDbEntity
  8
22
 62
     2
100
AcDbText
 10
110.00000435
 20
-2.299998180000002
 30
0.0
 40
3.299999999999999
  1
×
 41
0.8333333333333328
  7
dcStyle0
 72
     5
 11
113.30000435
 21
-2.299998180000002
 31
0.0
100
AcDbText
  0
TEXT
  5
112
330
1F
100
AcDbEntity
  8
22
 62
     2
100
AcDbText
 10
113.5000044
 20
-2.299998180000003
 30
0.0
 40
3.0
  1
10
 41
0.8333333352777776
  7
dcStyle0
 72
     5
 11
118.50000447
 21
-2.299998180000003
 31
0.0
100
AcDbText
  0
TEXT
  5
113
330
1F
100
AcDbEntity
  8
22
 62
     2
100
AcDbText
 10
118.50000448
 20
-0.2999981500000019
 30
0.0
 40
1.8
  1
3
 41
0.8333333333333333
  7
dcStyle0
 72
     5
 11
120.00000448
 21
-0.2999981500000019
 31
0.0
100
AcDbText
  0
TEXT
  5
114
330
1F
100
AcDbEntity
  8
22
 62
     2
100
AcDbText
 10
121.00000452
 20
-2.299998180000003
 30
0.0
 40
3.0
  1
=
  7
dcStyle0
 72
     5
 11
124.00000452
 21
-2.299998180000003
 31
0.0
100
AcDbText
  0
TEXT
  5
115
330
1F
100
AcDbEntity
  8
22
 62
     2
100
AcDbText
 10
124.00000456
 20
-2.299998180000003
 30
0.0
 40
3.0
  1
  7.06
 41
0.8333333351851846
  7
dcStyle0
 72
     5
 11
139.00000476
 21
-2.299998180000003
 31
0.0
100
AcDbText
  0
TEXT
  5
116
330
1F
100
AcDbEntity
  8
22
 62
     2
100
AcDbText
 10
138.90000478
 20
-2.299998180000002
 30
0.0
 40
3.299999999999999
  1
×
 41
0.8333333333333364
  7
dcStyle0
 72
     5
 11
142.20000478
 21
-2.299998180000002
 31
0.0
100
AcDbText
  0
TEXT
  5
117
330
1F
100
AcDbEntity
  8
22
 62
     2
100
AcDbText
 10
142.40000483
 20
-2.299998180000003
 30
0.0
 40
3.0
  1
10
 41
0.8333333352777776
  7
dcStyle0
 72
     5
 11
147.4000049
 21
-2.299998180000003
 31
0.0
100
AcDbText
  0
TEXT
  5
118
330
1F
100
AcDbEntity
  8
22
 62
     2
100
AcDbText
 10
147.40000491
 20
-0.2999981500000019
 30
0.0
 40
1.8
  1
3
 41
0.8333333333333333
  7
dcStyle0
 72
     5
 11
148.90000491
 21
-0.2999981500000019
 31
0.0
100
AcDbText
  0
TEXT
  5
119
330
1F
100
AcDbEntity
  8
22
 62
     2
100
AcDbText
 10
149.90000495
 20
-2.299998180000003
 30
0.0
 40
3.0
  1
(Kg)
 41
0.8333333354166671
  7
dcStyle0
 72
     5
 11
159.9000051
 21
-2.299998180000003
 31
0.0
100
AcDbText
  0
TEXT
  5
11A
330
1F
100
AcDbEntity
  8
22
 62
     2
100
AcDbText
 10
69.20000374
 20
-10.2999983
 30
0.0
 40
3.299999999999999
  1
Ｔ
 41
0.6313131313131315
  7
dcStyle0
 72
     5
 11
71.70000374
 21
-10.2999983
 31
0.0
100
AcDbText
  0
TEXT
  5
11B
330
1F
100
AcDbEntity
  8
22
 62
     2
100
AcDbText
 10
71.70000378
 20
-10.2999983
 30
0.0
 40
3.0
  1
 = 0.4
 41
0.8333333351851854
  7
dcStyle0
 72
     5
 11
86.70000398
 21
-10.2999983
 31
0.0
100
AcDbText
  0
TEXT
  5
11C
330
1F
100
AcDbEntity
  8
22
 62
     2
100
AcDbText
 10
86.70000399999999
 20
-8.299998270000001
 30
0.0
 40
1.8
  1
-1
 41
0.833333335185186
  7
dcStyle0
 72
     5
 11
89.70000404
 21
-8.299998270000001
 31
0.0
100
AcDbText
  0
TEXT
  5
11D
330
1F
100
AcDbEntity
  8
22
 62
     2
100
AcDbText
 10
90.60000405999999
 20
-10.2999983
 30
0.0
 40
3.299999999999999
  1
×
 41
0.8333333333333328
  7
dcStyle0
 72
     5
 11
93.90000405999999
 21
-10.2999983
 31
0.0
100
AcDbText
  0
TEXT
  5
11E
330
1F
100
AcDbEntity
  8
22
 62
     2
100
AcDbText
 10
94.10000411
 20
-10.2999983
 30
0.0
 40
3.0
  1
10
 41
0.8333333352777776
  7
dcStyle0
 72
     5
 11
99.10000418
 21
-10.2999983
 31
0.0
100
AcDbText
  0
TEXT
  5
11F
330
1F
100
AcDbEntity
  8
22
 62
     2
100
AcDbText
 10
99.10000419
 20
-8.299998270000001
 30
0.0
 40
1.8
  1
-3
 41
0.833333335185186
  7
dcStyle0
 72
     5
 11
102.10000423
 21
-8.299998270000001
 31
0.0
100
AcDbText
  0
TEXT
  5
120
330
1F
100
AcDbEntity
  8
22
 62
     2
100
AcDbText
 10
103.00000425
 20
-10.2999983
 30
0.0
 40
3.299999999999999
  1
×Ｗ
 41
0.8413461557530505
  7
dcStyle0
 72
     5
 11
110.00000435
 21
-10.2999983
 31
0.0
100
AcDbText
  0
TEXT
  5
121
330
1F
100
AcDbEntity
  8
22
 62
     2
100
AcDbText
 10
69.20000374
 20
-15.29999837
 30
0.0
 40
3.0
  1
  = 0.4
 41
0.8333333352380948
  7
dcStyle0
 72
     5
 11
86.70000397999999
 21
-15.29999837
 31
0.0
100
AcDbText
  0
TEXT
  5
122
330
1F
100
AcDbEntity
  8
22
 62
     2
100
AcDbText
 10
86.70000399999999
 20
-13.29999834
 30
0.0
 40
1.8
  1
-1
 41
0.833333335185186
  7
dcStyle0
 72
     5
 11
89.70000404
 21
-13.29999834
 31
0.0
100
AcDbText
  0
TEXT
  5
123
330
1F
100
AcDbEntity
  8
22
 62
     2
100
AcDbText
 10
90.60000405999999
 20
-15.29999837
 30
0.0
 40
3.299999999999999
  1
×
 41
0.8333333333333328
  7
dcStyle0
 72
     5
 11
93.90000405999999
 21
-15.29999837
 31
0.0
100
AcDbText
  0
TEXT
  5
124
330
1F
100
AcDbEntity
  8
22
 62
     2
100
AcDbText
 10
94.10000411
 20
-15.29999837
 30
0.0
 40
3.0
  1
10
 41
0.8333333352777776
  7
dcStyle0
 72
     5
 11
99.10000418
 21
-15.29999837
 31
0.0
100
AcDbText
  0
TEXT
  5
125
330
1F
100
AcDbEntity
  8
22
 62
     2
100
AcDbText
 10
99.10000419
 20
-13.29999834
 30
0.0
 40
1.8
  1
-3
 41
0.833333335185186
  7
dcStyle0
 72
     5
 11
102.10000423
 21
-13.29999834
 31
0.0
100
AcDbText
  0
TEXT
  5
126
330
1F
100
AcDbEntity
  8
22
 62
     2
100
AcDbText
 10
103.00000425
 20
-15.29999837
 30
0.0
 40
3.299999999999999
  1
×
 41
0.8333333333333328
  7
dcStyle0
 72
     5
 11
106.30000425
 21
-15.29999837
 31
0.0
100
AcDbText
  0
TEXT
  5
127
330
1F
100
AcDbEntity
  8
22
 62
     2
100
AcDbText
 10
106.5000043
 20
-15.29999837
 30
0.0
 40
3.0
  1
  7.06
 41
0.8333333351851854
  7
dcStyle0
 72
     5
 11
121.5000045
 21
-15.29999837
 31
0.0
100
AcDbText
  0
TEXT
  5
128
330
1F
100
AcDbEntity
  8
22
 62
     2
100
AcDbText
 10
121.40000452
 20
-15.29999837
 30
0.0
 40
3.299999999999999
  1
×
 41
0.8333333333333328
  7
dcStyle0
 72
     5
 11
124.70000452
 21
-15.29999837
 31
0.0
100
AcDbText
  0
TEXT
  5
129
330
1F
100
AcDbEntity
  8
22
 62
     2
100
AcDbText
 10
124.90000457
 20
-15.29999837
 30
0.0
 40
3.0
  1
10
 41
0.8333333352777776
  7
dcStyle0
 72
     5
 11
129.90000464
 21
-15.29999837
 31
0.0
100
AcDbText
  0
TEXT
  5
12A
330
1F
100
AcDbEntity
  8
22
 62
     2
100
AcDbText
 10
129.90000465
 20
-13.29999834
 30
0.0
 40
1.8
  1
3
 41
0.8333333333333333
  7
dcStyle0
 72
     5
 11
131.40000465
 21
-13.29999834
 31
0.0
100
AcDbText
  0
TEXT
  5
12B
330
1F
100
AcDbEntity
  8
22
 62
     2
100
AcDbText
 10
69.20000374
 20
-20.29999844
 30
0.0
 40
3.0
  1
  =
 41
0.8333333355555551
  7
dcStyle0
 72
     5
 11
76.70000386
 21
-20.29999844
 31
0.0
100
AcDbText
  0
TEXT
  5
12C
330
1F
100
AcDbEntity
  8
22
 62
     2
100
AcDbText
 10
76.70000385
 20
-20.29999844
 30
0.0
 40
3.0
  1
 17.6
 41
0.8333333355555557
  7
dcStyle0
 72
     5
 11
89.20000405
 21
-20.29999844
 31
0.0
100
AcDbText
  0
TEXT
  5
12D
330
1F
100
AcDbEntity
  8
22
 62
     2
100
AcDbText
 10
89.95000404999999
 20
-20.29999844
 30
0.0
 40
3.0
  1
>
  7
dcStyle0
 72
     5
 11
92.95000404999999
 21
-20.29999844
 31
0.0
100
AcDbText
  0
TEXT
  5
12E
330
1F
100
AcDbEntity
  8
22
 62
     2
100
AcDbText
 10
93.4500041
 20
-20.29999844
 30
0.0
 40
3.0
  1
 14 
 41
0.8333333354166671
  7
dcStyle0
 72
     5
 11
103.45000425
 21
-20.29999844
 31
0.0
100
AcDbText
  0
TEXT
  5
12F
330
1F
100
AcDbEntity
  8
22
 62
     2
100
AcDbText
 10
84.10000396999999
 20
-58.29999901
 30
0.0
 40
3.299999999999999
  1
以上より　
 41
0.8413461559818788
  7
dcStyle0
 72
     5
 11
101.60000425
 21
-58.29999901
 31
0.0
100
AcDbText
  0
TEXT
  5
130
330
1F
100
AcDbEntity
  8
22
 62
     2
100
AcDbText
 10
101.60000423
 20
-58.29999901
 30
0.0
 40
3.5
  1
Ｔ－
 41
0.8333333353174596
  7
dcStyle0
 72
     5
 11
108.60000433
 21
-58.29999901
 31
0.0
100
AcDbText
  0
TEXT
  5
131
330
1F
100
AcDbEntity
  8
22
 62
     2
100
AcDbText
 10
108.60000433
 20
-58.29999901
 30
0.0
 40
3.0
  1
 14 
 41
0.8333333354166671
  7
dcStyle0
 72
     5
 11
118.60000448
 21
-58.29999901
 31
0.0
100
AcDbText
  0
TEXT
  5
132
330
1F
100
AcDbEntity
  8
22
 62
     2
100
AcDbText
 10
118.50000448
 20
-58.29999901
 30
0.0
 40
3.299999999999999
  1
となる
 41
0.8413461558801787
  7
dcStyle0
 72
     5
 11
129.00000464
 21
-58.29999901
 31
0.0
100
AcDbText
  0
TEXT
  5
133
330
1F
100
AcDbEntity
  8
22
 62
     2
100
AcDbText
 10
-107.0916317104308
 20
87.76663579192093
 30
0.0
 40
2.5
  1
ベアリングバー：
 41
0.8333333352777776
  7
dcStyle0
 72
     5
 11
-87.09163143043082
 21
87.76663579192093
 31
0.0
100
AcDbText
  0
TEXT
  5
134
330
1F
100
AcDbEntity
  8
22
 62
     2
100
AcDbText
 10
-87.09163142043082
 20
87.76663579192093
 30
0.0
 40
2.5
  1
Y-
 41
0.9999999999999998
  7
dcStyle0
 72
     5
 11
-82.09163135043082
 21
87.76663579192093
 31
0.0
100
AcDbText
  0
TEXT
  5
135
330
1F
100
AcDbEntity
  8
22
 62
     2
100
AcDbText
 10
-84.09163137043082
 20
87.76663579192093
 30
0.0
 40
2.5
  1
 44 
 41
1.0
  7
dcStyle0
 72
     5
 11
-74.09163122043081
 21
87.76663579192093
 31
0.0
100
AcDbText
  0
TEXT
  5
136
330
1F
100
AcDbEntity
  8
22
 62
     2
100
AcDbText
 10
-76.59163126043083
 20
87.76663579192093
 30
0.0
 40
2.5
  1
×
 41
0.8333333333333334
  7
dcStyle0
 72
     5
 11
-74.09163126043083
 21
87.76663579192093
 31
0.0
100
AcDbText
  0
TEXT
  5
137
330
1F
100
AcDbEntity
  8
22
 62
     2
100
AcDbText
 10
-74.09163122043081
 20
87.76663579192093
 30
0.0
 40
2.5
  1
20
 41
0.9999999999999998
  7
dcStyle0
 72
     5
 11
-69.09163115043081
 21
87.76663579192093
 31
0.0
100
AcDbText
  0
TEXT
  5
138
330
1F
100
AcDbEntity
  8
22
 62
     2
100
AcDbText
 10
-69.09163115043081
 20
87.76663579192093
 30
0.0
 40
2.5
  1
×
 41
0.8333333333333334
  7
dcStyle0
 72
     5
 11
-66.59163115043081
 21
87.76663579192093
 31
0.0
100
AcDbText
  0
TEXT
  5
139
330
1F
100
AcDbEntity
  8
22
 62
     2
100
AcDbText
 10
-68.5916311404308
 20
87.76663579192093
 30
0.0
 40
2.5
  1
 4.5 
 41
0.8000000025599998
  7
dcStyle0
 72
     5
 11
-58.59163098043081
 21
87.76663579192093
 31
0.0
100
AcDbText
  0
TEXT
  5
13A
330
1F
100
AcDbEntity
  8
22
 62
     2
100
AcDbText
 10
-103.3832981804308
 20
83.59996919192093
 30
0.0
 40
2.5
  1
ツイストバー：
 41
0.8333333352380948
  7
dcStyle0
 72
     5
 11
-85.88329794043082
 21
83.59996919192093
 31
0.0
100
AcDbText
  0
TEXT
  5
13B
330
1F
100
AcDbEntity
  8
22
 62
     2
100
AcDbText
 10
-85.8832979204308
 20
83.59996919192093
 30
0.0
 40
2.5
  1
φ
 41
0.8333333333333334
  7
dcStyle0
 72
     5
 11
-83.3832979204308
 21
83.59996919192093
 31
0.0
100
AcDbText
  0
TEXT
  5
13C
330
1F
100
AcDbEntity
  8
22
 62
     2
100
AcDbText
 10
-85.38329791043081
 20
83.59996919192093
 30
0.0
 40
2.5
  1
 10 
 41
1.0
  7
dcStyle0
 72
     5
 11
-75.3832977604308
 21
83.59996919192093
 31
0.0
100
AcDbText
  0
TEXT
  5
13D
330
1F
100
AcDbEntity
  8
22
 62
     2
100
AcDbText
 10
-75.3832977604308
 20
83.59996919192093
 30
0.0
 40
2.5
  1
絞りパイプ
 41
0.8333333355555557
  7
dcStyle0
 72
     5
 11
-62.8832975604308
 21
83.59996919192093
 31
0.0
100
AcDbText
  0
TEXT
  5
13E
330
1F
100
AcDbEntity
  8
22
 62
     2
100
AcDbText
 10
-96.09999657043082
 20
78.85000180192091
 30
0.0
 40
2.5
  1
エンドプレート：
 41
0.8333333352777776
  7
dcStyle0
 72
     5
 11
-76.09999629043082
 21
78.85000180192091
 31
0.0
100
AcDbText
  0
TEXT
  5
13F
330
1F
100
AcDbEntity
  8
22
 62
     2
100
AcDbText
 10
-76.09999627043081
 20
78.85000180192091
 30
0.0
 40
2.5
  1
FB
 41
0.9999999999999998
  7
dcStyle0
 72
     5
 11
-71.09999620043081
 21
78.85000180192091
 31
0.0
100
AcDbText
  0
TEXT
  5
140
330
1F
100
AcDbEntity
  8
22
 62
     2
100
AcDbText
 10
-73.09999623043083
 20
78.85000180192091
 30
0.0
 40
2.5
  1
 4.5 
 41
0.8000000025599998
  7
dcStyle0
 72
     5
 11
-63.09999607043083
 21
78.85000180192091
 31
0.0
100
AcDbText
  0
TEXT
  5
141
330
1F
100
AcDbEntity
  8
22
 62
     2
100
AcDbText
 10
-65.59999612043082
 20
78.85000180192091
 30
0.0
 40
2.5
  1
×
 41
0.8333333333333334
  7
dcStyle0
 72
     5
 11
-63.09999612043082
 21
78.85000180192091
 31
0.0
100
AcDbText
  0
TEXT
  5
142
330
1F
100
AcDbEntity
  8
22
 62
     2
100
AcDbText
 10
-65.09999611043082
 20
78.85000180192091
 30
0.0
 40
2.5
  1
 32 
 41
0.9999999999999998
  7
dcStyle0
 72
     5
 11
-55.09999596043082
 21
78.85000180192091
 31
0.0
100
AcDbText
  0
TEXT
  5
143
330
1F
100
AcDbEntity
  8
22
 62
     2
100
AcDbText
 10
-91.45000141043081
 20
-64.84999716807906
 30
0.0
 40
3.0
  1
 27.9 
 41
0.8333333351851854
  7
dcStyle0
 72
     5
 11
-76.45000121043081
 21
-64.84999716807906
 31
0.0
100
AcDbText
  0
TEXT
  5
144
330
1F
100
AcDbEntity
  8
22
 62
     2
100
AcDbText
 10
-99.04996650043081
 20
-57.84999706807907
 30
0.0
 40
3.0
  1
 494 
 41
0.8333333355555557
  7
dcStyle0
 72
     5
 11
-86.54996630043081
 21
-57.84999706807907
 31
0.0
100
AcDbText
  0
TEXT
  5
145
330
1F
100
AcDbEntity
  8
22
 62
     2
100
AcDbText
 10
-99.05003159043082
 20
-96.01666458807907
 30
0.0
 40
3.0
  1
 480 
 41
0.8333333355555557
  7
dcStyle0
 72
     5
 11
-86.55003139043082
 21
-96.01666458807907
 31
0.0
100
AcDbText
  0
TEXT
  5
146
330
1F
100
AcDbEntity
  8
22
 62
     2
100
AcDbText
 10
-134.5500001604308
 20
-51.34999697807906
 30
0.0
 40
2.7
  1
セラミック充填
 41
0.8474576289654043
  7
dcStyle0
 72
     5
 11
-113.5499998604308
 21
-51.34999697807906
 31
0.0
100
AcDbText
  0
TEXT
  5
147
330
1F
100
AcDbEntity
  8
22
 62
     2
100
AcDbText
 10
-12.13332411642444
 20
49.31667159672858
 30
0.0
 40
3.0
  1
 55 
 50
90.0000001836389
 41
0.8333333354166659
  7
dcStyle0
 72
     5
 11
-12.13332414847547
 21
59.31667174672857
 31
0.0
100
AcDbText
  0
TEXT
  5
148
330
1F
100
AcDbEntity
  8
22
 62
     2
100
AcDbText
 10
-12.13332411642444
 20
35.15003509672859
 30
0.0
 40
3.0
  1
 100 
 50
90.0000001836389
 41
0.8333333355555552
  7
dcStyle0
 72
     5
 11
-12.13332415648823
 21
47.65003529672858
 31
0.0
100
AcDbText
  0
TEXT
  5
149
330
1F
100
AcDbEntity
  8
22
 62
     2
100
AcDbText
 10
-19.13332421642444
 20
10.15000078672858
 30
0.0
 40
3.0
  1
 510 
 50
90.0000001836389
 41
0.8333333355555556
  7
dcStyle0
 72
     5
 11
-19.13332425648823
 21
22.65000098672858
 31
0.0
100
AcDbText
  0
TEXT
  5
14A
330
1F
100
AcDbEntity
  8
22
 62
     2
100
AcDbText
 10
22.03334334357556
 20
10.15000076672858
 30
0.0
 40
3.0
  1
 498 
 50
90.0000001836389
 41
0.8333333355555556
  7
dcStyle0
 72
     5
 11
22.03334330351176
 21
22.65000096672858
 31
0.0
100
AcDbText
  0
TEXT
  5
14B
330
1F
100
AcDbEntity
  8
22
 62
     2
100
AcDbText
 10
27.03334342437683
 20
8.900000746728583
 30
0.0
 40
3.0
  1
嵩上材外寸
 50
90.0000001836389
 41
0.8333333355555556
  7
dcStyle0
 72
     5
 11
27.03334337630028
 21
23.90000098672858
 31
0.0
100
AcDbText
  0
TEXT
  5
14C
330
1F
100
AcDbEntity
  8
22
 62
     2
100
AcDbText
 10
-3.96665709043082
 20
77.65000177192093
 30
0.0
 40
2.5
  1
□－
 41
0.6666666699999999
  7
dcStyle0
 72
     5
 11
0.0333429695691798
 21
77.65000177192093
 31
0.0
100
AcDbText
  0
TEXT
  5
14D
330
1F
100
AcDbEntity
  8
22
 62
     2
100
AcDbText
 10
0.0333429695691798
 20
77.65000177192093
 30
0.0
 40
2.5
  1
3.2
 41
0.6000000031999999
  7
dcStyle0
 72
     5
 11
4.533343029569179
 21
77.65000177192093
 31
0.0
100
AcDbText
  0
TEXT
  5
14E
330
1F
100
AcDbEntity
  8
22
 62
     2
100
AcDbText
 10
4.533343039569179
 20
77.65000177192093
 30
0.0
 40
2.5
  1
×
 41
0.6666666666666666
  7
dcStyle0
 72
     5
 11
6.533343039569179
 21
77.65000177192093
 31
0.0
100
AcDbText
  0
TEXT
  5
14F
330
1F
100
AcDbEntity
  8
22
 62
     2
100
AcDbText
 10
4.533343039569179
 20
77.65000177192093
 30
0.0
 40
2.5
  1
 65 
 41
0.8000000023999999
  7
dcStyle0
 72
     5
 11
12.53334315956918
 21
77.65000177192093
 31
0.0
100
AcDbText
  0
TEXT
  5
150
330
1F
100
AcDbEntity
  8
22
 62
     2
100
AcDbText
 10
10.53334312956918
 20
77.65000177192093
 30
0.0
 40
2.5
  1
×
 41
0.6666666666666666
  7
dcStyle0
 72
     5
 11
12.53334312956918
 21
77.65000177192093
 31
0.0
100
AcDbText
  0
TEXT
  5
151
330
1F
100
AcDbEntity
  8
22
 62
     2
100
AcDbText
 10
10.53334312956918
 20
77.65000177192093
 30
0.0
 40
2.5
  1
 40 
 41
0.8000000023999999
  7
dcStyle0
 72
     5
 11
18.53334324956918
 21
77.65000177192093
 31
0.0
100
AcDbText
  0
TEXT
  5
152
330
1F
100
AcDbEntity
  8
22
 62
     2
100
AcDbText
 10
-7.96665401043082
 20
-40.60000124807907
 30
0.0
 40
3.0
  1
 44 
 41
0.8333333354166667
  7
dcStyle0
 72
     5
 11
2.03334613956918
 21
-40.60000124807907
 31
0.0
100
AcDbText
  0
TEXT
  5
153
330
1F
100
AcDbEntity
  8
22
 62
     2
100
AcDbText
 10
-3.79999402043082
 20
-47.60000135807907
 30
0.0
 40
3.0
  1
 109 
 41
0.8333333355555556
  7
dcStyle0
 72
     5
 11
8.700006179569181
 21
-47.60000135807907
 31
0.0
100
AcDbText
  0
TEXT
  5
154
330
1F
100
AcDbEntity
  8
22
 62
     2
100
AcDbText
 10
24.20000306956918
 20
-77.69999923807907
 30
0.0
 40
3.0
  1
本体重量：
 41
0.6944444478395061
  7
dcStyle0
 72
     5
 11
36.70000326956918
 21
-77.69999923807907
 31
0.0
100
AcDbText
  0
TEXT
  5
155
330
1F
100
AcDbEntity
  8
22
 62
     2
100
AcDbText
 10
36.70000325956918
 20
-77.69999923807907
 30
0.0
 40
3.0
  1
 23.5
 41
0.666666670222222
  7
dcStyle0
 72
     5
 11
46.70000341956918
 21
-77.69999923807907
 31
0.0
100
AcDbText
  0
TEXT
  5
156
330
1F
100
AcDbEntity
  8
22
 62
     2
100
AcDbText
 10
46.70000340956918
 20
-77.69999923807907
 30
0.0
 40
3.0
  1
Kg
 41
0.6666666699999997
  7
dcStyle0
 72
     5
 11
50.70000346956918
 21
-77.69999923807907
 31
0.0
100
AcDbText
  0
TEXT
  5
157
330
1F
100
AcDbEntity
  8
22
 62
     2
100
AcDbText
 10
38.15000327956918
 20
-94.09999948807906
 30
0.0
 40
3.0
  1
戸田　
 41
0.8536585384889945
  7
dcStyle0
 72
     5
 11
48.65000343956918
 21
-94.09999948807906
 31
0.0
100
AcDbText
  0
LINE
  5
158
330
1F
100
AcDbEntity
  8
32
  6
Continuous
 62
     4
370
    25
100
AcDbLine
 10
-10.7999974489212
 20
-87.49999938905239
 30
0.0
 11
-10.7999974489212
 21
-88.16666607558727
 31
0.0
  0
LINE
  5
159
330
1F
100
AcDbEntity
  8
32
  6
Continuous
 62
     4
370
    25
100
AcDbLine
 10
-10.7999974489212
 20
-88.16666607558727
 30
0.0
 11
-9.799997419118881
 21
-88.16666607558727
 31
0.0
  0
LINE
  5
15A
330
1F
100
AcDbEntity
  8
32
  6
Continuous
 62
     4
370
    25
100
AcDbLine
 10
-9.799997419118881
 20
-88.16666607558727
 30
0.0
 11
-8.466664046049118
 21
-90.49999947845936
 31
0.0
  0
LINE
  5
15B
330
1F
100
AcDbEntity
  8
32
  6
Continuous
 62
     4
370
    25
100
AcDbLine
 10
-8.466664046049118
 20
-90.49999947845936
 30
0.0
 11
-8.466664046049118
 21
-91.49999950826168
 31
0.0
  0
LINE
  5
15C
330
1F
100
AcDbEntity
  8
32
  6
Continuous
 62
     4
370
    25
100
AcDbLine
 10
-8.466664046049118
 20
-91.49999950826168
 30
0.0
 11
-8.133330702781677
 21
-91.83333285152912
 31
0.0
  0
LINE
  5
15D
330
1F
100
AcDbEntity
  8
32
  6
Continuous
 62
     4
370
    25
100
AcDbLine
 10
-8.133330702781677
 20
-91.83333285152912
 30
0.0
 11
-8.133330702781677
 21
-102.1666664928198
 31
0.0
  0
LINE
  5
15E
330
1F
100
AcDbEntity
  8
32
  6
Continuous
 62
     4
370
    25
100
AcDbLine
 10
-8.133330702781677
 20
-102.1666664928198
 30
0.0
 11
-6.799997329711914
 21
-102.1666664928198
 31
0.0
  0
LINE
  5
15F
330
1F
100
AcDbEntity
  8
32
  6
Continuous
 62
     4
370
    25
100
AcDbLine
 10
-6.799997329711914
 20
-102.1666664928198
 30
0.0
 11
-6.799997329711914
 21
-91.83333285152912
 31
0.0
  0
LINE
  5
160
330
1F
100
AcDbEntity
  8
32
  6
Continuous
 62
     4
370
    25
100
AcDbLine
 10
-6.799997329711914
 20
-91.83333285152912
 30
0.0
 11
-6.466663986444473
 21
-91.49999950826168
 31
0.0
  0
LINE
  5
161
330
1F
100
AcDbEntity
  8
32
  6
Continuous
 62
     4
370
    25
100
AcDbLine
 10
-6.466663986444473
 20
-91.49999950826168
 30
0.0
 11
-6.466663986444473
 21
-90.49999947845936
 31
0.0
  0
LINE
  5
162
330
1F
100
AcDbEntity
  8
32
  6
Continuous
 62
     4
370
    25
100
AcDbLine
 10
-6.466663986444473
 20
-90.49999947845936
 30
0.0
 11
-5.13333061337471
 21
-88.16666607558727
 31
0.0
  0
LINE
  5
163
330
1F
100
AcDbEntity
  8
32
  6
Continuous
 62
     4
370
    25
100
AcDbLine
 10
-5.13333061337471
 20
-88.16666607558727
 30
0.0
 11
-4.133330583572388
 21
-88.16666607558727
 31
0.0
  0
LINE
  5
164
330
1F
100
AcDbEntity
  8
32
  6
Continuous
 62
     4
370
    25
100
AcDbLine
 10
-4.133330583572388
 20
-88.16666607558727
 30
0.0
 11
-4.133330583572388
 21
-87.49999938905239
 31
0.0
  0
LINE
  5
165
330
1F
100
AcDbEntity
  8
32
  6
Continuous
 62
     4
370
    25
100
AcDbLine
 10
-4.133330583572388
 20
-87.49999938905239
 30
0.0
 11
-5.466663956642151
 21
-87.49999938905239
 31
0.0
  0
LINE
  5
166
330
1F
100
AcDbEntity
  8
32
  6
Continuous
 62
     4
370
    25
100
AcDbLine
 10
-5.466663956642151
 20
-87.49999938905239
 30
0.0
 11
-7.466664016246796
 21
-89.49999944865704
 31
0.0
  0
LINE
  5
167
330
1F
100
AcDbEntity
  8
32
  6
Continuous
 62
     4
370
    25
100
AcDbLine
 10
-7.466664016246796
 20
-89.49999944865704
 30
0.0
 11
-9.46666407585144
 21
-87.49999938905239
 31
0.0
  0
LINE
  5
168
330
1F
100
AcDbEntity
  8
32
  6
Continuous
 62
     4
370
    25
100
AcDbLine
 10
-9.46666407585144
 20
-87.49999938905239
 30
0.0
 11
-10.7999974489212
 21
-87.49999938905239
 31
0.0
  0
CIRCLE
  5
169
330
1F
100
AcDbEntity
  8
32
  6
Continuous
 62
     4
370
    25
100
AcDbCircle
 10
-7.466664016246796
 20
-88.49999941885471
 30
0.0
 40
0.6666666865348816
  0
ARC
  5
16A
330
1F
100
AcDbEntity
  8
32
  6
Continuous
 62
     4
370
    25
100
AcDbCircle
 10
-7.500348327283586
 20
-92.06772632602278
 30
0.0
 40
5.000000149011612
100
AcDbArc
 50
66.00000000000014
 51
113.0000000000003
  0
LINE
  5
16B
330
1F
100
AcDbEntity
  8
32
  6
Continuous
 62
     4
370
    25
100
AcDbLine
 10
-9.466667465368957
 20
-86.99999938160181
 30
0.0
 11
-9.466667465368957
 21
-82.99999932199717
 31
0.0
  0
LINE
  5
16C
330
1F
100
AcDbEntity
  8
32
  6
Continuous
 62
     4
370
    25
100
AcDbLine
 10
-9.466667465368957
 20
-83.99999933689833
 30
0.0
 11
-11.46666749517128
 21
-83.69999933242798
 31
0.0
  0
LINE
  5
16D
330
1F
100
AcDbEntity
  8
32
  6
Continuous
 62
     4
370
    25
100
AcDbLine
 10
-11.46666749517128
 20
-83.69999933242798
 30
0.0
 11
-11.46666749517128
 21
-84.29999934136868
 31
0.0
  0
LINE
  5
16E
330
1F
100
AcDbEntity
  8
32
  6
Continuous
 62
     4
370
    25
100
AcDbLine
 10
-11.46666749517128
 20
-84.29999934136868
 30
0.0
 11
-9.466667465368957
 21
-83.99999933689833
 31
0.0
  0
LINE
  5
16F
330
1F
100
AcDbEntity
  8
32
  6
Continuous
 62
     4
370
    25
100
AcDbLine
 10
-9.466667465368957
 20
-83.99999933689833
 30
0.0
 11
-12.46666751007244
 21
-83.99999933689833
 31
0.0
  0
LINE
  5
170
330
1F
100
AcDbEntity
  8
32
  6
Continuous
 62
     4
370
    25
100
AcDbLine
 10
-9.466667465368957
 20
-83.99999933689833
 30
0.0
 11
-5.466667405764312
 21
-83.99999933689833
 31
0.0
  0
LINE
  5
171
330
1F
100
AcDbEntity
  8
32
  6
Continuous
 62
     4
370
    25
100
AcDbLine
 10
-5.466667405764312
 20
-83.99999933689833
 30
0.0
 11
-3.46666737596199
 21
-83.69999933242798
 31
0.0
  0
LINE
  5
172
330
1F
100
AcDbEntity
  8
32
  6
Continuous
 62
     4
370
    25
100
AcDbLine
 10
-3.46666737596199
 20
-83.69999933242798
 30
0.0
 11
-3.46666737596199
 21
-84.29999934136868
 31
0.0
  0
LINE
  5
173
330
1F
100
AcDbEntity
  8
32
  6
Continuous
 62
     4
370
    25
100
AcDbLine
 10
-3.46666737596199
 20
-84.29999934136868
 30
0.0
 11
-5.466667405764312
 21
-83.99999933689833
 31
0.0
  0
LINE
  5
174
330
1F
100
AcDbEntity
  8
32
  6
Continuous
 62
     4
370
    25
100
AcDbLine
 10
-5.466667405764312
 20
-83.99999933689833
 30
0.0
 11
-2.466667361060828
 21
-83.99999933689833
 31
0.0
  0
LINE
  5
175
330
1F
100
AcDbEntity
  8
32
  6
Continuous
 62
     4
370
    25
100
AcDbLine
 10
-5.466667405764312
 20
-82.99999932199717
 30
0.0
 11
-5.466667405764312
 21
-86.99999938160181
 31
0.0
  0
LINE
  5
176
330
1F
100
AcDbEntity
  8
32
  6
Continuous
 62
     4
370
    25
100
AcDbLine
 10
-7.799997404217716
 20
-86.99999938160181
 30
0.0
 11
-8.166664418081446
 21
-85.43332932194069
 31
0.0
  0
LINE
  5
177
330
1F
100
AcDbEntity
  8
32
  6
Continuous
 62
     4
370
    25
100
AcDbLine
 10
-7.799997404217716
 20
-86.99999938160181
 30
0.0
 11
-8.966667457918373
 21
-84.99999935179949
 31
0.0
  0
LINE
  5
178
330
1F
100
AcDbEntity
  8
32
  6
Continuous
 62
     4
370
    25
100
AcDbLine
 10
-11.73333753546089
 20
-80.29999928176403
 30
0.0
 11
-12.90000758916154
 21
-78.29999925196171
 31
0.0
  0
LINE
  5
179
330
1F
100
AcDbEntity
  8
32
  6
Continuous
 62
     4
370
    25
100
AcDbLine
 10
-21.23333748628705
 20
-78.29999925196171
 30
0.0
 11
-12.90000758916154
 21
-78.29999925196171
 31
0.0
  0
LINE
  5
17A
330
1F
100
AcDbEntity
  8
32
  6
Continuous
 62
     4
370
    25
100
AcDbLine
 10
-7.132992999747326
 20
-87.83330017526896
 30
0.0
 11
-6.899660004670359
 21
-86.2333001514271
 31
0.0
  0
LINE
  5
17B
330
1F
100
AcDbEntity
  8
32
  6
Continuous
 62
     4
370
    25
100
AcDbLine
 10
-7.132992999747326
 20
-87.83330017526896
 30
0.0
 11
-5.999663019175312
 21
-85.83330014546664
 31
0.0
  0
LINE
  5
17C
330
1F
100
AcDbEntity
  8
32
  6
Continuous
 62
     4
370
    25
100
AcDbLine
 10
-3.532992946103146
 20
-82.16663024524794
 30
0.0
 11
-1.099662946159622
 21
-77.96663018266307
 31
0.0
  0
LINE
  5
17D
330
1F
100
AcDbEntity
  8
32
  6
Continuous
 62
     4
370
    25
100
AcDbLine
 10
-1.099662946159622
 20
-77.96663018266307
 30
0.0
 11
6.233666936064726
 21
-77.96663018266307
 31
0.0
  0
LINE
  5
17E
330
1F
100
AcDbEntity
  8
32
  6
Continuous
 62
     4
370
    25
100
AcDbLine
 10
-10.7999974489212
 20
-86.99999938160181
 30
0.0
 11
-10.7999974489212
 21
-84.79999934881926
 31
0.0
  0
LINE
  5
17F
330
1F
100
AcDbEntity
  8
32
  6
Continuous
 62
     4
370
    25
100
AcDbLine
 10
-10.7999974489212
 20
-83.1999993249774
 30
0.0
 11
-10.7999974489212
 21
-76.9999992325902
 31
0.0
  0
LINE
  5
180
330
1F
100
AcDbEntity
  8
32
  6
Continuous
 62
     4
370
    25
100
AcDbLine
 10
-10.7999974489212
 20
-77.99999924749136
 30
0.0
 11
-8.799997419118881
 21
-77.69999924302101
 31
0.0
  0
LINE
  5
181
330
1F
100
AcDbEntity
  8
32
  6
Continuous
 62
     4
370
    25
100
AcDbLine
 10
-8.799997419118881
 20
-78.29999925196171
 30
0.0
 11
-8.799997419118881
 21
-77.69999924302101
 31
0.0
  0
LINE
  5
182
330
1F
100
AcDbEntity
  8
32
  6
Continuous
 62
     4
370
    25
100
AcDbLine
 10
-8.799997419118881
 20
-78.29999925196171
 30
0.0
 11
-10.7999974489212
 21
-77.99999924749136
 31
0.0
  0
LINE
  5
183
330
1F
100
AcDbEntity
  8
32
  6
Continuous
 62
     4
370
    25
100
AcDbLine
 10
-10.7999974489212
 20
-77.99999924749136
 30
0.0
 11
-4.133327122529295
 21
-77.99999924749136
 31
0.0
  0
LINE
  5
184
330
1F
100
AcDbEntity
  8
32
  6
Continuous
 62
     4
370
    25
100
AcDbLine
 10
-4.133327122529295
 20
-77.99999924749136
 30
0.0
 11
-6.133327152331617
 21
-77.69999924302101
 31
0.0
  0
LINE
  5
185
330
1F
100
AcDbEntity
  8
32
  6
Continuous
 62
     4
370
    25
100
AcDbLine
 10
-6.133327152331617
 20
-78.29999925196171
 30
0.0
 11
-6.133327152331617
 21
-77.69999924302101
 31
0.0
  0
LINE
  5
186
330
1F
100
AcDbEntity
  8
32
  6
Continuous
 62
     4
370
    25
100
AcDbLine
 10
-6.133327152331617
 20
-78.29999925196171
 30
0.0
 11
-4.133327122529295
 21
-77.99999924749136
 31
0.0
  0
LINE
  5
187
330
1F
100
AcDbEntity
  8
32
  6
Continuous
 62
     4
370
    25
100
AcDbLine
 10
-4.133327122529295
 20
-86.99999938160181
 30
0.0
 11
-4.133327122529295
 21
-84.79999934881926
 31
0.0
  0
LINE
  5
188
330
1F
100
AcDbEntity
  8
32
  6
Continuous
 62
     4
370
    25
100
AcDbLine
 10
-4.133327122529295
 20
-83.1999993249774
 30
0.0
 11
-4.133327122529295
 21
-76.9999992325902
 31
0.0
  0
LINE
  5
189
330
1F
100
AcDbEntity
  8
32
  6
Continuous
 62
     4
370
    25
100
AcDbLine
 10
-15.29999751597643
 20
-87.49999938905239
 30
0.0
 11
-11.29999745637178
 21
-87.49999938905239
 31
0.0
  0
LINE
  5
18A
330
1F
100
AcDbEntity
  8
32
  6
Continuous
 62
     4
370
    25
100
AcDbLine
 10
-14.29999750107527
 20
-87.49999938905239
 30
0.0
 11
-14.59999750554562
 21
-85.49999935925007
 31
0.0
  0
LINE
  5
18B
330
1F
100
AcDbEntity
  8
32
  6
Continuous
 62
     4
370
    25
100
AcDbLine
 10
-14.59999750554562
 20
-85.49999935925007
 30
0.0
 11
-13.99999749660492
 21
-85.49999935925007
 31
0.0
  0
LINE
  5
18C
330
1F
100
AcDbEntity
  8
32
  6
Continuous
 62
     4
370
    25
100
AcDbLine
 10
-13.99999749660492
 20
-85.49999935925007
 30
0.0
 11
-14.29999750107527
 21
-87.49999938905239
 31
0.0
  0
LINE
  5
18D
330
1F
100
AcDbEntity
  8
32
  6
Continuous
 62
     4
370
    25
100
AcDbLine
 10
-14.29999750107527
 20
-87.49999938905239
 30
0.0
 11
-14.29999750107527
 21
-84.49999934434891
 31
0.0
  0
LINE
  5
18E
330
1F
100
AcDbEntity
  8
32
  6
Continuous
 62
     4
370
    25
100
AcDbLine
 10
-14.29999750107527
 20
-89.49999941885471
 30
0.0
 11
-14.29999750107527
 21
-87.49999938905239
 31
0.0
  0
LINE
  5
18F
330
1F
100
AcDbEntity
  8
32
  6
Continuous
 62
     4
370
    25
100
AcDbLine
 10
-14.59999750554562
 20
-91.49999944865704
 30
0.0
 11
-14.29999750107527
 21
-89.49999941885471
 31
0.0
  0
LINE
  5
190
330
1F
100
AcDbEntity
  8
32
  6
Continuous
 62
     4
370
    25
100
AcDbLine
 10
-14.59999750554562
 20
-91.49999944865704
 30
0.0
 11
-13.99999749660492
 21
-91.49999944865704
 31
0.0
  0
LINE
  5
191
330
1F
100
AcDbEntity
  8
32
  6
Continuous
 62
     4
370
    25
100
AcDbLine
 10
-13.99999749660492
 20
-91.49999944865704
 30
0.0
 11
-14.29999750107527
 21
-89.49999941885471
 31
0.0
  0
LINE
  5
192
330
1F
100
AcDbEntity
  8
32
  6
Continuous
 62
     4
370
    25
100
AcDbLine
 10
-14.29999750107527
 20
-92.4999994635582
 30
0.0
 11
-14.29999750107527
 21
-89.49999941885471
 31
0.0
  0
LINE
  5
193
330
1F
100
AcDbEntity
  8
32
  6
Continuous
 62
     4
370
    25
100
AcDbLine
 10
-15.29999751597643
 20
-89.49999941885471
 30
0.0
 11
-9.799997434020042
 21
-89.49999941885471
 31
0.0
  0
LINE
  5
194
330
1F
100
AcDbEntity
  8
32
  6
Continuous
 62
     4
370
    25
100
AcDbLine
 10
-3.633327115078714
 20
-87.49999938905239
 30
0.0
 11
2.366672974328253
 21
-87.49999938905239
 31
0.0
  0
LINE
  5
195
330
1F
100
AcDbEntity
  8
32
  6
Continuous
 62
     4
370
    25
100
AcDbLine
 10
1.066672954956744
 20
-89.49999941885471
 30
0.0
 11
1.366672959427092
 21
-87.49999938905239
 31
0.0
  0
LINE
  5
196
330
1F
100
AcDbEntity
  8
32
  6
Continuous
 62
     4
370
    25
100
AcDbLine
 10
1.066672954956744
 20
-89.49999941885471
 30
0.0
 11
1.66667296389744
 21
-89.49999941885471
 31
0.0
  0
LINE
  5
197
330
1F
100
AcDbEntity
  8
32
  6
Continuous
 62
     4
370
    25
100
AcDbLine
 10
1.66667296389744
 20
-89.49999941885471
 30
0.0
 11
1.366672959427092
 21
-87.49999938905239
 31
0.0
  0
LINE
  5
198
330
1F
100
AcDbEntity
  8
32
  6
Continuous
 62
     4
370
    25
100
AcDbLine
 10
1.366672959427092
 20
-102.1667003522322
 30
0.0
 11
1.366672959427092
 21
-87.49999938905239
 31
0.0
  0
LINE
  5
199
330
1F
100
AcDbEntity
  8
32
  6
Continuous
 62
     4
370
    25
100
AcDbLine
 10
1.366672959427092
 20
-102.1667003522322
 30
0.0
 11
1.066672954956744
 21
-100.1667003224298
 31
0.0
  0
LINE
  5
19A
330
1F
100
AcDbEntity
  8
32
  6
Continuous
 62
     4
370
    25
100
AcDbLine
 10
1.066672954956744
 20
-100.1667003224298
 30
0.0
 11
1.66667296389744
 21
-100.1667003224298
 31
0.0
  0
LINE
  5
19B
330
1F
100
AcDbEntity
  8
32
  6
Continuous
 62
     4
370
    25
100
AcDbLine
 10
1.66667296389744
 20
-100.1667003224298
 30
0.0
 11
1.366672959427092
 21
-102.1667003522322
 31
0.0
  0
LINE
  5
19C
330
1F
100
AcDbEntity
  8
32
  6
Continuous
 62
     4
370
    25
100
AcDbLine
 10
-5.633327144881036
 20
-102.1667003522322
 30
0.0
 11
2.366672974328253
 21
-102.1667003522322
 31
0.0
  0
LINE
  5
19D
330
1F
100
AcDbEntity
  8
32
  6
Continuous
 62
     4
370
    25
100
AcDbLine
 10
-8.133327372868806
 20
-107.6667004341886
 30
0.0
 11
-8.133327372868806
 21
-102.6667003596827
 31
0.0
  0
LINE
  5
19E
330
1F
100
AcDbEntity
  8
32
  6
Continuous
 62
     4
370
    25
100
AcDbLine
 10
-8.133327372868806
 20
-106.6667004192874
 30
0.0
 11
-10.13332740267113
 21
-106.366700414817
 31
0.0
  0
LINE
  5
19F
330
1F
100
AcDbEntity
  8
32
  6
Continuous
 62
     4
370
    25
100
AcDbLine
 10
-10.13332740267113
 20
-106.9667004237577
 30
0.0
 11
-10.13332740267113
 21
-106.366700414817
 31
0.0
  0
LINE
  5
1A0
330
1F
100
AcDbEntity
  8
32
  6
Continuous
 62
     4
370
    25
100
AcDbLine
 10
-10.13332740267113
 20
-106.9667004237577
 30
0.0
 11
-8.133327372868806
 21
-106.6667004192874
 31
0.0
  0
LINE
  5
1A1
330
1F
100
AcDbEntity
  8
32
  6
Continuous
 62
     4
370
    25
100
AcDbLine
 10
-11.13332741757229
 20
-106.6667004192874
 30
0.0
 11
-8.133327372868806
 21
-106.6667004192874
 31
0.0
  0
LINE
  5
1A2
330
1F
100
AcDbEntity
  8
32
  6
Continuous
 62
     4
370
    25
100
AcDbLine
 10
-8.133327372868806
 20
-106.6667004192874
 30
0.0
 11
-6.799997389316559
 21
-106.6667004192874
 31
0.0
  0
LINE
  5
1A3
330
1F
100
AcDbEntity
  8
32
  6
Continuous
 62
     4
370
    25
100
AcDbLine
 10
-6.799997389316559
 20
-106.6667004192874
 30
0.0
 11
-4.799997359514236
 21
-106.366700414817
 31
0.0
  0
LINE
  5
1A4
330
1F
100
AcDbEntity
  8
32
  6
Continuous
 62
     4
370
    25
100
AcDbLine
 10
-4.799997359514236
 20
-106.9667004237577
 30
0.0
 11
-4.799997359514236
 21
-106.366700414817
 31
0.0
  0
LINE
  5
1A5
330
1F
100
AcDbEntity
  8
32
  6
Continuous
 62
     4
370
    25
100
AcDbLine
 10
-4.799997359514236
 20
-106.9667004237577
 30
0.0
 11
-6.799997389316559
 21
-106.6667004192874
 31
0.0
  0
LINE
  5
1A6
330
1F
100
AcDbEntity
  8
32
  6
Continuous
 62
     4
370
    25
100
AcDbLine
 10
-6.799997389316559
 20
-106.6667004192874
 30
0.0
 11
-3.799997344613075
 21
-106.6667004192874
 31
0.0
  0
LINE
  5
1A7
330
1F
100
AcDbEntity
  8
32
  6
Continuous
 62
     4
370
    25
100
AcDbLine
 10
-6.799997389316559
 20
-107.6667004341886
 30
0.0
 11
-6.799997389316559
 21
-102.6667003596827
 31
0.0
  0
TEXT
  5
1A8
330
1F
100
AcDbEntity
  8
32
 62
     2
100
AcDbText
 10
-10.46666748
 20
-82.69999932
 30
0.0
 40
2.0
  1
12.5
 41
0.7500000028125
  7
dcStyle0
 72
     5
 11
-4.46666739
 21
-82.69999932
 31
0.0
100
AcDbText
  0
TEXT
  5
1A9
330
1F
100
AcDbEntity
  8
32
 62
     2
100
AcDbText
 10
-20.73333748
 20
-77.99999925
 30
0.0
 40
2.0
  1
ｾﾗﾐｯｸ
 41
0.7500000029999999
  7
dcStyle0
 72
     5
 11
-13.23333736
 21
-77.99999925
 31
0.0
100
AcDbText
  0
TEXT
  5
1AA
330
1F
100
AcDbEntity
  8
32
 62
     2
100
AcDbText
 10
-0.59966294
 20
-77.66663018
 30
0.0
 40
2.0
  1
剥離防止
 41
0.625000003515625
  7
dcStyle0
 72
     5
 11
5.40033715
 21
-77.66663018
 31
0.0
100
AcDbText
  0
TEXT
  5
1AB
330
1F
100
AcDbEntity
  8
32
 62
     2
100
AcDbText
 10
-0.7663327900000008
 20
-80.16663022
 30
0.0
 40
2.0
  1
スプリング
 41
0.5416666697222222
  7
dcStyle0
 72
     5
 11
5.73366729
 21
-80.16663022
 31
0.0
100
AcDbText
  0
TEXT
  5
1AC
330
1F
100
AcDbEntity
  8
32
 62
     2
100
AcDbText
 10
-8.96665735
 20
-76.99999923
 30
0.0
 40
2.0
  1
20
 41
0.7500000025
  7
dcStyle0
 72
     5
 11
-5.96665731
 21
-76.99999923
 31
0.0
100
AcDbText
  0
TEXT
  5
1AD
330
1F
100
AcDbEntity
  8
32
 62
     2
100
AcDbText
 10
-15.59999751759617
 20
-90.4999994267949
 30
0.0
 40
2.0
  1
6.5
 50
90.0000001836389
 41
0.7500000025000009
  7
dcStyle0
 72
     5
 11
-15.59999753201914
 21
-85.9999993667949
 31
0.0
100
AcDbText
  0
TEXT
  5
1AE
330
1F
100
AcDbEntity
  8
32
 62
     2
100
AcDbText
 10
0.8666729524038275
 20
-97.8333701267949
 30
0.0
 40
2.0
  1
 44 
 50
90.0000001836389
 41
0.7500000028125
  7
dcStyle0
 72
     5
 11
0.8666729331732065
 21
-91.8333700367949
 31
0.0
100
AcDbText
  0
TEXT
  5
1AF
330
1F
100
AcDbEntity
  8
32
 62
     2
100
AcDbText
 10
-6.79999739
 20
-105.96670041
 30
0.0
 40
2.0
  1
 4.5 
 41
0.750000003
  7
dcStyle0
 72
     5
 11
0.7000027300000005
 21
-105.96670041
 31
0.0
100
AcDbText
  0
LINE
  5
1B0
330
1F
100
AcDbEntity
  8
16
  6
Continuous
 62
     3
370
    25
100
AcDbLine
 10
-182.0
 20
-128.5
 30
0.0
 11
-178.9999999552965
 21
-128.5
 31
0.0
  0
LINE
  5
1B1
330
1F
100
AcDbEntity
  8
16
  6
Continuous
 62
     3
370
    25
100
AcDbLine
 10
-178.9999999552965
 20
-128.5
 30
0.0
 11
-178.9999999552965
 21
-125.4999999552965
 31
0.0
  0
LINE
  5
1B2
330
1F
100
AcDbEntity
  8
16
  6
Continuous
 62
     3
370
    25
100
AcDbLine
 10
-182.0
 20
-125.4999999552965
 30
0.0
 11
-178.9999999552965
 21
-125.4999999552965
 31
0.0
  0
LINE
  5
1B3
330
1F
100
AcDbEntity
  8
16
  6
Continuous
 62
     3
370
    25
100
AcDbLine
 10
-182.0
 20
-128.5
 30
0.0
 11
-182.0
 21
-125.4999999552965
 31
0.0
  0
LINE
  5
1B4
330
1F
100
AcDbEntity
  8
16
  6
Continuous
 62
     3
370
    25
100
AcDbLine
 10
-182.0
 20
-128.5
 30
0.0
 11
-178.9999999552965
 21
-128.5
 31
0.0
  0
LINE
  5
1B5
330
1F
100
AcDbEntity
  8
16
  6
Continuous
 62
     3
370
    25
100
AcDbLine
 10
-178.9999999552965
 20
-128.5
 30
0.0
 11
-178.9999999552965
 21
-125.4999999552965
 31
0.0
  0
LINE
  5
1B6
330
1F
100
AcDbEntity
  8
16
  6
Continuous
 62
     3
370
    25
100
AcDbLine
 10
-182.0
 20
-125.4999999552965
 30
0.0
 11
-178.9999999552965
 21
-125.4999999552965
 31
0.0
  0
LINE
  5
1B7
330
1F
100
AcDbEntity
  8
16
  6
Continuous
 62
     3
370
    25
100
AcDbLine
 10
-182.0
 20
-128.5
 30
0.0
 11
-182.0
 21
-125.4999999552965
 31
0.0
  0
LINE
  5
1B8
330
1F
100
AcDbEntity
  8
16
  6
Continuous
 62
     3
370
    25
100
AcDbLine
 10
-182.0
 20
-128.5
 30
0.0
 11
-178.9999999552965
 21
-128.5
 31
0.0
  0
LINE
  5
1B9
330
1F
100
AcDbEntity
  8
16
  6
Continuous
 62
     3
370
    25
100
AcDbLine
 10
-178.9999999552965
 20
-128.5
 30
0.0
 11
-178.9999999552965
 21
-125.4999999552965
 31
0.0
  0
LINE
  5
1BA
330
1F
100
AcDbEntity
  8
16
  6
Continuous
 62
     3
370
    25
100
AcDbLine
 10
-182.0
 20
-125.4999999552965
 30
0.0
 11
-178.9999999552965
 21
-125.4999999552965
 31
0.0
  0
LINE
  5
1BB
330
1F
100
AcDbEntity
  8
16
  6
Continuous
 62
     3
370
    25
100
AcDbLine
 10
-182.0
 20
-128.5
 30
0.0
 11
-182.0
 21
-125.4999999552965
 31
0.0
  0
LINE
  5
1BC
330
1F
100
AcDbEntity
  8
16
  6
Continuous
 62
     3
370
    25
100
AcDbLine
 10
-182.0
 20
-128.5
 30
0.0
 11
-178.9999999552965
 21
-128.5
 31
0.0
  0
LINE
  5
1BD
330
1F
100
AcDbEntity
  8
16
  6
Continuous
 62
     3
370
    25
100
AcDbLine
 10
-178.9999999552965
 20
-128.5
 30
0.0
 11
-178.9999999552965
 21
-125.4999999552965
 31
0.0
  0
LINE
  5
1BE
330
1F
100
AcDbEntity
  8
16
  6
Continuous
 62
     3
370
    25
100
AcDbLine
 10
-182.0
 20
-125.4999999552965
 30
0.0
 11
-178.9999999552965
 21
-125.4999999552965
 31
0.0
  0
LINE
  5
1BF
330
1F
100
AcDbEntity
  8
16
  6
Continuous
 62
     3
370
    25
100
AcDbLine
 10
-182.0
 20
-128.5
 30
0.0
 11
-182.0
 21
-125.4999999552965
 31
0.0
  0
LINE
  5
1C0
330
1F
100
AcDbEntity
  8
16
  6
Continuous
 62
     3
370
    25
100
AcDbLine
 10
-182.0
 20
-128.5
 30
0.0
 11
-178.9999999552965
 21
-128.5
 31
0.0
  0
LINE
  5
1C1
330
1F
100
AcDbEntity
  8
16
  6
Continuous
 62
     3
370
    25
100
AcDbLine
 10
-178.9999999552965
 20
-128.5
 30
0.0
 11
-178.9999999552965
 21
-125.4999999552965
 31
0.0
  0
LINE
  5
1C2
330
1F
100
AcDbEntity
  8
16
  6
Continuous
 62
     3
370
    25
100
AcDbLine
 10
-182.0
 20
-125.4999999552965
 30
0.0
 11
-178.9999999552965
 21
-125.4999999552965
 31
0.0
  0
LINE
  5
1C3
330
1F
100
AcDbEntity
  8
16
  6
Continuous
 62
     3
370
    25
100
AcDbLine
 10
-182.0
 20
-128.5
 30
0.0
 11
-182.0
 21
-125.4999999552965
 31
0.0
  0
LINE
  5
1C4
330
1F
100
AcDbEntity
  8
16
  6
Continuous
 62
     3
370
    25
100
AcDbLine
 10
-133.9666662419836
 20
58.90000150402375
 30
0.0
 11
-51.63333045492573
 21
58.90000150402375
 31
0.0
  0
LINE
  5
1C5
330
1F
100
AcDbEntity
  8
16
  6
Continuous
 62
     3
370
    25
100
AcDbLine
 10
-51.63333045492573
 20
58.15000148167201
 30
0.0
 11
-51.63333045492573
 21
58.90000150402375
 31
0.0
  0
LINE
  5
1C6
330
1F
100
AcDbEntity
  8
16
  6
Continuous
 62
     3
370
    25
100
AcDbLine
 10
-133.9666662419836
 20
58.15000148167201
 30
0.0
 11
-51.63333045492573
 21
58.15000148167201
 31
0.0
  0
LINE
  5
1C7
330
1F
100
AcDbEntity
  8
16
  6
Continuous
 62
     3
370
    25
100
AcDbLine
 10
-133.9666662419836
 20
58.15000148167201
 30
0.0
 11
-133.9666662419836
 21
58.90000150402375
 31
0.0
  0
LINE
  5
1C8
330
1F
100
AcDbEntity
  8
16
  6
Continuous
 62
     3
370
    25
100
AcDbLine
 10
-133.9666662419836
 20
-25.35000100682191
 30
0.0
 11
-51.63333045492573
 21
-25.35000100682191
 31
0.0
  0
LINE
  5
1C9
330
1F
100
AcDbEntity
  8
16
  6
Continuous
 62
     3
370
    25
100
AcDbLine
 10
-51.63333045492573
 20
-26.10000102917365
 30
0.0
 11
-51.63333045492573
 21
-25.35000100682191
 31
0.0
  0
LINE
  5
1CA
330
1F
100
AcDbEntity
  8
16
  6
Continuous
 62
     3
370
    25
100
AcDbLine
 10
-133.9666662419836
 20
-26.10000102917365
 30
0.0
 11
-51.63333045492573
 21
-26.10000102917365
 31
0.0
  0
LINE
  5
1CB
330
1F
100
AcDbEntity
  8
16
  6
Continuous
 62
     3
370
    25
100
AcDbLine
 10
-133.9666662419836
 20
-26.10000102917365
 30
0.0
 11
-133.9666662419836
 21
-25.35000100682191
 31
0.0
  0
LINE
  5
1CC
330
1F
100
AcDbEntity
  8
16
  6
Continuous
 62
     3
370
    25
100
AcDbLine
 10
-130.6333328093092
 20
50.31666791488715
 30
0.0
 11
-129.3166660875082
 21
50.31666791488715
 31
0.0
  0
LINE
  5
1CD
330
1F
100
AcDbEntity
  8
16
  6
Continuous
 62
     3
370
    25
100
AcDbLine
 10
-125.983333687981
 20
50.31666791488715
 30
0.0
 11
-124.6666669661801
 21
50.31666791488715
 31
0.0
  0
LINE
  5
1CE
330
1F
100
AcDbEntity
  8
16
  6
Continuous
 62
     3
370
    25
100
AcDbLine
 10
-121.3333294803897
 20
50.31666791488715
 30
0.0
 11
-120.0166627585887
 21
50.31666791488715
 31
0.0
  0
LINE
  5
1CF
330
1F
100
AcDbEntity
  8
16
  6
Continuous
 62
     3
370
    25
100
AcDbLine
 10
-116.6833303590615
 20
50.31666791488715
 30
0.0
 11
-115.3666636372605
 21
50.31666791488715
 31
0.0
  0
LINE
  5
1D0
330
1F
100
AcDbEntity
  8
16
  6
Continuous
 62
     3
370
    25
100
AcDbLine
 10
-112.0333312377334
 20
50.31666791488715
 30
0.0
 11
-110.7166645159324
 21
50.31666791488715
 31
0.0
  0
LINE
  5
1D1
330
1F
100
AcDbEntity
  8
16
  6
Continuous
 62
     3
370
    25
100
AcDbLine
 10
-107.3833321164052
 20
50.31666791488715
 30
0.0
 11
-106.0666653946042
 21
50.31666791488715
 31
0.0
  0
LINE
  5
1D2
330
1F
100
AcDbEntity
  8
16
  6
Continuous
 62
     3
370
    25
100
AcDbLine
 10
-102.733332995077
 20
50.31666791488715
 30
0.0
 11
-101.4166662732761
 21
50.31666791488715
 31
0.0
  0
LINE
  5
1D3
330
1F
100
AcDbEntity
  8
16
  6
Continuous
 62
     3
370
    25
100
AcDbLine
 10
-98.0833287874857
 20
50.31666791488715
 30
0.0
 11
-96.76666206568473
 21
50.31666791488715
 31
0.0
  0
LINE
  5
1D4
330
1F
100
AcDbEntity
  8
16
  6
Continuous
 62
     3
370
    25
100
AcDbLine
 10
-93.4333347524207
 20
50.31666791488715
 30
0.0
 11
-92.11666803061975
 21
50.31666791488715
 31
0.0
  0
LINE
  5
1D5
330
1F
100
AcDbEntity
  8
16
  6
Continuous
 62
     3
370
    25
100
AcDbLine
 10
-88.78333054482937
 20
50.31666791488715
 30
0.0
 11
-87.4666638230284
 21
50.31666791488715
 31
0.0
  0
LINE
  5
1D6
330
1F
100
AcDbEntity
  8
16
  6
Continuous
 62
     3
370
    25
100
AcDbLine
 10
-84.13332633723803
 20
50.31666791488715
 30
0.0
 11
-82.81665961543706
 21
50.31666791488715
 31
0.0
  0
LINE
  5
1D7
330
1F
100
AcDbEntity
  8
16
  6
Continuous
 62
     3
370
    25
100
AcDbLine
 10
-79.48333230217304
 20
50.31666791488715
 30
0.0
 11
-78.16666558037207
 21
50.31666791488715
 31
0.0
  0
LINE
  5
1D8
330
1F
100
AcDbEntity
  8
16
  6
Continuous
 62
     3
370
    25
100
AcDbLine
 10
-74.8333280945817
 20
50.31666791488715
 30
0.0
 11
-73.51666137278076
 21
50.31666791488715
 31
0.0
  0
LINE
  5
1D9
330
1F
100
AcDbEntity
  8
16
  6
Continuous
 62
     3
370
    25
100
AcDbLine
 10
-70.18333405951671
 20
50.31666791488715
 30
0.0
 11
-68.86666733771574
 21
50.31666791488715
 31
0.0
  0
LINE
  5
1DA
330
1F
100
AcDbEntity
  8
16
  6
Continuous
 62
     3
370
    25
100
AcDbLine
 10
-65.53332985192537
 20
50.31666791488715
 30
0.0
 11
-64.21666313012442
 21
50.31666791488715
 31
0.0
  0
LINE
  5
1DB
330
1F
100
AcDbEntity
  8
16
  6
Continuous
 62
     3
370
    25
100
AcDbLine
 10
-60.88332564433404
 20
50.31666791488715
 30
0.0
 11
-59.56665892253308
 21
50.31666791488715
 31
0.0
  0
LINE
  5
1DC
330
1F
100
AcDbEntity
  8
16
  6
Continuous
 62
     3
370
    25
100
AcDbLine
 10
-56.23333160926905
 20
50.31666791488715
 30
0.0
 11
-54.96666325181724
 21
50.31666791488715
 31
0.0
  0
LINE
  5
1DD
330
1F
100
AcDbEntity
  8
16
  6
Continuous
 62
     3
370
    25
100
AcDbLine
 10
-130.6333328093092
 20
49.15000121345111
 30
0.0
 11
-129.3166660875082
 21
49.15000121345111
 31
0.0
  0
LINE
  5
1DE
330
1F
100
AcDbEntity
  8
16
  6
Continuous
 62
     3
370
    25
100
AcDbLine
 10
-125.983333687981
 20
49.15000121345111
 30
0.0
 11
-124.6666669661801
 21
49.15000121345111
 31
0.0
  0
LINE
  5
1DF
330
1F
100
AcDbEntity
  8
16
  6
Continuous
 62
     3
370
    25
100
AcDbLine
 10
-121.3333294803897
 20
49.15000121345111
 30
0.0
 11
-120.0166627585887
 21
49.15000121345111
 31
0.0
  0
LINE
  5
1E0
330
1F
100
AcDbEntity
  8
16
  6
Continuous
 62
     3
370
    25
100
AcDbLine
 10
-116.6833303590615
 20
49.15000121345111
 30
0.0
 11
-115.3666636372605
 21
49.15000121345111
 31
0.0
  0
LINE
  5
1E1
330
1F
100
AcDbEntity
  8
16
  6
Continuous
 62
     3
370
    25
100
AcDbLine
 10
-112.0333312377334
 20
49.15000121345111
 30
0.0
 11
-110.7166645159324
 21
49.15000121345111
 31
0.0
  0
LINE
  5
1E2
330
1F
100
AcDbEntity
  8
16
  6
Continuous
 62
     3
370
    25
100
AcDbLine
 10
-107.3833321164052
 20
49.15000121345111
 30
0.0
 11
-106.0666653946042
 21
49.15000121345111
 31
0.0
  0
LINE
  5
1E3
330
1F
100
AcDbEntity
  8
16
  6
Continuous
 62
     3
370
    25
100
AcDbLine
 10
-102.733332995077
 20
49.15000121345111
 30
0.0
 11
-101.4166662732761
 21
49.15000121345111
 31
0.0
  0
LINE
  5
1E4
330
1F
100
AcDbEntity
  8
16
  6
Continuous
 62
     3
370
    25
100
AcDbLine
 10
-98.0833287874857
 20
49.15000121345111
 30
0.0
 11
-96.76666206568473
 21
49.15000121345111
 31
0.0
  0
LINE
  5
1E5
330
1F
100
AcDbEntity
  8
16
  6
Continuous
 62
     3
370
    25
100
AcDbLine
 10
-93.4333347524207
 20
49.15000121345111
 30
0.0
 11
-92.11666803061975
 21
49.15000121345111
 31
0.0
  0
LINE
  5
1E6
330
1F
100
AcDbEntity
  8
16
  6
Continuous
 62
     3
370
    25
100
AcDbLine
 10
-88.78333054482937
 20
49.15000121345111
 30
0.0
 11
-87.4666638230284
 21
49.15000121345111
 31
0.0
  0
LINE
  5
1E7
330
1F
100
AcDbEntity
  8
16
  6
Continuous
 62
     3
370
    25
100
AcDbLine
 10
-84.13332633723803
 20
49.15000121345111
 30
0.0
 11
-82.81665961543706
 21
49.15000121345111
 31
0.0
  0
LINE
  5
1E8
330
1F
100
AcDbEntity
  8
16
  6
Continuous
 62
     3
370
    25
100
AcDbLine
 10
-79.48333230217304
 20
49.15000121345111
 30
0.0
 11
-78.16666558037207
 21
49.15000121345111
 31
0.0
  0
LINE
  5
1E9
330
1F
100
AcDbEntity
  8
16
  6
Continuous
 62
     3
370
    25
100
AcDbLine
 10
-74.8333280945817
 20
49.15000121345111
 30
0.0
 11
-73.51666137278076
 21
49.15000121345111
 31
0.0
  0
LINE
  5
1EA
330
1F
100
AcDbEntity
  8
16
  6
Continuous
 62
     3
370
    25
100
AcDbLine
 10
-70.18333405951671
 20
49.15000121345111
 30
0.0
 11
-68.86666733771574
 21
49.15000121345111
 31
0.0
  0
LINE
  5
1EB
330
1F
100
AcDbEntity
  8
16
  6
Continuous
 62
     3
370
    25
100
AcDbLine
 10
-65.53332985192537
 20
49.15000121345111
 30
0.0
 11
-64.21666313012442
 21
49.15000121345111
 31
0.0
  0
LINE
  5
1EC
330
1F
100
AcDbEntity
  8
16
  6
Continuous
 62
     3
370
    25
100
AcDbLine
 10
-60.88332564433404
 20
49.15000121345111
 30
0.0
 11
-59.56665892253308
 21
49.15000121345111
 31
0.0
  0
LINE
  5
1ED
330
1F
100
AcDbEntity
  8
16
  6
Continuous
 62
     3
370
    25
100
AcDbLine
 10
-56.23333160926905
 20
49.15000121345111
 30
0.0
 11
-54.96666325181724
 21
49.15000121345111
 31
0.0
  0
LINE
  5
1EE
330
1F
100
AcDbEntity
  8
16
  6
Continuous
 62
     3
370
    25
100
AcDbLine
 10
-130.6333328093092
 20
33.65000075151511
 30
0.0
 11
-129.3166660875082
 21
33.65000075151511
 31
0.0
  0
LINE
  5
1EF
330
1F
100
AcDbEntity
  8
16
  6
Continuous
 62
     3
370
    25
100
AcDbLine
 10
-125.983333687981
 20
33.65000075151511
 30
0.0
 11
-124.6666669661801
 21
33.65000075151511
 31
0.0
  0
LINE
  5
1F0
330
1F
100
AcDbEntity
  8
16
  6
Continuous
 62
     3
370
    25
100
AcDbLine
 10
-121.3333294803897
 20
33.65000075151511
 30
0.0
 11
-120.0166627585887
 21
33.65000075151511
 31
0.0
  0
LINE
  5
1F1
330
1F
100
AcDbEntity
  8
16
  6
Continuous
 62
     3
370
    25
100
AcDbLine
 10
-116.6833303590615
 20
33.65000075151511
 30
0.0
 11
-115.3666636372605
 21
33.65000075151511
 31
0.0
  0
LINE
  5
1F2
330
1F
100
AcDbEntity
  8
16
  6
Continuous
 62
     3
370
    25
100
AcDbLine
 10
-112.0333312377334
 20
33.65000075151511
 30
0.0
 11
-110.7166645159324
 21
33.65000075151511
 31
0.0
  0
LINE
  5
1F3
330
1F
100
AcDbEntity
  8
16
  6
Continuous
 62
     3
370
    25
100
AcDbLine
 10
-107.3833321164052
 20
33.65000075151511
 30
0.0
 11
-106.0666653946042
 21
33.65000075151511
 31
0.0
  0
LINE
  5
1F4
330
1F
100
AcDbEntity
  8
16
  6
Continuous
 62
     3
370
    25
100
AcDbLine
 10
-102.733332995077
 20
33.65000075151511
 30
0.0
 11
-101.4166662732761
 21
33.65000075151511
 31
0.0
  0
LINE
  5
1F5
330
1F
100
AcDbEntity
  8
16
  6
Continuous
 62
     3
370
    25
100
AcDbLine
 10
-98.0833287874857
 20
33.65000075151511
 30
0.0
 11
-96.76666206568473
 21
33.65000075151511
 31
0.0
  0
LINE
  5
1F6
330
1F
100
AcDbEntity
  8
16
  6
Continuous
 62
     3
370
    25
100
AcDbLine
 10
-93.4333347524207
 20
33.65000075151511
 30
0.0
 11
-92.11666803061975
 21
33.65000075151511
 31
0.0
  0
LINE
  5
1F7
330
1F
100
AcDbEntity
  8
16
  6
Continuous
 62
     3
370
    25
100
AcDbLine
 10
-88.78333054482937
 20
33.65000075151511
 30
0.0
 11
-87.4666638230284
 21
33.65000075151511
 31
0.0
  0
LINE
  5
1F8
330
1F
100
AcDbEntity
  8
16
  6
Continuous
 62
     3
370
    25
100
AcDbLine
 10
-84.13332633723803
 20
33.65000075151511
 30
0.0
 11
-82.81665961543706
 21
33.65000075151511
 31
0.0
  0
LINE
  5
1F9
330
1F
100
AcDbEntity
  8
16
  6
Continuous
 62
     3
370
    25
100
AcDbLine
 10
-79.48333230217304
 20
33.65000075151511
 30
0.0
 11
-78.16666558037207
 21
33.65000075151511
 31
0.0
  0
LINE
  5
1FA
330
1F
100
AcDbEntity
  8
16
  6
Continuous
 62
     3
370
    25
100
AcDbLine
 10
-74.8333280945817
 20
33.65000075151511
 30
0.0
 11
-73.51666137278076
 21
33.65000075151511
 31
0.0
  0
LINE
  5
1FB
330
1F
100
AcDbEntity
  8
16
  6
Continuous
 62
     3
370
    25
100
AcDbLine
 10
-70.18333405951671
 20
33.65000075151511
 30
0.0
 11
-68.86666733771574
 21
33.65000075151511
 31
0.0
  0
LINE
  5
1FC
330
1F
100
AcDbEntity
  8
16
  6
Continuous
 62
     3
370
    25
100
AcDbLine
 10
-65.53332985192537
 20
33.65000075151511
 30
0.0
 11
-64.21666313012442
 21
33.65000075151511
 31
0.0
  0
LINE
  5
1FD
330
1F
100
AcDbEntity
  8
16
  6
Continuous
 62
     3
370
    25
100
AcDbLine
 10
-60.88332564433404
 20
33.65000075151511
 30
0.0
 11
-59.56665892253308
 21
33.65000075151511
 31
0.0
  0
LINE
  5
1FE
330
1F
100
AcDbEntity
  8
16
  6
Continuous
 62
     3
370
    25
100
AcDbLine
 10
-56.23333160926905
 20
33.65000075151511
 30
0.0
 11
-54.96666325181724
 21
33.65000075151511
 31
0.0
  0
LINE
  5
1FF
330
1F
100
AcDbEntity
  8
16
  6
Continuous
 62
     3
370
    25
100
AcDbLine
 10
-130.6333328093092
 20
32.48333405007907
 30
0.0
 11
-129.3166660875082
 21
32.48333405007907
 31
0.0
  0
LINE
  5
200
330
1F
100
AcDbEntity
  8
16
  6
Continuous
 62
     3
370
    25
100
AcDbLine
 10
-125.983333687981
 20
32.48333405007907
 30
0.0
 11
-124.6666669661801
 21
32.48333405007907
 31
0.0
  0
LINE
  5
201
330
1F
100
AcDbEntity
  8
16
  6
Continuous
 62
     3
370
    25
100
AcDbLine
 10
-121.3333294803897
 20
32.48333405007907
 30
0.0
 11
-120.0166627585887
 21
32.48333405007907
 31
0.0
  0
LINE
  5
202
330
1F
100
AcDbEntity
  8
16
  6
Continuous
 62
     3
370
    25
100
AcDbLine
 10
-116.6833303590615
 20
32.48333405007907
 30
0.0
 11
-115.3666636372605
 21
32.48333405007907
 31
0.0
  0
LINE
  5
203
330
1F
100
AcDbEntity
  8
16
  6
Continuous
 62
     3
370
    25
100
AcDbLine
 10
-112.0333312377334
 20
32.48333405007907
 30
0.0
 11
-110.7166645159324
 21
32.48333405007907
 31
0.0
  0
LINE
  5
204
330
1F
100
AcDbEntity
  8
16
  6
Continuous
 62
     3
370
    25
100
AcDbLine
 10
-107.3833321164052
 20
32.48333405007907
 30
0.0
 11
-106.0666653946042
 21
32.48333405007907
 31
0.0
  0
LINE
  5
205
330
1F
100
AcDbEntity
  8
16
  6
Continuous
 62
     3
370
    25
100
AcDbLine
 10
-102.733332995077
 20
32.48333405007907
 30
0.0
 11
-101.4166662732761
 21
32.48333405007907
 31
0.0
  0
LINE
  5
206
330
1F
100
AcDbEntity
  8
16
  6
Continuous
 62
     3
370
    25
100
AcDbLine
 10
-98.0833287874857
 20
32.48333405007907
 30
0.0
 11
-96.76666206568473
 21
32.48333405007907
 31
0.0
  0
LINE
  5
207
330
1F
100
AcDbEntity
  8
16
  6
Continuous
 62
     3
370
    25
100
AcDbLine
 10
-93.4333347524207
 20
32.48333405007907
 30
0.0
 11
-92.11666803061975
 21
32.48333405007907
 31
0.0
  0
LINE
  5
208
330
1F
100
AcDbEntity
  8
16
  6
Continuous
 62
     3
370
    25
100
AcDbLine
 10
-88.78333054482937
 20
32.48333405007907
 30
0.0
 11
-87.4666638230284
 21
32.48333405007907
 31
0.0
  0
LINE
  5
209
330
1F
100
AcDbEntity
  8
16
  6
Continuous
 62
     3
370
    25
100
AcDbLine
 10
-84.13332633723803
 20
32.48333405007907
 30
0.0
 11
-82.81665961543706
 21
32.48333405007907
 31
0.0
  0
LINE
  5
20A
330
1F
100
AcDbEntity
  8
16
  6
Continuous
 62
     3
370
    25
100
AcDbLine
 10
-79.48333230217304
 20
32.48333405007907
 30
0.0
 11
-78.16666558037207
 21
32.48333405007907
 31
0.0
  0
LINE
  5
20B
330
1F
100
AcDbEntity
  8
16
  6
Continuous
 62
     3
370
    25
100
AcDbLine
 10
-74.8333280945817
 20
32.48333405007907
 30
0.0
 11
-73.51666137278076
 21
32.48333405007907
 31
0.0
  0
LINE
  5
20C
330
1F
100
AcDbEntity
  8
16
  6
Continuous
 62
     3
370
    25
100
AcDbLine
 10
-70.18333405951671
 20
32.48333405007907
 30
0.0
 11
-68.86666733771574
 21
32.48333405007907
 31
0.0
  0
LINE
  5
20D
330
1F
100
AcDbEntity
  8
16
  6
Continuous
 62
     3
370
    25
100
AcDbLine
 10
-65.53332985192537
 20
32.48333405007907
 30
0.0
 11
-64.21666313012442
 21
32.48333405007907
 31
0.0
  0
LINE
  5
20E
330
1F
100
AcDbEntity
  8
16
  6
Continuous
 62
     3
370
    25
100
AcDbLine
 10
-60.88332564433404
 20
32.48333405007907
 30
0.0
 11
-59.56665892253308
 21
32.48333405007907
 31
0.0
  0
LINE
  5
20F
330
1F
100
AcDbEntity
  8
16
  6
Continuous
 62
     3
370
    25
100
AcDbLine
 10
-56.23333160926905
 20
32.48333405007907
 30
0.0
 11
-54.96666325181724
 21
32.48333405007907
 31
0.0
  0
LINE
  5
210
330
1F
100
AcDbEntity
  8
16
  6
Continuous
 62
     3
370
    25
100
AcDbLine
 10
-130.6333328093092
 20
16.98333358814307
 30
0.0
 11
-129.3166660875082
 21
16.98333358814307
 31
0.0
  0
LINE
  5
211
330
1F
100
AcDbEntity
  8
16
  6
Continuous
 62
     3
370
    25
100
AcDbLine
 10
-125.983333687981
 20
16.98333358814307
 30
0.0
 11
-124.6666669661801
 21
16.98333358814307
 31
0.0
  0
LINE
  5
212
330
1F
100
AcDbEntity
  8
16
  6
Continuous
 62
     3
370
    25
100
AcDbLine
 10
-121.3333294803897
 20
16.98333358814307
 30
0.0
 11
-120.0166627585887
 21
16.98333358814307
 31
0.0
  0
LINE
  5
213
330
1F
100
AcDbEntity
  8
16
  6
Continuous
 62
     3
370
    25
100
AcDbLine
 10
-116.6833303590615
 20
16.98333358814307
 30
0.0
 11
-115.3666636372605
 21
16.98333358814307
 31
0.0
  0
LINE
  5
214
330
1F
100
AcDbEntity
  8
16
  6
Continuous
 62
     3
370
    25
100
AcDbLine
 10
-112.0333312377334
 20
16.98333358814307
 30
0.0
 11
-110.7166645159324
 21
16.98333358814307
 31
0.0
  0
LINE
  5
215
330
1F
100
AcDbEntity
  8
16
  6
Continuous
 62
     3
370
    25
100
AcDbLine
 10
-107.3833321164052
 20
16.98333358814307
 30
0.0
 11
-106.0666653946042
 21
16.98333358814307
 31
0.0
  0
LINE
  5
216
330
1F
100
AcDbEntity
  8
16
  6
Continuous
 62
     3
370
    25
100
AcDbLine
 10
-102.733332995077
 20
16.98333358814307
 30
0.0
 11
-101.4166662732761
 21
16.98333358814307
 31
0.0
  0
LINE
  5
217
330
1F
100
AcDbEntity
  8
16
  6
Continuous
 62
     3
370
    25
100
AcDbLine
 10
-98.0833287874857
 20
16.98333358814307
 30
0.0
 11
-96.76666206568473
 21
16.98333358814307
 31
0.0
  0
LINE
  5
218
330
1F
100
AcDbEntity
  8
16
  6
Continuous
 62
     3
370
    25
100
AcDbLine
 10
-93.4333347524207
 20
16.98333358814307
 30
0.0
 11
-92.11666803061975
 21
16.98333358814307
 31
0.0
  0
LINE
  5
219
330
1F
100
AcDbEntity
  8
16
  6
Continuous
 62
     3
370
    25
100
AcDbLine
 10
-88.78333054482937
 20
16.98333358814307
 30
0.0
 11
-87.4666638230284
 21
16.98333358814307
 31
0.0
  0
LINE
  5
21A
330
1F
100
AcDbEntity
  8
16
  6
Continuous
 62
     3
370
    25
100
AcDbLine
 10
-84.13332633723803
 20
16.98333358814307
 30
0.0
 11
-82.81665961543706
 21
16.98333358814307
 31
0.0
  0
LINE
  5
21B
330
1F
100
AcDbEntity
  8
16
  6
Continuous
 62
     3
370
    25
100
AcDbLine
 10
-79.48333230217304
 20
16.98333358814307
 30
0.0
 11
-78.16666558037207
 21
16.98333358814307
 31
0.0
  0
LINE
  5
21C
330
1F
100
AcDbEntity
  8
16
  6
Continuous
 62
     3
370
    25
100
AcDbLine
 10
-74.8333280945817
 20
16.98333358814307
 30
0.0
 11
-73.51666137278076
 21
16.98333358814307
 31
0.0
  0
LINE
  5
21D
330
1F
100
AcDbEntity
  8
16
  6
Continuous
 62
     3
370
    25
100
AcDbLine
 10
-70.18333405951671
 20
16.98333358814307
 30
0.0
 11
-68.86666733771574
 21
16.98333358814307
 31
0.0
  0
LINE
  5
21E
330
1F
100
AcDbEntity
  8
16
  6
Continuous
 62
     3
370
    25
100
AcDbLine
 10
-65.53332985192537
 20
16.98333358814307
 30
0.0
 11
-64.21666313012442
 21
16.98333358814307
 31
0.0
  0
LINE
  5
21F
330
1F
100
AcDbEntity
  8
16
  6
Continuous
 62
     3
370
    25
100
AcDbLine
 10
-60.88332564433404
 20
16.98333358814307
 30
0.0
 11
-59.56665892253308
 21
16.98333358814307
 31
0.0
  0
LINE
  5
220
330
1F
100
AcDbEntity
  8
16
  6
Continuous
 62
     3
370
    25
100
AcDbLine
 10
-56.23333160926905
 20
16.98333358814307
 30
0.0
 11
-54.96666325181724
 21
16.98333358814307
 31
0.0
  0
LINE
  5
221
330
1F
100
AcDbEntity
  8
16
  6
Continuous
 62
     3
370
    25
100
AcDbLine
 10
-130.6333328093092
 20
15.81666688670703
 30
0.0
 11
-129.3166660875082
 21
15.81666688670703
 31
0.0
  0
LINE
  5
222
330
1F
100
AcDbEntity
  8
16
  6
Continuous
 62
     3
370
    25
100
AcDbLine
 10
-125.983333687981
 20
15.81666688670703
 30
0.0
 11
-124.6666669661801
 21
15.81666688670703
 31
0.0
  0
LINE
  5
223
330
1F
100
AcDbEntity
  8
16
  6
Continuous
 62
     3
370
    25
100
AcDbLine
 10
-121.3333294803897
 20
15.81666688670703
 30
0.0
 11
-120.0166627585887
 21
15.81666688670703
 31
0.0
  0
LINE
  5
224
330
1F
100
AcDbEntity
  8
16
  6
Continuous
 62
     3
370
    25
100
AcDbLine
 10
-116.6833303590615
 20
15.81666688670703
 30
0.0
 11
-115.3666636372605
 21
15.81666688670703
 31
0.0
  0
LINE
  5
225
330
1F
100
AcDbEntity
  8
16
  6
Continuous
 62
     3
370
    25
100
AcDbLine
 10
-112.0333312377334
 20
15.81666688670703
 30
0.0
 11
-110.7166645159324
 21
15.81666688670703
 31
0.0
  0
LINE
  5
226
330
1F
100
AcDbEntity
  8
16
  6
Continuous
 62
     3
370
    25
100
AcDbLine
 10
-107.3833321164052
 20
15.81666688670703
 30
0.0
 11
-106.0666653946042
 21
15.81666688670703
 31
0.0
  0
LINE
  5
227
330
1F
100
AcDbEntity
  8
16
  6
Continuous
 62
     3
370
    25
100
AcDbLine
 10
-102.733332995077
 20
15.81666688670703
 30
0.0
 11
-101.4166662732761
 21
15.81666688670703
 31
0.0
  0
LINE
  5
228
330
1F
100
AcDbEntity
  8
16
  6
Continuous
 62
     3
370
    25
100
AcDbLine
 10
-98.0833287874857
 20
15.81666688670703
 30
0.0
 11
-96.76666206568473
 21
15.81666688670703
 31
0.0
  0
LINE
  5
229
330
1F
100
AcDbEntity
  8
16
  6
Continuous
 62
     3
370
    25
100
AcDbLine
 10
-93.4333347524207
 20
15.81666688670703
 30
0.0
 11
-92.11666803061975
 21
15.81666688670703
 31
0.0
  0
LINE
  5
22A
330
1F
100
AcDbEntity
  8
16
  6
Continuous
 62
     3
370
    25
100
AcDbLine
 10
-88.78333054482937
 20
15.81666688670703
 30
0.0
 11
-87.4666638230284
 21
15.81666688670703
 31
0.0
  0
LINE
  5
22B
330
1F
100
AcDbEntity
  8
16
  6
Continuous
 62
     3
370
    25
100
AcDbLine
 10
-84.13332633723803
 20
15.81666688670703
 30
0.0
 11
-82.81665961543706
 21
15.81666688670703
 31
0.0
  0
LINE
  5
22C
330
1F
100
AcDbEntity
  8
16
  6
Continuous
 62
     3
370
    25
100
AcDbLine
 10
-79.48333230217304
 20
15.81666688670703
 30
0.0
 11
-78.16666558037207
 21
15.81666688670703
 31
0.0
  0
LINE
  5
22D
330
1F
100
AcDbEntity
  8
16
  6
Continuous
 62
     3
370
    25
100
AcDbLine
 10
-74.8333280945817
 20
15.81666688670703
 30
0.0
 11
-73.51666137278076
 21
15.81666688670703
 31
0.0
  0
LINE
  5
22E
330
1F
100
AcDbEntity
  8
16
  6
Continuous
 62
     3
370
    25
100
AcDbLine
 10
-70.18333405951671
 20
15.81666688670703
 30
0.0
 11
-68.86666733771574
 21
15.81666688670703
 31
0.0
  0
LINE
  5
22F
330
1F
100
AcDbEntity
  8
16
  6
Continuous
 62
     3
370
    25
100
AcDbLine
 10
-65.53332985192537
 20
15.81666688670703
 30
0.0
 11
-64.21666313012442
 21
15.81666688670703
 31
0.0
  0
LINE
  5
230
330
1F
100
AcDbEntity
  8
16
  6
Continuous
 62
     3
370
    25
100
AcDbLine
 10
-60.88332564433404
 20
15.81666688670703
 30
0.0
 11
-59.56665892253308
 21
15.81666688670703
 31
0.0
  0
LINE
  5
231
330
1F
100
AcDbEntity
  8
16
  6
Continuous
 62
     3
370
    25
100
AcDbLine
 10
-56.23333160926905
 20
15.81666688670703
 30
0.0
 11
-54.96666325181724
 21
15.81666688670703
 31
0.0
  0
LINE
  5
232
330
1F
100
AcDbEntity
  8
16
  6
Continuous
 62
     3
370
    25
100
AcDbLine
 10
-130.6333328093092
 20
0.3166664247710286
 30
0.0
 11
-129.3166660875082
 21
0.3166664247710286
 31
0.0
  0
LINE
  5
233
330
1F
100
AcDbEntity
  8
16
  6
Continuous
 62
     3
370
    25
100
AcDbLine
 10
-125.983333687981
 20
0.3166664247710286
 30
0.0
 11
-124.6666669661801
 21
0.3166664247710286
 31
0.0
  0
LINE
  5
234
330
1F
100
AcDbEntity
  8
16
  6
Continuous
 62
     3
370
    25
100
AcDbLine
 10
-121.3333294803897
 20
0.3166664247710286
 30
0.0
 11
-120.0166627585887
 21
0.3166664247710286
 31
0.0
  0
LINE
  5
235
330
1F
100
AcDbEntity
  8
16
  6
Continuous
 62
     3
370
    25
100
AcDbLine
 10
-116.6833303590615
 20
0.3166664247710286
 30
0.0
 11
-115.3666636372605
 21
0.3166664247710286
 31
0.0
  0
LINE
  5
236
330
1F
100
AcDbEntity
  8
16
  6
Continuous
 62
     3
370
    25
100
AcDbLine
 10
-112.0333312377334
 20
0.3166664247710286
 30
0.0
 11
-110.7166645159324
 21
0.3166664247710286
 31
0.0
  0
LINE
  5
237
330
1F
100
AcDbEntity
  8
16
  6
Continuous
 62
     3
370
    25
100
AcDbLine
 10
-107.3833321164052
 20
0.3166664247710286
 30
0.0
 11
-106.0666653946042
 21
0.3166664247710286
 31
0.0
  0
LINE
  5
238
330
1F
100
AcDbEntity
  8
16
  6
Continuous
 62
     3
370
    25
100
AcDbLine
 10
-102.733332995077
 20
0.3166664247710286
 30
0.0
 11
-101.4166662732761
 21
0.3166664247710286
 31
0.0
  0
LINE
  5
239
330
1F
100
AcDbEntity
  8
16
  6
Continuous
 62
     3
370
    25
100
AcDbLine
 10
-98.0833287874857
 20
0.3166664247710286
 30
0.0
 11
-96.76666206568473
 21
0.3166664247710286
 31
0.0
  0
LINE
  5
23A
330
1F
100
AcDbEntity
  8
16
  6
Continuous
 62
     3
370
    25
100
AcDbLine
 10
-93.4333347524207
 20
0.3166664247710286
 30
0.0
 11
-92.11666803061975
 21
0.3166664247710286
 31
0.0
  0
LINE
  5
23B
330
1F
100
AcDbEntity
  8
16
  6
Continuous
 62
     3
370
    25
100
AcDbLine
 10
-88.78333054482937
 20
0.3166664247710286
 30
0.0
 11
-87.4666638230284
 21
0.3166664247710286
 31
0.0
  0
LINE
  5
23C
330
1F
100
AcDbEntity
  8
16
  6
Continuous
 62
     3
370
    25
100
AcDbLine
 10
-84.13332633723803
 20
0.3166664247710286
 30
0.0
 11
-82.81665961543706
 21
0.3166664247710286
 31
0.0
  0
LINE
  5
23D
330
1F
100
AcDbEntity
  8
16
  6
Continuous
 62
     3
370
    25
100
AcDbLine
 10
-79.48333230217304
 20
0.3166664247710286
 30
0.0
 11
-78.16666558037207
 21
0.3166664247710286
 31
0.0
  0
LINE
  5
23E
330
1F
100
AcDbEntity
  8
16
  6
Continuous
 62
     3
370
    25
100
AcDbLine
 10
-74.8333280945817
 20
0.3166664247710286
 30
0.0
 11
-73.51666137278076
 21
0.3166664247710286
 31
0.0
  0
LINE
  5
23F
330
1F
100
AcDbEntity
  8
16
  6
Continuous
 62
     3
370
    25
100
AcDbLine
 10
-70.18333405951671
 20
0.3166664247710286
 30
0.0
 11
-68.86666733771574
 21
0.3166664247710286
 31
0.0
  0
LINE
  5
240
330
1F
100
AcDbEntity
  8
16
  6
Continuous
 62
     3
370
    25
100
AcDbLine
 10
-65.53332985192537
 20
0.3166664247710286
 30
0.0
 11
-64.21666313012442
 21
0.3166664247710286
 31
0.0
  0
LINE
  5
241
330
1F
100
AcDbEntity
  8
16
  6
Continuous
 62
     3
370
    25
100
AcDbLine
 10
-60.88332564433404
 20
0.3166664247710286
 30
0.0
 11
-59.56665892253308
 21
0.3166664247710286
 31
0.0
  0
LINE
  5
242
330
1F
100
AcDbEntity
  8
16
  6
Continuous
 62
     3
370
    25
100
AcDbLine
 10
-56.23333160926905
 20
0.3166664247710286
 30
0.0
 11
-54.96666325181724
 21
0.3166664247710286
 31
0.0
  0
LINE
  5
243
330
1F
100
AcDbEntity
  8
16
  6
Continuous
 62
     3
370
    25
100
AcDbLine
 10
-130.6333328093092
 20
-0.8500002766650141
 30
0.0
 11
-129.3166660875082
 21
-0.8500002766650141
 31
0.0
  0
LINE
  5
244
330
1F
100
AcDbEntity
  8
16
  6
Continuous
 62
     3
370
    25
100
AcDbLine
 10
-125.983333687981
 20
-0.8500002766650141
 30
0.0
 11
-124.6666669661801
 21
-0.8500002766650141
 31
0.0
  0
LINE
  5
245
330
1F
100
AcDbEntity
  8
16
  6
Continuous
 62
     3
370
    25
100
AcDbLine
 10
-121.3333294803897
 20
-0.8500002766650141
 30
0.0
 11
-120.0166627585887
 21
-0.8500002766650141
 31
0.0
  0
LINE
  5
246
330
1F
100
AcDbEntity
  8
16
  6
Continuous
 62
     3
370
    25
100
AcDbLine
 10
-116.6833303590615
 20
-0.8500002766650141
 30
0.0
 11
-115.3666636372605
 21
-0.8500002766650141
 31
0.0
  0
LINE
  5
247
330
1F
100
AcDbEntity
  8
16
  6
Continuous
 62
     3
370
    25
100
AcDbLine
 10
-112.0333312377334
 20
-0.8500002766650141
 30
0.0
 11
-110.7166645159324
 21
-0.8500002766650141
 31
0.0
  0
LINE
  5
248
330
1F
100
AcDbEntity
  8
16
  6
Continuous
 62
     3
370
    25
100
AcDbLine
 10
-107.3833321164052
 20
-0.8500002766650141
 30
0.0
 11
-106.0666653946042
 21
-0.8500002766650141
 31
0.0
  0
LINE
  5
249
330
1F
100
AcDbEntity
  8
16
  6
Continuous
 62
     3
370
    25
100
AcDbLine
 10
-102.733332995077
 20
-0.8500002766650141
 30
0.0
 11
-101.4166662732761
 21
-0.8500002766650141
 31
0.0
  0
LINE
  5
24A
330
1F
100
AcDbEntity
  8
16
  6
Continuous
 62
     3
370
    25
100
AcDbLine
 10
-98.0833287874857
 20
-0.8500002766650141
 30
0.0
 11
-96.76666206568473
 21
-0.8500002766650141
 31
0.0
  0
LINE
  5
24B
330
1F
100
AcDbEntity
  8
16
  6
Continuous
 62
     3
370
    25
100
AcDbLine
 10
-93.4333347524207
 20
-0.8500002766650141
 30
0.0
 11
-92.11666803061975
 21
-0.8500002766650141
 31
0.0
  0
LINE
  5
24C
330
1F
100
AcDbEntity
  8
16
  6
Continuous
 62
     3
370
    25
100
AcDbLine
 10
-88.78333054482937
 20
-0.8500002766650141
 30
0.0
 11
-87.4666638230284
 21
-0.8500002766650141
 31
0.0
  0
LINE
  5
24D
330
1F
100
AcDbEntity
  8
16
  6
Continuous
 62
     3
370
    25
100
AcDbLine
 10
-84.13332633723803
 20
-0.8500002766650141
 30
0.0
 11
-82.81665961543706
 21
-0.8500002766650141
 31
0.0
  0
LINE
  5
24E
330
1F
100
AcDbEntity
  8
16
  6
Continuous
 62
     3
370
    25
100
AcDbLine
 10
-79.48333230217304
 20
-0.8500002766650141
 30
0.0
 11
-78.16666558037207
 21
-0.8500002766650141
 31
0.0
  0
LINE
  5
24F
330
1F
100
AcDbEntity
  8
16
  6
Continuous
 62
     3
370
    25
100
AcDbLine
 10
-74.8333280945817
 20
-0.8500002766650141
 30
0.0
 11
-73.51666137278076
 21
-0.8500002766650141
 31
0.0
  0
LINE
  5
250
330
1F
100
AcDbEntity
  8
16
  6
Continuous
 62
     3
370
    25
100
AcDbLine
 10
-70.18333405951671
 20
-0.8500002766650141
 30
0.0
 11
-68.86666733771574
 21
-0.8500002766650141
 31
0.0
  0
LINE
  5
251
330
1F
100
AcDbEntity
  8
16
  6
Continuous
 62
     3
370
    25
100
AcDbLine
 10
-65.53332985192537
 20
-0.8500002766650141
 30
0.0
 11
-64.21666313012442
 21
-0.8500002766650141
 31
0.0
  0
LINE
  5
252
330
1F
100
AcDbEntity
  8
16
  6
Continuous
 62
     3
370
    25
100
AcDbLine
 10
-60.88332564433404
 20
-0.8500002766650141
 30
0.0
 11
-59.56665892253308
 21
-0.8500002766650141
 31
0.0
  0
LINE
  5
253
330
1F
100
AcDbEntity
  8
16
  6
Continuous
 62
     3
370
    25
100
AcDbLine
 10
-56.23333160926905
 20
-0.8500002766650141
 30
0.0
 11
-54.96666325181724
 21
-0.8500002766650141
 31
0.0
  0
LINE
  5
254
330
1F
100
AcDbEntity
  8
16
  6
Continuous
 62
     3
370
    25
100
AcDbLine
 10
-130.6333328093092
 20
-16.35000073860101
 30
0.0
 11
-129.3166660875082
 21
-16.35000073860101
 31
0.0
  0
LINE
  5
255
330
1F
100
AcDbEntity
  8
16
  6
Continuous
 62
     3
370
    25
100
AcDbLine
 10
-125.983333687981
 20
-16.35000073860101
 30
0.0
 11
-124.6666669661801
 21
-16.35000073860101
 31
0.0
  0
LINE
  5
256
330
1F
100
AcDbEntity
  8
16
  6
Continuous
 62
     3
370
    25
100
AcDbLine
 10
-121.3333294803897
 20
-16.35000073860101
 30
0.0
 11
-120.0166627585887
 21
-16.35000073860101
 31
0.0
  0
LINE
  5
257
330
1F
100
AcDbEntity
  8
16
  6
Continuous
 62
     3
370
    25
100
AcDbLine
 10
-116.6833303590615
 20
-16.35000073860101
 30
0.0
 11
-115.3666636372605
 21
-16.35000073860101
 31
0.0
  0
LINE
  5
258
330
1F
100
AcDbEntity
  8
16
  6
Continuous
 62
     3
370
    25
100
AcDbLine
 10
-112.0333312377334
 20
-16.35000073860101
 30
0.0
 11
-110.7166645159324
 21
-16.35000073860101
 31
0.0
  0
LINE
  5
259
330
1F
100
AcDbEntity
  8
16
  6
Continuous
 62
     3
370
    25
100
AcDbLine
 10
-107.3833321164052
 20
-16.35000073860101
 30
0.0
 11
-106.0666653946042
 21
-16.35000073860101
 31
0.0
  0
LINE
  5
25A
330
1F
100
AcDbEntity
  8
16
  6
Continuous
 62
     3
370
    25
100
AcDbLine
 10
-102.733332995077
 20
-16.35000073860101
 30
0.0
 11
-101.4166662732761
 21
-16.35000073860101
 31
0.0
  0
LINE
  5
25B
330
1F
100
AcDbEntity
  8
16
  6
Continuous
 62
     3
370
    25
100
AcDbLine
 10
-98.0833287874857
 20
-16.35000073860101
 30
0.0
 11
-96.76666206568473
 21
-16.35000073860101
 31
0.0
  0
LINE
  5
25C
330
1F
100
AcDbEntity
  8
16
  6
Continuous
 62
     3
370
    25
100
AcDbLine
 10
-93.4333347524207
 20
-16.35000073860101
 30
0.0
 11
-92.11666803061975
 21
-16.35000073860101
 31
0.0
  0
LINE
  5
25D
330
1F
100
AcDbEntity
  8
16
  6
Continuous
 62
     3
370
    25
100
AcDbLine
 10
-88.78333054482937
 20
-16.35000073860101
 30
0.0
 11
-87.4666638230284
 21
-16.35000073860101
 31
0.0
  0
LINE
  5
25E
330
1F
100
AcDbEntity
  8
16
  6
Continuous
 62
     3
370
    25
100
AcDbLine
 10
-84.13332633723803
 20
-16.35000073860101
 30
0.0
 11
-82.81665961543706
 21
-16.35000073860101
 31
0.0
  0
LINE
  5
25F
330
1F
100
AcDbEntity
  8
16
  6
Continuous
 62
     3
370
    25
100
AcDbLine
 10
-79.48333230217304
 20
-16.35000073860101
 30
0.0
 11
-78.16666558037207
 21
-16.35000073860101
 31
0.0
  0
LINE
  5
260
330
1F
100
AcDbEntity
  8
16
  6
Continuous
 62
     3
370
    25
100
AcDbLine
 10
-74.8333280945817
 20
-16.35000073860101
 30
0.0
 11
-73.51666137278076
 21
-16.35000073860101
 31
0.0
  0
LINE
  5
261
330
1F
100
AcDbEntity
  8
16
  6
Continuous
 62
     3
370
    25
100
AcDbLine
 10
-70.18333405951671
 20
-16.35000073860101
 30
0.0
 11
-68.86666733771574
 21
-16.35000073860101
 31
0.0
  0
LINE
  5
262
330
1F
100
AcDbEntity
  8
16
  6
Continuous
 62
     3
370
    25
100
AcDbLine
 10
-65.53332985192537
 20
-16.35000073860101
 30
0.0
 11
-64.21666313012442
 21
-16.35000073860101
 31
0.0
  0
LINE
  5
263
330
1F
100
AcDbEntity
  8
16
  6
Continuous
 62
     3
370
    25
100
AcDbLine
 10
-60.88332564433404
 20
-16.35000073860101
 30
0.0
 11
-59.56665892253308
 21
-16.35000073860101
 31
0.0
  0
LINE
  5
264
330
1F
100
AcDbEntity
  8
16
  6
Continuous
 62
     3
370
    25
100
AcDbLine
 10
-56.23333160926905
 20
-16.35000073860101
 30
0.0
 11
-54.96666325181724
 21
-16.35000073860101
 31
0.0
  0
LINE
  5
265
330
1F
100
AcDbEntity
  8
16
  6
Continuous
 62
     3
370
    25
100
AcDbLine
 10
-130.6333328093092
 20
-17.51666744003705
 30
0.0
 11
-129.3166660875082
 21
-17.51666744003705
 31
0.0
  0
LINE
  5
266
330
1F
100
AcDbEntity
  8
16
  6
Continuous
 62
     3
370
    25
100
AcDbLine
 10
-125.983333687981
 20
-17.51666744003705
 30
0.0
 11
-124.6666669661801
 21
-17.51666744003705
 31
0.0
  0
LINE
  5
267
330
1F
100
AcDbEntity
  8
16
  6
Continuous
 62
     3
370
    25
100
AcDbLine
 10
-121.3333294803897
 20
-17.51666744003705
 30
0.0
 11
-120.0166627585887
 21
-17.51666744003705
 31
0.0
  0
LINE
  5
268
330
1F
100
AcDbEntity
  8
16
  6
Continuous
 62
     3
370
    25
100
AcDbLine
 10
-116.6833303590615
 20
-17.51666744003705
 30
0.0
 11
-115.3666636372605
 21
-17.51666744003705
 31
0.0
  0
LINE
  5
269
330
1F
100
AcDbEntity
  8
16
  6
Continuous
 62
     3
370
    25
100
AcDbLine
 10
-112.0333312377334
 20
-17.51666744003705
 30
0.0
 11
-110.7166645159324
 21
-17.51666744003705
 31
0.0
  0
LINE
  5
26A
330
1F
100
AcDbEntity
  8
16
  6
Continuous
 62
     3
370
    25
100
AcDbLine
 10
-107.3833321164052
 20
-17.51666744003705
 30
0.0
 11
-106.0666653946042
 21
-17.51666744003705
 31
0.0
  0
LINE
  5
26B
330
1F
100
AcDbEntity
  8
16
  6
Continuous
 62
     3
370
    25
100
AcDbLine
 10
-102.733332995077
 20
-17.51666744003705
 30
0.0
 11
-101.4166662732761
 21
-17.51666744003705
 31
0.0
  0
LINE
  5
26C
330
1F
100
AcDbEntity
  8
16
  6
Continuous
 62
     3
370
    25
100
AcDbLine
 10
-98.0833287874857
 20
-17.51666744003705
 30
0.0
 11
-96.76666206568473
 21
-17.51666744003705
 31
0.0
  0
LINE
  5
26D
330
1F
100
AcDbEntity
  8
16
  6
Continuous
 62
     3
370
    25
100
AcDbLine
 10
-93.4333347524207
 20
-17.51666744003705
 30
0.0
 11
-92.11666803061975
 21
-17.51666744003705
 31
0.0
  0
LINE
  5
26E
330
1F
100
AcDbEntity
  8
16
  6
Continuous
 62
     3
370
    25
100
AcDbLine
 10
-88.78333054482937
 20
-17.51666744003705
 30
0.0
 11
-87.4666638230284
 21
-17.51666744003705
 31
0.0
  0
LINE
  5
26F
330
1F
100
AcDbEntity
  8
16
  6
Continuous
 62
     3
370
    25
100
AcDbLine
 10
-84.13332633723803
 20
-17.51666744003705
 30
0.0
 11
-82.81665961543706
 21
-17.51666744003705
 31
0.0
  0
LINE
  5
270
330
1F
100
AcDbEntity
  8
16
  6
Continuous
 62
     3
370
    25
100
AcDbLine
 10
-79.48333230217304
 20
-17.51666744003705
 30
0.0
 11
-78.16666558037207
 21
-17.51666744003705
 31
0.0
  0
LINE
  5
271
330
1F
100
AcDbEntity
  8
16
  6
Continuous
 62
     3
370
    25
100
AcDbLine
 10
-74.8333280945817
 20
-17.51666744003705
 30
0.0
 11
-73.51666137278076
 21
-17.51666744003705
 31
0.0
  0
LINE
  5
272
330
1F
100
AcDbEntity
  8
16
  6
Continuous
 62
     3
370
    25
100
AcDbLine
 10
-70.18333405951671
 20
-17.51666744003705
 30
0.0
 11
-68.86666733771574
 21
-17.51666744003705
 31
0.0
  0
LINE
  5
273
330
1F
100
AcDbEntity
  8
16
  6
Continuous
 62
     3
370
    25
100
AcDbLine
 10
-65.53332985192537
 20
-17.51666744003705
 30
0.0
 11
-64.21666313012442
 21
-17.51666744003705
 31
0.0
  0
LINE
  5
274
330
1F
100
AcDbEntity
  8
16
  6
Continuous
 62
     3
370
    25
100
AcDbLine
 10
-60.88332564433404
 20
-17.51666744003705
 30
0.0
 11
-59.56665892253308
 21
-17.51666744003705
 31
0.0
  0
LINE
  5
275
330
1F
100
AcDbEntity
  8
16
  6
Continuous
 62
     3
370
    25
100
AcDbLine
 10
-56.23333160926905
 20
-17.51666744003705
 30
0.0
 11
-54.96666325181724
 21
-17.51666744003705
 31
0.0
  0
LINE
  5
276
330
1F
100
AcDbEntity
  8
16
  6
Continuous
 62
     3
370
    25
100
AcDbLine
 10
-133.9666662419836
 20
-25.35000100682191
 30
0.0
 11
-133.9666662419836
 21
58.15000148167201
 31
0.0
  0
LINE
  5
277
330
1F
100
AcDbEntity
  8
16
  6
Continuous
 62
     3
370
    25
100
AcDbLine
 10
-133.9666662419836
 20
-25.35000100682191
 30
0.0
 11
-130.6333328093092
 21
-25.35000100682191
 31
0.0
  0
LINE
  5
278
330
1F
100
AcDbEntity
  8
16
  6
Continuous
 62
     3
370
    25
100
AcDbLine
 10
-130.6333328093092
 20
-25.35000100682191
 30
0.0
 11
-130.6333328093092
 21
58.15000148167201
 31
0.0
  0
LINE
  5
279
330
1F
100
AcDbEntity
  8
16
  6
Continuous
 62
     3
370
    25
100
AcDbLine
 10
-133.9666662419836
 20
58.15000148167201
 30
0.0
 11
-130.6333328093092
 21
58.15000148167201
 31
0.0
  0
LINE
  5
27A
330
1F
100
AcDbEntity
  8
16
  6
Continuous
 62
     3
370
    25
100
AcDbLine
 10
-133.2999995554487
 20
-25.35000100682191
 30
0.0
 11
-133.2999995554487
 21
58.15000148167201
 31
0.0
  0
LINE
  5
27B
330
1F
100
AcDbEntity
  8
16
  6
Continuous
 62
     3
370
    25
100
AcDbLine
 10
-131.2999994958441
 20
-25.35000100682191
 30
0.0
 11
-131.2999994958441
 21
58.15000148167201
 31
0.0
  0
LINE
  5
27C
330
1F
100
AcDbEntity
  8
16
  6
Continuous
 62
     3
370
    25
100
AcDbLine
 10
-132.2999995256464
 20
-24.51666764865331
 30
0.0
 11
-132.2999995256464
 21
57.31666812350341
 31
0.0
  0
LINE
  5
27D
330
1F
100
AcDbEntity
  8
16
  6
Continuous
 62
     3
370
    25
100
AcDbLine
 10
-129.3166671206554
 20
-25.35000100682191
 30
0.0
 11
-129.3166671206554
 21
58.15000148167201
 31
0.0
  0
LINE
  5
27E
330
1F
100
AcDbEntity
  8
16
  6
Continuous
 62
     3
370
    25
100
AcDbLine
 10
-129.3166671206554
 20
-25.35000100682191
 30
0.0
 11
-125.983333687981
 21
-25.35000100682191
 31
0.0
  0
LINE
  5
27F
330
1F
100
AcDbEntity
  8
16
  6
Continuous
 62
     3
370
    25
100
AcDbLine
 10
-125.983333687981
 20
-25.35000100682191
 30
0.0
 11
-125.983333687981
 21
58.15000148167201
 31
0.0
  0
LINE
  5
280
330
1F
100
AcDbEntity
  8
16
  6
Continuous
 62
     3
370
    25
100
AcDbLine
 10
-129.3166671206554
 20
58.15000148167201
 30
0.0
 11
-125.983333687981
 21
58.15000148167201
 31
0.0
  0
LINE
  5
281
330
1F
100
AcDbEntity
  8
16
  6
Continuous
 62
     3
370
    25
100
AcDbLine
 10
-128.6500004341205
 20
-25.35000100682191
 30
0.0
 11
-128.6500004341205
 21
58.15000148167201
 31
0.0
  0
LINE
  5
282
330
1F
100
AcDbEntity
  8
16
  6
Continuous
 62
     3
370
    25
100
AcDbLine
 10
-126.6500003745159
 20
-25.35000100682191
 30
0.0
 11
-126.6500003745159
 21
58.15000148167201
 31
0.0
  0
LINE
  5
283
330
1F
100
AcDbEntity
  8
16
  6
Continuous
 62
     3
370
    25
100
AcDbLine
 10
-127.6500004043182
 20
-24.51666764865331
 30
0.0
 11
-127.6500004043182
 21
57.31666812350341
 31
0.0
  0
LINE
  5
284
330
1F
100
AcDbEntity
  8
16
  6
Continuous
 62
     3
370
    25
100
AcDbLine
 10
-124.6666629130641
 20
-25.35000100682191
 30
0.0
 11
-124.6666629130641
 21
58.15000148167201
 31
0.0
  0
LINE
  5
285
330
1F
100
AcDbEntity
  8
16
  6
Continuous
 62
     3
370
    25
100
AcDbLine
 10
-124.6666629130641
 20
-25.35000100682191
 30
0.0
 11
-121.3333294803897
 21
-25.35000100682191
 31
0.0
  0
LINE
  5
286
330
1F
100
AcDbEntity
  8
16
  6
Continuous
 62
     3
370
    25
100
AcDbLine
 10
-121.3333294803897
 20
-25.35000100682191
 30
0.0
 11
-121.3333294803897
 21
58.15000148167201
 31
0.0
  0
LINE
  5
287
330
1F
100
AcDbEntity
  8
16
  6
Continuous
 62
     3
370
    25
100
AcDbLine
 10
-124.6666629130641
 20
58.15000148167201
 30
0.0
 11
-121.3333294803897
 21
58.15000148167201
 31
0.0
  0
LINE
  5
288
330
1F
100
AcDbEntity
  8
16
  6
Continuous
 62
     3
370
    25
100
AcDbLine
 10
-123.9999962265292
 20
-25.35000100682191
 30
0.0
 11
-123.9999962265292
 21
58.15000148167201
 31
0.0
  0
LINE
  5
289
330
1F
100
AcDbEntity
  8
16
  6
Continuous
 62
     3
370
    25
100
AcDbLine
 10
-121.9999961669246
 20
-25.35000100682191
 30
0.0
 11
-121.9999961669246
 21
58.15000148167201
 31
0.0
  0
LINE
  5
28A
330
1F
100
AcDbEntity
  8
16
  6
Continuous
 62
     3
370
    25
100
AcDbLine
 10
-122.9999961967269
 20
-24.51666764865331
 30
0.0
 11
-122.9999961967269
 21
57.31666812350341
 31
0.0
  0
LINE
  5
28B
330
1F
100
AcDbEntity
  8
16
  6
Continuous
 62
     3
370
    25
100
AcDbLine
 10
-120.0166637917359
 20
-25.35000100682191
 30
0.0
 11
-120.0166637917359
 21
58.15000148167201
 31
0.0
  0
LINE
  5
28C
330
1F
100
AcDbEntity
  8
16
  6
Continuous
 62
     3
370
    25
100
AcDbLine
 10
-120.0166637917359
 20
-25.35000100682191
 30
0.0
 11
-116.6833303590615
 21
-25.35000100682191
 31
0.0
  0
LINE
  5
28D
330
1F
100
AcDbEntity
  8
16
  6
Continuous
 62
     3
370
    25
100
AcDbLine
 10
-116.6833303590615
 20
-25.35000100682191
 30
0.0
 11
-116.6833303590615
 21
58.15000148167201
 31
0.0
  0
LINE
  5
28E
330
1F
100
AcDbEntity
  8
16
  6
Continuous
 62
     3
370
    25
100
AcDbLine
 10
-120.0166637917359
 20
58.15000148167201
 30
0.0
 11
-116.6833303590615
 21
58.15000148167201
 31
0.0
  0
LINE
  5
28F
330
1F
100
AcDbEntity
  8
16
  6
Continuous
 62
     3
370
    25
100
AcDbLine
 10
-119.349997105201
 20
-25.35000100682191
 30
0.0
 11
-119.349997105201
 21
58.15000148167201
 31
0.0
  0
LINE
  5
290
330
1F
100
AcDbEntity
  8
16
  6
Continuous
 62
     3
370
    25
100
AcDbLine
 10
-117.3499970455964
 20
-25.35000100682191
 30
0.0
 11
-117.3499970455964
 21
58.15000148167201
 31
0.0
  0
LINE
  5
291
330
1F
100
AcDbEntity
  8
16
  6
Continuous
 62
     3
370
    25
100
AcDbLine
 10
-118.3499970753987
 20
-24.51666764865331
 30
0.0
 11
-118.3499970753987
 21
57.31666812350341
 31
0.0
  0
LINE
  5
292
330
1F
100
AcDbEntity
  8
16
  6
Continuous
 62
     3
370
    25
100
AcDbLine
 10
-115.3666646704078
 20
-25.35000100682191
 30
0.0
 11
-115.3666646704078
 21
58.15000148167201
 31
0.0
  0
LINE
  5
293
330
1F
100
AcDbEntity
  8
16
  6
Continuous
 62
     3
370
    25
100
AcDbLine
 10
-115.3666646704078
 20
-25.35000100682191
 30
0.0
 11
-112.0333312377334
 21
-25.35000100682191
 31
0.0
  0
LINE
  5
294
330
1F
100
AcDbEntity
  8
16
  6
Continuous
 62
     3
370
    25
100
AcDbLine
 10
-112.0333312377334
 20
-25.35000100682191
 30
0.0
 11
-112.0333312377334
 21
58.15000148167201
 31
0.0
  0
LINE
  5
295
330
1F
100
AcDbEntity
  8
16
  6
Continuous
 62
     3
370
    25
100
AcDbLine
 10
-115.3666646704078
 20
58.15000148167201
 30
0.0
 11
-112.0333312377334
 21
58.15000148167201
 31
0.0
  0
LINE
  5
296
330
1F
100
AcDbEntity
  8
16
  6
Continuous
 62
     3
370
    25
100
AcDbLine
 10
-114.6999979838729
 20
-25.35000100682191
 30
0.0
 11
-114.6999979838729
 21
58.15000148167201
 31
0.0
  0
LINE
  5
297
330
1F
100
AcDbEntity
  8
16
  6
Continuous
 62
     3
370
    25
100
AcDbLine
 10
-112.6999979242682
 20
-25.35000100682191
 30
0.0
 11
-112.6999979242682
 21
58.15000148167201
 31
0.0
  0
LINE
  5
298
330
1F
100
AcDbEntity
  8
16
  6
Continuous
 62
     3
370
    25
100
AcDbLine
 10
-113.6999979540706
 20
-24.51666764865331
 30
0.0
 11
-113.6999979540706
 21
57.31666812350341
 31
0.0
  0
LINE
  5
299
330
1F
100
AcDbEntity
  8
16
  6
Continuous
 62
     3
370
    25
100
AcDbLine
 10
-110.7166655490796
 20
-25.35000100682191
 30
0.0
 11
-110.7166655490796
 21
58.15000148167201
 31
0.0
  0
LINE
  5
29A
330
1F
100
AcDbEntity
  8
16
  6
Continuous
 62
     3
370
    25
100
AcDbLine
 10
-110.7166655490796
 20
-25.35000100682191
 30
0.0
 11
-107.3833321164052
 21
-25.35000100682191
 31
0.0
  0
LINE
  5
29B
330
1F
100
AcDbEntity
  8
16
  6
Continuous
 62
     3
370
    25
100
AcDbLine
 10
-107.3833321164052
 20
-25.35000100682191
 30
0.0
 11
-107.3833321164052
 21
58.15000148167201
 31
0.0
  0
LINE
  5
29C
330
1F
100
AcDbEntity
  8
16
  6
Continuous
 62
     3
370
    25
100
AcDbLine
 10
-110.7166655490796
 20
58.15000148167201
 30
0.0
 11
-107.3833321164052
 21
58.15000148167201
 31
0.0
  0
LINE
  5
29D
330
1F
100
AcDbEntity
  8
16
  6
Continuous
 62
     3
370
    25
100
AcDbLine
 10
-110.0499988625447
 20
-25.35000100682191
 30
0.0
 11
-110.0499988625447
 21
58.15000148167201
 31
0.0
  0
LINE
  5
29E
330
1F
100
AcDbEntity
  8
16
  6
Continuous
 62
     3
370
    25
100
AcDbLine
 10
-108.0499988029401
 20
-25.35000100682191
 30
0.0
 11
-108.0499988029401
 21
58.15000148167201
 31
0.0
  0
LINE
  5
29F
330
1F
100
AcDbEntity
  8
16
  6
Continuous
 62
     3
370
    25
100
AcDbLine
 10
-109.0499988327424
 20
-24.51666764865331
 30
0.0
 11
-109.0499988327424
 21
57.31666812350341
 31
0.0
  0
LINE
  5
2A0
330
1F
100
AcDbEntity
  8
16
  6
Continuous
 62
     3
370
    25
100
AcDbLine
 10
-106.0666664277514
 20
-25.35000100682191
 30
0.0
 11
-106.0666664277514
 21
58.15000148167201
 31
0.0
  0
LINE
  5
2A1
330
1F
100
AcDbEntity
  8
16
  6
Continuous
 62
     3
370
    25
100
AcDbLine
 10
-106.0666664277514
 20
-25.35000100682191
 30
0.0
 11
-102.733332995077
 21
-25.35000100682191
 31
0.0
  0
LINE
  5
2A2
330
1F
100
AcDbEntity
  8
16
  6
Continuous
 62
     3
370
    25
100
AcDbLine
 10
-102.733332995077
 20
-25.35000100682191
 30
0.0
 11
-102.733332995077
 21
58.15000148167201
 31
0.0
  0
LINE
  5
2A3
330
1F
100
AcDbEntity
  8
16
  6
Continuous
 62
     3
370
    25
100
AcDbLine
 10
-106.0666664277514
 20
58.15000148167201
 30
0.0
 11
-102.733332995077
 21
58.15000148167201
 31
0.0
  0
LINE
  5
2A4
330
1F
100
AcDbEntity
  8
16
  6
Continuous
 62
     3
370
    25
100
AcDbLine
 10
-105.3999997412165
 20
-25.35000100682191
 30
0.0
 11
-105.3999997412165
 21
58.15000148167201
 31
0.0
  0
LINE
  5
2A5
330
1F
100
AcDbEntity
  8
16
  6
Continuous
 62
     3
370
    25
100
AcDbLine
 10
-103.3999996816119
 20
-25.35000100682191
 30
0.0
 11
-103.3999996816119
 21
58.15000148167201
 31
0.0
  0
LINE
  5
2A6
330
1F
100
AcDbEntity
  8
16
  6
Continuous
 62
     3
370
    25
100
AcDbLine
 10
-104.3999997114142
 20
-24.51666764865331
 30
0.0
 11
-104.3999997114142
 21
57.31666812350341
 31
0.0
  0
LINE
  5
2A7
330
1F
100
AcDbEntity
  8
16
  6
Continuous
 62
     3
370
    25
100
AcDbLine
 10
-101.4166622201601
 20
-25.35000100682191
 30
0.0
 11
-101.4166622201601
 21
58.15000148167201
 31
0.0
  0
LINE
  5
2A8
330
1F
100
AcDbEntity
  8
16
  6
Continuous
 62
     3
370
    25
100
AcDbLine
 10
-101.4166622201601
 20
-25.35000100682191
 30
0.0
 11
-98.0833287874857
 21
-25.35000100682191
 31
0.0
  0
LINE
  5
2A9
330
1F
100
AcDbEntity
  8
16
  6
Continuous
 62
     3
370
    25
100
AcDbLine
 10
-98.0833287874857
 20
-25.35000100682191
 30
0.0
 11
-98.0833287874857
 21
58.15000148167201
 31
0.0
  0
LINE
  5
2AA
330
1F
100
AcDbEntity
  8
16
  6
Continuous
 62
     3
370
    25
100
AcDbLine
 10
-101.4166622201601
 20
58.15000148167201
 30
0.0
 11
-98.0833287874857
 21
58.15000148167201
 31
0.0
  0
LINE
  5
2AB
330
1F
100
AcDbEntity
  8
16
  6
Continuous
 62
     3
370
    25
100
AcDbLine
 10
-100.7499955336252
 20
-25.35000100682191
 30
0.0
 11
-100.7499955336252
 21
58.15000148167201
 31
0.0
  0
LINE
  5
2AC
330
1F
100
AcDbEntity
  8
16
  6
Continuous
 62
     3
370
    25
100
AcDbLine
 10
-98.74999547402058
 20
-25.35000100682191
 30
0.0
 11
-98.74999547402058
 21
58.15000148167201
 31
0.0
  0
LINE
  5
2AD
330
1F
100
AcDbEntity
  8
16
  6
Continuous
 62
     3
370
    25
100
AcDbLine
 10
-99.7499955038229
 20
-24.51666764865331
 30
0.0
 11
-99.7499955038229
 21
57.31666812350341
 31
0.0
  0
LINE
  5
2AE
330
1F
100
AcDbEntity
  8
16
  6
Continuous
 62
     3
370
    25
100
AcDbLine
 10
-96.76666818509511
 20
-25.35000100682191
 30
0.0
 11
-96.76666818509511
 21
58.15000148167201
 31
0.0
  0
LINE
  5
2AF
330
1F
100
AcDbEntity
  8
16
  6
Continuous
 62
     3
370
    25
100
AcDbLine
 10
-96.76666818509511
 20
-25.35000100682191
 30
0.0
 11
-93.4333347524207
 21
-25.35000100682191
 31
0.0
  0
LINE
  5
2B0
330
1F
100
AcDbEntity
  8
16
  6
Continuous
 62
     3
370
    25
100
AcDbLine
 10
-93.4333347524207
 20
-25.35000100682191
 30
0.0
 11
-93.4333347524207
 21
58.15000148167201
 31
0.0
  0
LINE
  5
2B1
330
1F
100
AcDbEntity
  8
16
  6
Continuous
 62
     3
370
    25
100
AcDbLine
 10
-96.76666818509511
 20
58.15000148167201
 30
0.0
 11
-93.4333347524207
 21
58.15000148167201
 31
0.0
  0
LINE
  5
2B2
330
1F
100
AcDbEntity
  8
16
  6
Continuous
 62
     3
370
    25
100
AcDbLine
 10
-96.10000149856023
 20
-25.35000100682191
 30
0.0
 11
-96.10000149856023
 21
58.15000148167201
 31
0.0
  0
LINE
  5
2B3
330
1F
100
AcDbEntity
  8
16
  6
Continuous
 62
     3
370
    25
100
AcDbLine
 10
-94.10000143895559
 20
-25.35000100682191
 30
0.0
 11
-94.10000143895559
 21
58.15000148167201
 31
0.0
  0
LINE
  5
2B4
330
1F
100
AcDbEntity
  8
16
  6
Continuous
 62
     3
370
    25
100
AcDbLine
 10
-95.10000146875791
 20
-24.51666764865331
 30
0.0
 11
-95.10000146875791
 21
57.31666812350341
 31
0.0
  0
LINE
  5
2B5
330
1F
100
AcDbEntity
  8
16
  6
Continuous
 62
     3
370
    25
100
AcDbLine
 10
-92.11666397750378
 20
-25.35000100682191
 30
0.0
 11
-92.11666397750378
 21
58.15000148167201
 31
0.0
  0
LINE
  5
2B6
330
1F
100
AcDbEntity
  8
16
  6
Continuous
 62
     3
370
    25
100
AcDbLine
 10
-92.11666397750378
 20
-25.35000100682191
 30
0.0
 11
-88.78333054482937
 21
-25.35000100682191
 31
0.0
  0
LINE
  5
2B7
330
1F
100
AcDbEntity
  8
16
  6
Continuous
 62
     3
370
    25
100
AcDbLine
 10
-88.78333054482937
 20
-25.35000100682191
 30
0.0
 11
-88.78333054482937
 21
58.15000148167201
 31
0.0
  0
LINE
  5
2B8
330
1F
100
AcDbEntity
  8
16
  6
Continuous
 62
     3
370
    25
100
AcDbLine
 10
-92.11666397750378
 20
58.15000148167201
 30
0.0
 11
-88.78333054482937
 21
58.15000148167201
 31
0.0
  0
LINE
  5
2B9
330
1F
100
AcDbEntity
  8
16
  6
Continuous
 62
     3
370
    25
100
AcDbLine
 10
-91.4499972909689
 20
-25.35000100682191
 30
0.0
 11
-91.4499972909689
 21
58.15000148167201
 31
0.0
  0
LINE
  5
2BA
330
1F
100
AcDbEntity
  8
16
  6
Continuous
 62
     3
370
    25
100
AcDbLine
 10
-89.44999723136425
 20
-25.35000100682191
 30
0.0
 11
-89.44999723136425
 21
58.15000148167201
 31
0.0
  0
LINE
  5
2BB
330
1F
100
AcDbEntity
  8
16
  6
Continuous
 62
     3
370
    25
100
AcDbLine
 10
-90.44999726116657
 20
-24.51666764865331
 30
0.0
 11
-90.44999726116657
 21
57.31666812350341
 31
0.0
  0
LINE
  5
2BC
330
1F
100
AcDbEntity
  8
16
  6
Continuous
 62
     3
370
    25
100
AcDbLine
 10
-87.46665976991244
 20
-25.35000100682191
 30
0.0
 11
-87.46665976991244
 21
58.15000148167201
 31
0.0
  0
LINE
  5
2BD
330
1F
100
AcDbEntity
  8
16
  6
Continuous
 62
     3
370
    25
100
AcDbLine
 10
-87.46665976991244
 20
-25.35000100682191
 30
0.0
 11
-84.13332633723803
 21
-25.35000100682191
 31
0.0
  0
LINE
  5
2BE
330
1F
100
AcDbEntity
  8
16
  6
Continuous
 62
     3
370
    25
100
AcDbLine
 10
-84.13332633723803
 20
-25.35000100682191
 30
0.0
 11
-84.13332633723803
 21
58.15000148167201
 31
0.0
  0
LINE
  5
2BF
330
1F
100
AcDbEntity
  8
16
  6
Continuous
 62
     3
370
    25
100
AcDbLine
 10
-87.46665976991244
 20
58.15000148167201
 30
0.0
 11
-84.13332633723803
 21
58.15000148167201
 31
0.0
  0
LINE
  5
2C0
330
1F
100
AcDbEntity
  8
16
  6
Continuous
 62
     3
370
    25
100
AcDbLine
 10
-86.79999308337756
 20
-25.35000100682191
 30
0.0
 11
-86.79999308337756
 21
58.15000148167201
 31
0.0
  0
LINE
  5
2C1
330
1F
100
AcDbEntity
  8
16
  6
Continuous
 62
     3
370
    25
100
AcDbLine
 10
-84.79999302377291
 20
-25.35000100682191
 30
0.0
 11
-84.79999302377291
 21
58.15000148167201
 31
0.0
  0
LINE
  5
2C2
330
1F
100
AcDbEntity
  8
16
  6
Continuous
 62
     3
370
    25
100
AcDbLine
 10
-85.79999305357524
 20
-24.51666764865331
 30
0.0
 11
-85.79999305357524
 21
57.31666812350341
 31
0.0
  0
LINE
  5
2C3
330
1F
100
AcDbEntity
  8
16
  6
Continuous
 62
     3
370
    25
100
AcDbLine
 10
-82.81666573484745
 20
-25.35000100682191
 30
0.0
 11
-82.81666573484745
 21
58.15000148167201
 31
0.0
  0
LINE
  5
2C4
330
1F
100
AcDbEntity
  8
16
  6
Continuous
 62
     3
370
    25
100
AcDbLine
 10
-82.81666573484745
 20
-25.35000100682191
 30
0.0
 11
-79.48333230217304
 21
-25.35000100682191
 31
0.0
  0
LINE
  5
2C5
330
1F
100
AcDbEntity
  8
16
  6
Continuous
 62
     3
370
    25
100
AcDbLine
 10
-79.48333230217304
 20
-25.35000100682191
 30
0.0
 11
-79.48333230217304
 21
58.15000148167201
 31
0.0
  0
LINE
  5
2C6
330
1F
100
AcDbEntity
  8
16
  6
Continuous
 62
     3
370
    25
100
AcDbLine
 10
-82.81666573484745
 20
58.15000148167201
 30
0.0
 11
-79.48333230217304
 21
58.15000148167201
 31
0.0
  0
LINE
  5
2C7
330
1F
100
AcDbEntity
  8
16
  6
Continuous
 62
     3
370
    25
100
AcDbLine
 10
-82.14999904831257
 20
-25.35000100682191
 30
0.0
 11
-82.14999904831257
 21
58.15000148167201
 31
0.0
  0
LINE
  5
2C8
330
1F
100
AcDbEntity
  8
16
  6
Continuous
 62
     3
370
    25
100
AcDbLine
 10
-80.14999898870792
 20
-25.35000100682191
 30
0.0
 11
-80.14999898870792
 21
58.15000148167201
 31
0.0
  0
LINE
  5
2C9
330
1F
100
AcDbEntity
  8
16
  6
Continuous
 62
     3
370
    25
100
AcDbLine
 10
-81.14999901851024
 20
-24.51666764865331
 30
0.0
 11
-81.14999901851024
 21
57.31666812350341
 31
0.0
  0
LINE
  5
2CA
330
1F
100
AcDbEntity
  8
16
  6
Continuous
 62
     3
370
    25
100
AcDbLine
 10
-78.16666152725611
 20
-25.35000100682191
 30
0.0
 11
-78.16666152725611
 21
58.15000148167201
 31
0.0
  0
LINE
  5
2CB
330
1F
100
AcDbEntity
  8
16
  6
Continuous
 62
     3
370
    25
100
AcDbLine
 10
-78.16666152725611
 20
-25.35000100682191
 30
0.0
 11
-74.8333280945817
 21
-25.35000100682191
 31
0.0
  0
LINE
  5
2CC
330
1F
100
AcDbEntity
  8
16
  6
Continuous
 62
     3
370
    25
100
AcDbLine
 10
-74.8333280945817
 20
-25.35000100682191
 30
0.0
 11
-74.8333280945817
 21
58.15000148167201
 31
0.0
  0
LINE
  5
2CD
330
1F
100
AcDbEntity
  8
16
  6
Continuous
 62
     3
370
    25
100
AcDbLine
 10
-78.16666152725611
 20
58.15000148167201
 30
0.0
 11
-74.8333280945817
 21
58.15000148167201
 31
0.0
  0
LINE
  5
2CE
330
1F
100
AcDbEntity
  8
16
  6
Continuous
 62
     3
370
    25
100
AcDbLine
 10
-77.49999484072123
 20
-25.35000100682191
 30
0.0
 11
-77.49999484072123
 21
58.15000148167201
 31
0.0
  0
LINE
  5
2CF
330
1F
100
AcDbEntity
  8
16
  6
Continuous
 62
     3
370
    25
100
AcDbLine
 10
-75.49999478111658
 20
-25.35000100682191
 30
0.0
 11
-75.49999478111658
 21
58.15000148167201
 31
0.0
  0
LINE
  5
2D0
330
1F
100
AcDbEntity
  8
16
  6
Continuous
 62
     3
370
    25
100
AcDbLine
 10
-76.4999948109189
 20
-24.51666764865331
 30
0.0
 11
-76.4999948109189
 21
57.31666812350341
 31
0.0
  0
LINE
  5
2D1
330
1F
100
AcDbEntity
  8
16
  6
Continuous
 62
     3
370
    25
100
AcDbLine
 10
-73.51666749219112
 20
-25.35000100682191
 30
0.0
 11
-73.51666749219112
 21
58.15000148167201
 31
0.0
  0
LINE
  5
2D2
330
1F
100
AcDbEntity
  8
16
  6
Continuous
 62
     3
370
    25
100
AcDbLine
 10
-73.51666749219112
 20
-25.35000100682191
 30
0.0
 11
-70.18333405951671
 21
-25.35000100682191
 31
0.0
  0
LINE
  5
2D3
330
1F
100
AcDbEntity
  8
16
  6
Continuous
 62
     3
370
    25
100
AcDbLine
 10
-70.18333405951671
 20
-25.35000100682191
 30
0.0
 11
-70.18333405951671
 21
58.15000148167201
 31
0.0
  0
LINE
  5
2D4
330
1F
100
AcDbEntity
  8
16
  6
Continuous
 62
     3
370
    25
100
AcDbLine
 10
-73.51666749219112
 20
58.15000148167201
 30
0.0
 11
-70.18333405951671
 21
58.15000148167201
 31
0.0
  0
LINE
  5
2D5
330
1F
100
AcDbEntity
  8
16
  6
Continuous
 62
     3
370
    25
100
AcDbLine
 10
-72.85000080565624
 20
-25.35000100682191
 30
0.0
 11
-72.85000080565624
 21
58.15000148167201
 31
0.0
  0
LINE
  5
2D6
330
1F
100
AcDbEntity
  8
16
  6
Continuous
 62
     3
370
    25
100
AcDbLine
 10
-70.85000074605159
 20
-25.35000100682191
 30
0.0
 11
-70.85000074605159
 21
58.15000148167201
 31
0.0
  0
LINE
  5
2D7
330
1F
100
AcDbEntity
  8
16
  6
Continuous
 62
     3
370
    25
100
AcDbLine
 10
-71.85000077585391
 20
-24.51666764865331
 30
0.0
 11
-71.85000077585391
 21
57.31666812350341
 31
0.0
  0
LINE
  5
2D8
330
1F
100
AcDbEntity
  8
16
  6
Continuous
 62
     3
370
    25
100
AcDbLine
 10
-68.86666328459978
 20
-25.35000100682191
 30
0.0
 11
-68.86666328459978
 21
58.15000148167201
 31
0.0
  0
LINE
  5
2D9
330
1F
100
AcDbEntity
  8
16
  6
Continuous
 62
     3
370
    25
100
AcDbLine
 10
-68.86666328459978
 20
-25.35000100682191
 30
0.0
 11
-65.53332985192537
 21
-25.35000100682191
 31
0.0
  0
LINE
  5
2DA
330
1F
100
AcDbEntity
  8
16
  6
Continuous
 62
     3
370
    25
100
AcDbLine
 10
-65.53332985192537
 20
-25.35000100682191
 30
0.0
 11
-65.53332985192537
 21
58.15000148167201
 31
0.0
  0
LINE
  5
2DB
330
1F
100
AcDbEntity
  8
16
  6
Continuous
 62
     3
370
    25
100
AcDbLine
 10
-68.86666328459978
 20
58.15000148167201
 30
0.0
 11
-65.53332985192537
 21
58.15000148167201
 31
0.0
  0
LINE
  5
2DC
330
1F
100
AcDbEntity
  8
16
  6
Continuous
 62
     3
370
    25
100
AcDbLine
 10
-68.1999965980649
 20
-25.35000100682191
 30
0.0
 11
-68.1999965980649
 21
58.15000148167201
 31
0.0
  0
LINE
  5
2DD
330
1F
100
AcDbEntity
  8
16
  6
Continuous
 62
     3
370
    25
100
AcDbLine
 10
-66.19999653846025
 20
-25.35000100682191
 30
0.0
 11
-66.19999653846025
 21
58.15000148167201
 31
0.0
  0
LINE
  5
2DE
330
1F
100
AcDbEntity
  8
16
  6
Continuous
 62
     3
370
    25
100
AcDbLine
 10
-67.19999656826258
 20
-24.51666764865331
 30
0.0
 11
-67.19999656826258
 21
57.31666812350341
 31
0.0
  0
LINE
  5
2DF
330
1F
100
AcDbEntity
  8
16
  6
Continuous
 62
     3
370
    25
100
AcDbLine
 10
-64.21665907700844
 20
-25.35000100682191
 30
0.0
 11
-64.21665907700844
 21
58.15000148167201
 31
0.0
  0
LINE
  5
2E0
330
1F
100
AcDbEntity
  8
16
  6
Continuous
 62
     3
370
    25
100
AcDbLine
 10
-64.21665907700844
 20
-25.35000100682191
 30
0.0
 11
-60.88332564433404
 21
-25.35000100682191
 31
0.0
  0
LINE
  5
2E1
330
1F
100
AcDbEntity
  8
16
  6
Continuous
 62
     3
370
    25
100
AcDbLine
 10
-60.88332564433404
 20
-25.35000100682191
 30
0.0
 11
-60.88332564433404
 21
58.15000148167201
 31
0.0
  0
LINE
  5
2E2
330
1F
100
AcDbEntity
  8
16
  6
Continuous
 62
     3
370
    25
100
AcDbLine
 10
-64.21665907700844
 20
58.15000148167201
 30
0.0
 11
-60.88332564433404
 21
58.15000148167201
 31
0.0
  0
LINE
  5
2E3
330
1F
100
AcDbEntity
  8
16
  6
Continuous
 62
     3
370
    25
100
AcDbLine
 10
-63.54999239047357
 20
-25.35000100682191
 30
0.0
 11
-63.54999239047357
 21
58.15000148167201
 31
0.0
  0
LINE
  5
2E4
330
1F
100
AcDbEntity
  8
16
  6
Continuous
 62
     3
370
    25
100
AcDbLine
 10
-61.54999233086892
 20
-25.35000100682191
 30
0.0
 11
-61.54999233086892
 21
58.15000148167201
 31
0.0
  0
LINE
  5
2E5
330
1F
100
AcDbEntity
  8
16
  6
Continuous
 62
     3
370
    25
100
AcDbLine
 10
-62.54999236067125
 20
-24.51666764865331
 30
0.0
 11
-62.54999236067125
 21
57.31666812350341
 31
0.0
  0
LINE
  5
2E6
330
1F
100
AcDbEntity
  8
16
  6
Continuous
 62
     3
370
    25
100
AcDbLine
 10
-59.56666504194346
 20
-25.35000100682191
 30
0.0
 11
-59.56666504194346
 21
58.15000148167201
 31
0.0
  0
LINE
  5
2E7
330
1F
100
AcDbEntity
  8
16
  6
Continuous
 62
     3
370
    25
100
AcDbLine
 10
-59.56666504194346
 20
-25.35000100682191
 30
0.0
 11
-56.23333160926905
 21
-25.35000100682191
 31
0.0
  0
LINE
  5
2E8
330
1F
100
AcDbEntity
  8
16
  6
Continuous
 62
     3
370
    25
100
AcDbLine
 10
-56.23333160926905
 20
-25.35000100682191
 30
0.0
 11
-56.23333160926905
 21
58.15000148167201
 31
0.0
  0
LINE
  5
2E9
330
1F
100
AcDbEntity
  8
16
  6
Continuous
 62
     3
370
    25
100
AcDbLine
 10
-59.56666504194346
 20
58.15000148167201
 30
0.0
 11
-56.23333160926905
 21
58.15000148167201
 31
0.0
  0
LINE
  5
2EA
330
1F
100
AcDbEntity
  8
16
  6
Continuous
 62
     3
370
    25
100
AcDbLine
 10
-58.89999835540858
 20
-25.35000100682191
 30
0.0
 11
-58.89999835540858
 21
58.15000148167201
 31
0.0
  0
LINE
  5
2EB
330
1F
100
AcDbEntity
  8
16
  6
Continuous
 62
     3
370
    25
100
AcDbLine
 10
-56.89999829580393
 20
-25.35000100682191
 30
0.0
 11
-56.89999829580393
 21
58.15000148167201
 31
0.0
  0
LINE
  5
2EC
330
1F
100
AcDbEntity
  8
16
  6
Continuous
 62
     3
370
    25
100
AcDbLine
 10
-57.89999832560625
 20
-24.51666764865331
 30
0.0
 11
-57.89999832560625
 21
57.31666812350341
 31
0.0
  0
LINE
  5
2ED
330
1F
100
AcDbEntity
  8
16
  6
Continuous
 62
     3
370
    25
100
AcDbLine
 10
-54.96665880133697
 20
-25.35000100682191
 30
0.0
 11
-54.96665880133697
 21
58.15000148167201
 31
0.0
  0
LINE
  5
2EE
330
1F
100
AcDbEntity
  8
16
  6
Continuous
 62
     3
370
    25
100
AcDbLine
 10
-54.96665880133697
 20
-25.35000100682191
 30
0.0
 11
-51.63332536866256
 21
-25.35000100682191
 31
0.0
  0
LINE
  5
2EF
330
1F
100
AcDbEntity
  8
16
  6
Continuous
 62
     3
370
    25
100
AcDbLine
 10
-51.63332536866256
 20
-25.35000100682191
 30
0.0
 11
-51.63332536866256
 21
58.15000148167201
 31
0.0
  0
LINE
  5
2F0
330
1F
100
AcDbEntity
  8
16
  6
Continuous
 62
     3
370
    25
100
AcDbLine
 10
-54.96665880133697
 20
58.15000148167201
 30
0.0
 11
-51.63332536866256
 21
58.15000148167201
 31
0.0
  0
LINE
  5
2F1
330
1F
100
AcDbEntity
  8
16
  6
Continuous
 62
     3
370
    25
100
AcDbLine
 10
-54.29999211480209
 20
-25.35000100682191
 30
0.0
 11
-54.29999211480209
 21
58.15000148167201
 31
0.0
  0
LINE
  5
2F2
330
1F
100
AcDbEntity
  8
16
  6
Continuous
 62
     3
370
    25
100
AcDbLine
 10
-52.29999205519744
 20
-25.35000100682191
 30
0.0
 11
-52.29999205519744
 21
58.15000148167201
 31
0.0
  0
LINE
  5
2F3
330
1F
100
AcDbEntity
  8
16
  6
Continuous
 62
     3
370
    25
100
AcDbLine
 10
-53.29999208499977
 20
-24.51666764865331
 30
0.0
 11
-53.29999208499977
 21
57.31666812350341
 31
0.0
  0
LINE
  5
2F4
330
1F
100
AcDbEntity
  8
16
  6
Continuous
 62
     3
370
    25
100
AcDbLine
 10
-130.6333328093092
 20
51.48333461632319
 30
0.0
 11
-129.3166660875082
 21
51.48333461632319
 31
0.0
  0
LINE
  5
2F5
330
1F
100
AcDbEntity
  8
16
  6
Continuous
 62
     3
370
    25
100
AcDbLine
 10
-125.983333687981
 20
51.48333461632319
 30
0.0
 11
-124.6666669661801
 21
51.48333461632319
 31
0.0
  0
LINE
  5
2F6
330
1F
100
AcDbEntity
  8
16
  6
Continuous
 62
     3
370
    25
100
AcDbLine
 10
-121.3333294803897
 20
51.48333461632319
 30
0.0
 11
-120.0166627585887
 21
51.48333461632319
 31
0.0
  0
LINE
  5
2F7
330
1F
100
AcDbEntity
  8
16
  6
Continuous
 62
     3
370
    25
100
AcDbLine
 10
-116.6833303590615
 20
51.48333461632319
 30
0.0
 11
-115.3666636372605
 21
51.48333461632319
 31
0.0
  0
LINE
  5
2F8
330
1F
100
AcDbEntity
  8
16
  6
Continuous
 62
     3
370
    25
100
AcDbLine
 10
-112.0333312377334
 20
51.48333461632319
 30
0.0
 11
-110.7166645159324
 21
51.48333461632319
 31
0.0
  0
LINE
  5
2F9
330
1F
100
AcDbEntity
  8
16
  6
Continuous
 62
     3
370
    25
100
AcDbLine
 10
-107.3833321164052
 20
51.48333461632319
 30
0.0
 11
-106.0666653946042
 21
51.48333461632319
 31
0.0
  0
LINE
  5
2FA
330
1F
100
AcDbEntity
  8
16
  6
Continuous
 62
     3
370
    25
100
AcDbLine
 10
-102.733332995077
 20
51.48333461632319
 30
0.0
 11
-101.4166662732761
 21
51.48333461632319
 31
0.0
  0
LINE
  5
2FB
330
1F
100
AcDbEntity
  8
16
  6
Continuous
 62
     3
370
    25
100
AcDbLine
 10
-98.0833287874857
 20
51.48333461632319
 30
0.0
 11
-96.76666206568473
 21
51.48333461632319
 31
0.0
  0
LINE
  5
2FC
330
1F
100
AcDbEntity
  8
16
  6
Continuous
 62
     3
370
    25
100
AcDbLine
 10
-93.4333347524207
 20
51.48333461632319
 30
0.0
 11
-92.11666803061975
 21
51.48333461632319
 31
0.0
  0
LINE
  5
2FD
330
1F
100
AcDbEntity
  8
16
  6
Continuous
 62
     3
370
    25
100
AcDbLine
 10
-88.78333054482937
 20
51.48333461632319
 30
0.0
 11
-87.4666638230284
 21
51.48333461632319
 31
0.0
  0
LINE
  5
2FE
330
1F
100
AcDbEntity
  8
16
  6
Continuous
 62
     3
370
    25
100
AcDbLine
 10
-84.13332633723803
 20
51.48333461632319
 30
0.0
 11
-82.81665961543706
 21
51.48333461632319
 31
0.0
  0
LINE
  5
2FF
330
1F
100
AcDbEntity
  8
16
  6
Continuous
 62
     3
370
    25
100
AcDbLine
 10
-79.48333230217304
 20
51.48333461632319
 30
0.0
 11
-78.16666558037207
 21
51.48333461632319
 31
0.0
  0
LINE
  5
300
330
1F
100
AcDbEntity
  8
16
  6
Continuous
 62
     3
370
    25
100
AcDbLine
 10
-74.8333280945817
 20
51.48333461632319
 30
0.0
 11
-73.51666137278076
 21
51.48333461632319
 31
0.0
  0
LINE
  5
301
330
1F
100
AcDbEntity
  8
16
  6
Continuous
 62
     3
370
    25
100
AcDbLine
 10
-70.18333405951671
 20
51.48333461632319
 30
0.0
 11
-68.86666733771574
 21
51.48333461632319
 31
0.0
  0
LINE
  5
302
330
1F
100
AcDbEntity
  8
16
  6
Continuous
 62
     3
370
    25
100
AcDbLine
 10
-65.53332985192537
 20
51.48333461632319
 30
0.0
 11
-64.21666313012442
 21
51.48333461632319
 31
0.0
  0
LINE
  5
303
330
1F
100
AcDbEntity
  8
16
  6
Continuous
 62
     3
370
    25
100
AcDbLine
 10
-60.88332564433404
 20
51.48333461632319
 30
0.0
 11
-59.56665892253308
 21
51.48333461632319
 31
0.0
  0
LINE
  5
304
330
1F
100
AcDbEntity
  8
16
  6
Continuous
 62
     3
370
    25
100
AcDbLine
 10
-56.23333160926905
 20
51.48333461632319
 30
0.0
 11
-54.91666488746809
 21
51.48333461632319
 31
0.0
  0
LINE
  5
305
330
1F
100
AcDbEntity
  8
16
  6
Continuous
 62
     3
370
    25
100
AcDbLine
 10
-130.6333328093092
 20
-18.6833341414731
 30
0.0
 11
-129.3166660875082
 21
-18.6833341414731
 31
0.0
  0
LINE
  5
306
330
1F
100
AcDbEntity
  8
16
  6
Continuous
 62
     3
370
    25
100
AcDbLine
 10
-125.983333687981
 20
-18.6833341414731
 30
0.0
 11
-124.6666669661801
 21
-18.6833341414731
 31
0.0
  0
LINE
  5
307
330
1F
100
AcDbEntity
  8
16
  6
Continuous
 62
     3
370
    25
100
AcDbLine
 10
-121.3333294803897
 20
-18.6833341414731
 30
0.0
 11
-120.0166627585887
 21
-18.6833341414731
 31
0.0
  0
LINE
  5
308
330
1F
100
AcDbEntity
  8
16
  6
Continuous
 62
     3
370
    25
100
AcDbLine
 10
-116.6833303590615
 20
-18.6833341414731
 30
0.0
 11
-115.3666636372605
 21
-18.6833341414731
 31
0.0
  0
LINE
  5
309
330
1F
100
AcDbEntity
  8
16
  6
Continuous
 62
     3
370
    25
100
AcDbLine
 10
-112.0333312377334
 20
-18.6833341414731
 30
0.0
 11
-110.7166645159324
 21
-18.6833341414731
 31
0.0
  0
LINE
  5
30A
330
1F
100
AcDbEntity
  8
16
  6
Continuous
 62
     3
370
    25
100
AcDbLine
 10
-107.3833321164052
 20
-18.6833341414731
 30
0.0
 11
-106.0666653946042
 21
-18.6833341414731
 31
0.0
  0
LINE
  5
30B
330
1F
100
AcDbEntity
  8
16
  6
Continuous
 62
     3
370
    25
100
AcDbLine
 10
-102.733332995077
 20
-18.6833341414731
 30
0.0
 11
-101.4166662732761
 21
-18.6833341414731
 31
0.0
  0
LINE
  5
30C
330
1F
100
AcDbEntity
  8
16
  6
Continuous
 62
     3
370
    25
100
AcDbLine
 10
-98.0833287874857
 20
-18.6833341414731
 30
0.0
 11
-96.76666206568473
 21
-18.6833341414731
 31
0.0
  0
LINE
  5
30D
330
1F
100
AcDbEntity
  8
16
  6
Continuous
 62
     3
370
    25
100
AcDbLine
 10
-93.4333347524207
 20
-18.6833341414731
 30
0.0
 11
-92.11666803061975
 21
-18.6833341414731
 31
0.0
  0
LINE
  5
30E
330
1F
100
AcDbEntity
  8
16
  6
Continuous
 62
     3
370
    25
100
AcDbLine
 10
-88.78333054482937
 20
-18.6833341414731
 30
0.0
 11
-87.4666638230284
 21
-18.6833341414731
 31
0.0
  0
LINE
  5
30F
330
1F
100
AcDbEntity
  8
16
  6
Continuous
 62
     3
370
    25
100
AcDbLine
 10
-84.13332633723803
 20
-18.6833341414731
 30
0.0
 11
-82.81665961543706
 21
-18.6833341414731
 31
0.0
  0
LINE
  5
310
330
1F
100
AcDbEntity
  8
16
  6
Continuous
 62
     3
370
    25
100
AcDbLine
 10
-79.48333230217304
 20
-18.6833341414731
 30
0.0
 11
-78.16666558037207
 21
-18.6833341414731
 31
0.0
  0
LINE
  5
311
330
1F
100
AcDbEntity
  8
16
  6
Continuous
 62
     3
370
    25
100
AcDbLine
 10
-74.8333280945817
 20
-18.6833341414731
 30
0.0
 11
-73.51666137278076
 21
-18.6833341414731
 31
0.0
  0
LINE
  5
312
330
1F
100
AcDbEntity
  8
16
  6
Continuous
 62
     3
370
    25
100
AcDbLine
 10
-70.18333405951671
 20
-18.6833341414731
 30
0.0
 11
-68.86666733771574
 21
-18.6833341414731
 31
0.0
  0
LINE
  5
313
330
1F
100
AcDbEntity
  8
16
  6
Continuous
 62
     3
370
    25
100
AcDbLine
 10
-65.53332985192537
 20
-18.6833341414731
 30
0.0
 11
-64.21666313012442
 21
-18.6833341414731
 31
0.0
  0
LINE
  5
314
330
1F
100
AcDbEntity
  8
16
  6
Continuous
 62
     3
370
    25
100
AcDbLine
 10
-60.88332564433404
 20
-18.6833341414731
 30
0.0
 11
-59.56665892253308
 21
-18.6833341414731
 31
0.0
  0
LINE
  5
315
330
1F
100
AcDbEntity
  8
16
  6
Continuous
 62
     3
370
    25
100
AcDbLine
 10
-56.23333160926905
 20
-18.6833341414731
 30
0.0
 11
-54.91666488746809
 21
-18.6833341414731
 31
0.0
  0
LINE
  5
316
330
1F
100
AcDbEntity
  8
16
  6
Continuous
 62
     3
370
    25
100
AcDbLine
 10
-133.9666662419836
 20
-70.34999726166325
 30
0.0
 11
-133.9666662419836
 21
-70.68333060493069
 31
0.0
  0
LINE
  5
317
330
1F
100
AcDbEntity
  8
16
  6
Continuous
 62
     3
370
    25
100
AcDbLine
 10
-133.9666662419836
 20
-70.68333060493069
 30
0.0
 11
-133.4666662270824
 21
-70.68333060493069
 31
0.0
  0
LINE
  5
318
330
1F
100
AcDbEntity
  8
16
  6
Continuous
 62
     3
370
    25
100
AcDbLine
 10
-133.4666662270824
 20
-70.68333060493069
 30
0.0
 11
-132.7999995405475
 21
-71.84999730636673
 31
0.0
  0
LINE
  5
319
330
1F
100
AcDbEntity
  8
16
  6
Continuous
 62
     3
370
    25
100
AcDbLine
 10
-132.7999995405475
 20
-71.84999730636673
 30
0.0
 11
-132.7999995405475
 21
-72.34999732126789
 31
0.0
  0
LINE
  5
31A
330
1F
100
AcDbEntity
  8
16
  6
Continuous
 62
     3
370
    25
100
AcDbLine
 10
-132.7999995405475
 20
-72.34999732126789
 30
0.0
 11
-132.6333328689138
 21
-72.51666399290161
 31
0.0
  0
LINE
  5
31B
330
1F
100
AcDbEntity
  8
16
  6
Continuous
 62
     3
370
    25
100
AcDbLine
 10
-132.6333328689138
 20
-72.51666399290161
 30
0.0
 11
-132.6333328689138
 21
-77.68333081354695
 31
0.0
  0
LINE
  5
31C
330
1F
100
AcDbEntity
  8
16
  6
Continuous
 62
     3
370
    25
100
AcDbLine
 10
-132.6333328689138
 20
-77.68333081354695
 30
0.0
 11
-131.9666661823789
 21
-77.68333081354695
 31
0.0
  0
LINE
  5
31D
330
1F
100
AcDbEntity
  8
16
  6
Continuous
 62
     3
370
    25
100
AcDbLine
 10
-131.9666661823789
 20
-77.68333081354695
 30
0.0
 11
-131.9666661823789
 21
-72.51666399290161
 31
0.0
  0
LINE
  5
31E
330
1F
100
AcDbEntity
  8
16
  6
Continuous
 62
     3
370
    25
100
AcDbLine
 10
-131.9666661823789
 20
-72.51666399290161
 30
0.0
 11
-131.7999995107452
 21
-72.34999732126789
 31
0.0
  0
LINE
  5
31F
330
1F
100
AcDbEntity
  8
16
  6
Continuous
 62
     3
370
    25
100
AcDbLine
 10
-131.7999995107452
 20
-72.34999732126789
 30
0.0
 11
-131.7999995107452
 21
-71.84999730636673
 31
0.0
  0
LINE
  5
320
330
1F
100
AcDbEntity
  8
16
  6
Continuous
 62
     3
370
    25
100
AcDbLine
 10
-131.7999995107452
 20
-71.84999730636673
 30
0.0
 11
-131.1333328242103
 21
-70.68333060493069
 31
0.0
  0
LINE
  5
321
330
1F
100
AcDbEntity
  8
16
  6
Continuous
 62
     3
370
    25
100
AcDbLine
 10
-131.1333328242103
 20
-70.68333060493069
 30
0.0
 11
-130.6333328093092
 21
-70.68333060493069
 31
0.0
  0
LINE
  5
322
330
1F
100
AcDbEntity
  8
16
  6
Continuous
 62
     3
370
    25
100
AcDbLine
 10
-130.6333328093092
 20
-70.68333060493069
 30
0.0
 11
-130.6333328093092
 21
-70.34999726166325
 31
0.0
  0
LINE
  5
323
330
1F
100
AcDbEntity
  8
16
  6
Continuous
 62
     3
370
    25
100
AcDbLine
 10
-130.6333328093092
 20
-70.34999726166325
 30
0.0
 11
-131.2999994958441
 21
-70.34999726166325
 31
0.0
  0
LINE
  5
324
330
1F
100
AcDbEntity
  8
16
  6
Continuous
 62
     3
370
    25
100
AcDbLine
 10
-131.2999994958441
 20
-70.34999726166325
 30
0.0
 11
-132.2999995256464
 21
-71.34999729146557
 31
0.0
  0
LINE
  5
325
330
1F
100
AcDbEntity
  8
16
  6
Continuous
 62
     3
370
    25
100
AcDbLine
 10
-132.2999995256464
 20
-71.34999729146557
 30
0.0
 11
-133.2999995554487
 21
-70.34999726166325
 31
0.0
  0
LINE
  5
326
330
1F
100
AcDbEntity
  8
16
  6
Continuous
 62
     3
370
    25
100
AcDbLine
 10
-133.2999995554487
 20
-70.34999726166325
 30
0.0
 11
-133.9666662419836
 21
-70.34999726166325
 31
0.0
  0
CIRCLE
  5
327
330
1F
100
AcDbEntity
  8
16
  6
Continuous
 62
     3
370
    25
100
AcDbCircle
 10
-132.2999996236849
 20
-70.93333061238124
 30
0.0
 40
0.3000000009934105
  0
LINE
  5
328
330
1F
100
AcDbEntity
  8
16
  6
Continuous
 62
     3
370
    25
100
AcDbLine
 10
-129.3166671206554
 20
-70.34999726166325
 30
0.0
 11
-129.3166671206554
 21
-70.68333060493069
 31
0.0
  0
LINE
  5
329
330
1F
100
AcDbEntity
  8
16
  6
Continuous
 62
     3
370
    25
100
AcDbLine
 10
-129.3166671206554
 20
-70.68333060493069
 30
0.0
 11
-128.8166671057543
 21
-70.68333060493069
 31
0.0
  0
LINE
  5
32A
330
1F
100
AcDbEntity
  8
16
  6
Continuous
 62
     3
370
    25
100
AcDbLine
 10
-128.8166671057543
 20
-70.68333060493069
 30
0.0
 11
-128.1500004192194
 21
-71.84999730636673
 31
0.0
  0
LINE
  5
32B
330
1F
100
AcDbEntity
  8
16
  6
Continuous
 62
     3
370
    25
100
AcDbLine
 10
-128.1500004192194
 20
-71.84999730636673
 30
0.0
 11
-128.1500004192194
 21
-72.34999732126789
 31
0.0
  0
LINE
  5
32C
330
1F
100
AcDbEntity
  8
16
  6
Continuous
 62
     3
370
    25
100
AcDbLine
 10
-128.1500004192194
 20
-72.34999732126789
 30
0.0
 11
-127.9833337475857
 21
-72.51666399290161
 31
0.0
  0
LINE
  5
32D
330
1F
100
AcDbEntity
  8
16
  6
Continuous
 62
     3
370
    25
100
AcDbLine
 10
-127.9833337475857
 20
-72.51666399290161
 30
0.0
 11
-127.9833337475857
 21
-77.68333081354695
 31
0.0
  0
LINE
  5
32E
330
1F
100
AcDbEntity
  8
16
  6
Continuous
 62
     3
370
    25
100
AcDbLine
 10
-127.9833337475857
 20
-77.68333081354695
 30
0.0
 11
-127.3166670610508
 21
-77.68333081354695
 31
0.0
  0
LINE
  5
32F
330
1F
100
AcDbEntity
  8
16
  6
Continuous
 62
     3
370
    25
100
AcDbLine
 10
-127.3166670610508
 20
-77.68333081354695
 30
0.0
 11
-127.3166670610508
 21
-72.51666399290161
 31
0.0
  0
LINE
  5
330
330
1F
100
AcDbEntity
  8
16
  6
Continuous
 62
     3
370
    25
100
AcDbLine
 10
-127.3166670610508
 20
-72.51666399290161
 30
0.0
 11
-127.1500003894171
 21
-72.34999732126789
 31
0.0
  0
LINE
  5
331
330
1F
100
AcDbEntity
  8
16
  6
Continuous
 62
     3
370
    25
100
AcDbLine
 10
-127.1500003894171
 20
-72.34999732126789
 30
0.0
 11
-127.1500003894171
 21
-71.84999730636673
 31
0.0
  0
LINE
  5
332
330
1F
100
AcDbEntity
  8
16
  6
Continuous
 62
     3
370
    25
100
AcDbLine
 10
-127.1500003894171
 20
-71.84999730636673
 30
0.0
 11
-126.4833337028822
 21
-70.68333060493069
 31
0.0
  0
LINE
  5
333
330
1F
100
AcDbEntity
  8
16
  6
Continuous
 62
     3
370
    25
100
AcDbLine
 10
-126.4833337028822
 20
-70.68333060493069
 30
0.0
 11
-125.983333687981
 21
-70.68333060493069
 31
0.0
  0
LINE
  5
334
330
1F
100
AcDbEntity
  8
16
  6
Continuous
 62
     3
370
    25
100
AcDbLine
 10
-125.983333687981
 20
-70.68333060493069
 30
0.0
 11
-125.983333687981
 21
-70.34999726166325
 31
0.0
  0
LINE
  5
335
330
1F
100
AcDbEntity
  8
16
  6
Continuous
 62
     3
370
    25
100
AcDbLine
 10
-125.983333687981
 20
-70.34999726166325
 30
0.0
 11
-126.6500003745159
 21
-70.34999726166325
 31
0.0
  0
LINE
  5
336
330
1F
100
AcDbEntity
  8
16
  6
Continuous
 62
     3
370
    25
100
AcDbLine
 10
-126.6500003745159
 20
-70.34999726166325
 30
0.0
 11
-127.6500004043182
 21
-71.34999729146557
 31
0.0
  0
LINE
  5
337
330
1F
100
AcDbEntity
  8
16
  6
Continuous
 62
     3
370
    25
100
AcDbLine
 10
-127.6500004043182
 20
-71.34999729146557
 30
0.0
 11
-128.6500004341205
 21
-70.34999726166325
 31
0.0
  0
LINE
  5
338
330
1F
100
AcDbEntity
  8
16
  6
Continuous
 62
     3
370
    25
100
AcDbLine
 10
-128.6500004341205
 20
-70.34999726166325
 30
0.0
 11
-129.3166671206554
 21
-70.34999726166325
 31
0.0
  0
CIRCLE
  5
339
330
1F
100
AcDbEntity
  8
16
  6
Continuous
 62
     3
370
    25
100
AcDbCircle
 10
-127.6500005023567
 20
-70.93333061238124
 30
0.0
 40
0.3000000009934105
  0
LINE
  5
33A
330
1F
100
AcDbEntity
  8
16
  6
Continuous
 62
     3
370
    25
100
AcDbLine
 10
-124.6666629130641
 20
-70.34999726166325
 30
0.0
 11
-124.6666629130641
 21
-70.68333060493069
 31
0.0
  0
LINE
  5
33B
330
1F
100
AcDbEntity
  8
16
  6
Continuous
 62
     3
370
    25
100
AcDbLine
 10
-124.6666629130641
 20
-70.68333060493069
 30
0.0
 11
-124.1666628981629
 21
-70.68333060493069
 31
0.0
  0
LINE
  5
33C
330
1F
100
AcDbEntity
  8
16
  6
Continuous
 62
     3
370
    25
100
AcDbLine
 10
-124.1666628981629
 20
-70.68333060493069
 30
0.0
 11
-123.499996211628
 21
-71.84999730636673
 31
0.0
  0
LINE
  5
33D
330
1F
100
AcDbEntity
  8
16
  6
Continuous
 62
     3
370
    25
100
AcDbLine
 10
-123.499996211628
 20
-71.84999730636673
 30
0.0
 11
-123.499996211628
 21
-72.34999732126789
 31
0.0
  0
LINE
  5
33E
330
1F
100
AcDbEntity
  8
16
  6
Continuous
 62
     3
370
    25
100
AcDbLine
 10
-123.499996211628
 20
-72.34999732126789
 30
0.0
 11
-123.3333295399943
 21
-72.51666399290161
 31
0.0
  0
LINE
  5
33F
330
1F
100
AcDbEntity
  8
16
  6
Continuous
 62
     3
370
    25
100
AcDbLine
 10
-123.3333295399943
 20
-72.51666399290161
 30
0.0
 11
-123.3333295399943
 21
-77.68333081354695
 31
0.0
  0
LINE
  5
340
330
1F
100
AcDbEntity
  8
16
  6
Continuous
 62
     3
370
    25
100
AcDbLine
 10
-123.3333295399943
 20
-77.68333081354695
 30
0.0
 11
-122.6666628534594
 21
-77.68333081354695
 31
0.0
  0
LINE
  5
341
330
1F
100
AcDbEntity
  8
16
  6
Continuous
 62
     3
370
    25
100
AcDbLine
 10
-122.6666628534594
 20
-77.68333081354695
 30
0.0
 11
-122.6666628534594
 21
-72.51666399290161
 31
0.0
  0
LINE
  5
342
330
1F
100
AcDbEntity
  8
16
  6
Continuous
 62
     3
370
    25
100
AcDbLine
 10
-122.6666628534594
 20
-72.51666399290161
 30
0.0
 11
-122.4999961818257
 21
-72.34999732126789
 31
0.0
  0
LINE
  5
343
330
1F
100
AcDbEntity
  8
16
  6
Continuous
 62
     3
370
    25
100
AcDbLine
 10
-122.4999961818257
 20
-72.34999732126789
 30
0.0
 11
-122.4999961818257
 21
-71.84999730636673
 31
0.0
  0
LINE
  5
344
330
1F
100
AcDbEntity
  8
16
  6
Continuous
 62
     3
370
    25
100
AcDbLine
 10
-122.4999961818257
 20
-71.84999730636673
 30
0.0
 11
-121.8333294952908
 21
-70.68333060493069
 31
0.0
  0
LINE
  5
345
330
1F
100
AcDbEntity
  8
16
  6
Continuous
 62
     3
370
    25
100
AcDbLine
 10
-121.8333294952908
 20
-70.68333060493069
 30
0.0
 11
-121.3333294803897
 21
-70.68333060493069
 31
0.0
  0
LINE
  5
346
330
1F
100
AcDbEntity
  8
16
  6
Continuous
 62
     3
370
    25
100
AcDbLine
 10
-121.3333294803897
 20
-70.68333060493069
 30
0.0
 11
-121.3333294803897
 21
-70.34999726166325
 31
0.0
  0
LINE
  5
347
330
1F
100
AcDbEntity
  8
16
  6
Continuous
 62
     3
370
    25
100
AcDbLine
 10
-121.3333294803897
 20
-70.34999726166325
 30
0.0
 11
-121.9999961669246
 21
-70.34999726166325
 31
0.0
  0
LINE
  5
348
330
1F
100
AcDbEntity
  8
16
  6
Continuous
 62
     3
370
    25
100
AcDbLine
 10
-121.9999961669246
 20
-70.34999726166325
 30
0.0
 11
-122.9999961967269
 21
-71.34999729146557
 31
0.0
  0
LINE
  5
349
330
1F
100
AcDbEntity
  8
16
  6
Continuous
 62
     3
370
    25
100
AcDbLine
 10
-122.9999961967269
 20
-71.34999729146557
 30
0.0
 11
-123.9999962265292
 21
-70.34999726166325
 31
0.0
  0
LINE
  5
34A
330
1F
100
AcDbEntity
  8
16
  6
Continuous
 62
     3
370
    25
100
AcDbLine
 10
-123.9999962265292
 20
-70.34999726166325
 30
0.0
 11
-124.6666629130641
 21
-70.34999726166325
 31
0.0
  0
CIRCLE
  5
34B
330
1F
100
AcDbEntity
  8
16
  6
Continuous
 62
     3
370
    25
100
AcDbCircle
 10
-122.9999962947654
 20
-70.93333061238124
 30
0.0
 40
0.3000000009934105
  0
LINE
  5
34C
330
1F
100
AcDbEntity
  8
16
  6
Continuous
 62
     3
370
    25
100
AcDbLine
 10
-120.0166637917359
 20
-70.34999726166325
 30
0.0
 11
-120.0166637917359
 21
-70.68333060493069
 31
0.0
  0
LINE
  5
34D
330
1F
100
AcDbEntity
  8
16
  6
Continuous
 62
     3
370
    25
100
AcDbLine
 10
-120.0166637917359
 20
-70.68333060493069
 30
0.0
 11
-119.5166637768348
 21
-70.68333060493069
 31
0.0
  0
LINE
  5
34E
330
1F
100
AcDbEntity
  8
16
  6
Continuous
 62
     3
370
    25
100
AcDbLine
 10
-119.5166637768348
 20
-70.68333060493069
 30
0.0
 11
-118.8499970902999
 21
-71.84999730636673
 31
0.0
  0
LINE
  5
34F
330
1F
100
AcDbEntity
  8
16
  6
Continuous
 62
     3
370
    25
100
AcDbLine
 10
-118.8499970902999
 20
-71.84999730636673
 30
0.0
 11
-118.8499970902999
 21
-72.34999732126789
 31
0.0
  0
LINE
  5
350
330
1F
100
AcDbEntity
  8
16
  6
Continuous
 62
     3
370
    25
100
AcDbLine
 10
-118.8499970902999
 20
-72.34999732126789
 30
0.0
 11
-118.6833304186662
 21
-72.51666399290161
 31
0.0
  0
LINE
  5
351
330
1F
100
AcDbEntity
  8
16
  6
Continuous
 62
     3
370
    25
100
AcDbLine
 10
-118.6833304186662
 20
-72.51666399290161
 30
0.0
 11
-118.6833304186662
 21
-77.68333081354695
 31
0.0
  0
LINE
  5
352
330
1F
100
AcDbEntity
  8
16
  6
Continuous
 62
     3
370
    25
100
AcDbLine
 10
-118.6833304186662
 20
-77.68333081354695
 30
0.0
 11
-118.0166637321313
 21
-77.68333081354695
 31
0.0
  0
LINE
  5
353
330
1F
100
AcDbEntity
  8
16
  6
Continuous
 62
     3
370
    25
100
AcDbLine
 10
-118.0166637321313
 20
-77.68333081354695
 30
0.0
 11
-118.0166637321313
 21
-72.51666399290161
 31
0.0
  0
LINE
  5
354
330
1F
100
AcDbEntity
  8
16
  6
Continuous
 62
     3
370
    25
100
AcDbLine
 10
-118.0166637321313
 20
-72.51666399290161
 30
0.0
 11
-117.8499970604976
 21
-72.34999732126789
 31
0.0
  0
LINE
  5
355
330
1F
100
AcDbEntity
  8
16
  6
Continuous
 62
     3
370
    25
100
AcDbLine
 10
-117.8499970604976
 20
-72.34999732126789
 30
0.0
 11
-117.8499970604976
 21
-71.84999730636673
 31
0.0
  0
LINE
  5
356
330
1F
100
AcDbEntity
  8
16
  6
Continuous
 62
     3
370
    25
100
AcDbLine
 10
-117.8499970604976
 20
-71.84999730636673
 30
0.0
 11
-117.1833303739627
 21
-70.68333060493069
 31
0.0
  0
LINE
  5
357
330
1F
100
AcDbEntity
  8
16
  6
Continuous
 62
     3
370
    25
100
AcDbLine
 10
-117.1833303739627
 20
-70.68333060493069
 30
0.0
 11
-116.6833303590615
 21
-70.68333060493069
 31
0.0
  0
LINE
  5
358
330
1F
100
AcDbEntity
  8
16
  6
Continuous
 62
     3
370
    25
100
AcDbLine
 10
-116.6833303590615
 20
-70.68333060493069
 30
0.0
 11
-116.6833303590615
 21
-70.34999726166325
 31
0.0
  0
LINE
  5
359
330
1F
100
AcDbEntity
  8
16
  6
Continuous
 62
     3
370
    25
100
AcDbLine
 10
-116.6833303590615
 20
-70.34999726166325
 30
0.0
 11
-117.3499970455964
 21
-70.34999726166325
 31
0.0
  0
LINE
  5
35A
330
1F
100
AcDbEntity
  8
16
  6
Continuous
 62
     3
370
    25
100
AcDbLine
 10
-117.3499970455964
 20
-70.34999726166325
 30
0.0
 11
-118.3499970753987
 21
-71.34999729146557
 31
0.0
  0
LINE
  5
35B
330
1F
100
AcDbEntity
  8
16
  6
Continuous
 62
     3
370
    25
100
AcDbLine
 10
-118.3499970753987
 20
-71.34999729146557
 30
0.0
 11
-119.349997105201
 21
-70.34999726166325
 31
0.0
  0
LINE
  5
35C
330
1F
100
AcDbEntity
  8
16
  6
Continuous
 62
     3
370
    25
100
AcDbLine
 10
-119.349997105201
 20
-70.34999726166325
 30
0.0
 11
-120.0166637917359
 21
-70.34999726166325
 31
0.0
  0
CIRCLE
  5
35D
330
1F
100
AcDbEntity
  8
16
  6
Continuous
 62
     3
370
    25
100
AcDbCircle
 10
-118.3499971734372
 20
-70.93333061238124
 30
0.0
 40
0.3000000009934105
  0
LINE
  5
35E
330
1F
100
AcDbEntity
  8
16
  6
Continuous
 62
     3
370
    25
100
AcDbLine
 10
-115.3666646704078
 20
-70.34999726166325
 30
0.0
 11
-115.3666646704078
 21
-70.68333060493069
 31
0.0
  0
LINE
  5
35F
330
1F
100
AcDbEntity
  8
16
  6
Continuous
 62
     3
370
    25
100
AcDbLine
 10
-115.3666646704078
 20
-70.68333060493069
 30
0.0
 11
-114.8666646555066
 21
-70.68333060493069
 31
0.0
  0
LINE
  5
360
330
1F
100
AcDbEntity
  8
16
  6
Continuous
 62
     3
370
    25
100
AcDbLine
 10
-114.8666646555066
 20
-70.68333060493069
 30
0.0
 11
-114.1999979689717
 21
-71.84999730636673
 31
0.0
  0
LINE
  5
361
330
1F
100
AcDbEntity
  8
16
  6
Continuous
 62
     3
370
    25
100
AcDbLine
 10
-114.1999979689717
 20
-71.84999730636673
 30
0.0
 11
-114.1999979689717
 21
-72.34999732126789
 31
0.0
  0
LINE
  5
362
330
1F
100
AcDbEntity
  8
16
  6
Continuous
 62
     3
370
    25
100
AcDbLine
 10
-114.1999979689717
 20
-72.34999732126789
 30
0.0
 11
-114.033331297338
 21
-72.51666399290161
 31
0.0
  0
LINE
  5
363
330
1F
100
AcDbEntity
  8
16
  6
Continuous
 62
     3
370
    25
100
AcDbLine
 10
-114.033331297338
 20
-72.51666399290161
 30
0.0
 11
-114.033331297338
 21
-77.68333081354695
 31
0.0
  0
LINE
  5
364
330
1F
100
AcDbEntity
  8
16
  6
Continuous
 62
     3
370
    25
100
AcDbLine
 10
-114.033331297338
 20
-77.68333081354695
 30
0.0
 11
-113.3666646108031
 21
-77.68333081354695
 31
0.0
  0
LINE
  5
365
330
1F
100
AcDbEntity
  8
16
  6
Continuous
 62
     3
370
    25
100
AcDbLine
 10
-113.3666646108031
 20
-77.68333081354695
 30
0.0
 11
-113.3666646108031
 21
-72.51666399290161
 31
0.0
  0
LINE
  5
366
330
1F
100
AcDbEntity
  8
16
  6
Continuous
 62
     3
370
    25
100
AcDbLine
 10
-113.3666646108031
 20
-72.51666399290161
 30
0.0
 11
-113.1999979391694
 21
-72.34999732126789
 31
0.0
  0
LINE
  5
367
330
1F
100
AcDbEntity
  8
16
  6
Continuous
 62
     3
370
    25
100
AcDbLine
 10
-113.1999979391694
 20
-72.34999732126789
 30
0.0
 11
-113.1999979391694
 21
-71.84999730636673
 31
0.0
  0
LINE
  5
368
330
1F
100
AcDbEntity
  8
16
  6
Continuous
 62
     3
370
    25
100
AcDbLine
 10
-113.1999979391694
 20
-71.84999730636673
 30
0.0
 11
-112.5333312526345
 21
-70.68333060493069
 31
0.0
  0
LINE
  5
369
330
1F
100
AcDbEntity
  8
16
  6
Continuous
 62
     3
370
    25
100
AcDbLine
 10
-112.5333312526345
 20
-70.68333060493069
 30
0.0
 11
-112.0333312377334
 21
-70.68333060493069
 31
0.0
  0
LINE
  5
36A
330
1F
100
AcDbEntity
  8
16
  6
Continuous
 62
     3
370
    25
100
AcDbLine
 10
-112.0333312377334
 20
-70.68333060493069
 30
0.0
 11
-112.0333312377334
 21
-70.34999726166325
 31
0.0
  0
LINE
  5
36B
330
1F
100
AcDbEntity
  8
16
  6
Continuous
 62
     3
370
    25
100
AcDbLine
 10
-112.0333312377334
 20
-70.34999726166325
 30
0.0
 11
-112.6999979242682
 21
-70.34999726166325
 31
0.0
  0
LINE
  5
36C
330
1F
100
AcDbEntity
  8
16
  6
Continuous
 62
     3
370
    25
100
AcDbLine
 10
-112.6999979242682
 20
-70.34999726166325
 30
0.0
 11
-113.6999979540706
 21
-71.34999729146557
 31
0.0
  0
LINE
  5
36D
330
1F
100
AcDbEntity
  8
16
  6
Continuous
 62
     3
370
    25
100
AcDbLine
 10
-113.6999979540706
 20
-71.34999729146557
 30
0.0
 11
-114.6999979838729
 21
-70.34999726166325
 31
0.0
  0
LINE
  5
36E
330
1F
100
AcDbEntity
  8
16
  6
Continuous
 62
     3
370
    25
100
AcDbLine
 10
-114.6999979838729
 20
-70.34999726166325
 30
0.0
 11
-115.3666646704078
 21
-70.34999726166325
 31
0.0
  0
CIRCLE
  5
36F
330
1F
100
AcDbEntity
  8
16
  6
Continuous
 62
     3
370
    25
100
AcDbCircle
 10
-113.699998052109
 20
-70.93333061238124
 30
0.0
 40
0.3000000009934105
  0
LINE
  5
370
330
1F
100
AcDbEntity
  8
16
  6
Continuous
 62
     3
370
    25
100
AcDbLine
 10
-110.7166655490796
 20
-70.34999726166325
 30
0.0
 11
-110.7166655490796
 21
-70.68333060493069
 31
0.0
  0
LINE
  5
371
330
1F
100
AcDbEntity
  8
16
  6
Continuous
 62
     3
370
    25
100
AcDbLine
 10
-110.7166655490796
 20
-70.68333060493069
 30
0.0
 11
-110.2166655341784
 21
-70.68333060493069
 31
0.0
  0
LINE
  5
372
330
1F
100
AcDbEntity
  8
16
  6
Continuous
 62
     3
370
    25
100
AcDbLine
 10
-110.2166655341784
 20
-70.68333060493069
 30
0.0
 11
-109.5499988476435
 21
-71.84999730636673
 31
0.0
  0
LINE
  5
373
330
1F
100
AcDbEntity
  8
16
  6
Continuous
 62
     3
370
    25
100
AcDbLine
 10
-109.5499988476435
 20
-71.84999730636673
 30
0.0
 11
-109.5499988476435
 21
-72.34999732126789
 31
0.0
  0
LINE
  5
374
330
1F
100
AcDbEntity
  8
16
  6
Continuous
 62
     3
370
    25
100
AcDbLine
 10
-109.5499988476435
 20
-72.34999732126789
 30
0.0
 11
-109.3833321760098
 21
-72.51666399290161
 31
0.0
  0
LINE
  5
375
330
1F
100
AcDbEntity
  8
16
  6
Continuous
 62
     3
370
    25
100
AcDbLine
 10
-109.3833321760098
 20
-72.51666399290161
 30
0.0
 11
-109.3833321760098
 21
-77.68333081354695
 31
0.0
  0
LINE
  5
376
330
1F
100
AcDbEntity
  8
16
  6
Continuous
 62
     3
370
    25
100
AcDbLine
 10
-109.3833321760098
 20
-77.68333081354695
 30
0.0
 11
-108.7166654894749
 21
-77.68333081354695
 31
0.0
  0
LINE
  5
377
330
1F
100
AcDbEntity
  8
16
  6
Continuous
 62
     3
370
    25
100
AcDbLine
 10
-108.7166654894749
 20
-77.68333081354695
 30
0.0
 11
-108.7166654894749
 21
-72.51666399290161
 31
0.0
  0
LINE
  5
378
330
1F
100
AcDbEntity
  8
16
  6
Continuous
 62
     3
370
    25
100
AcDbLine
 10
-108.7166654894749
 20
-72.51666399290161
 30
0.0
 11
-108.5499988178412
 21
-72.34999732126789
 31
0.0
  0
LINE
  5
379
330
1F
100
AcDbEntity
  8
16
  6
Continuous
 62
     3
370
    25
100
AcDbLine
 10
-108.5499988178412
 20
-72.34999732126789
 30
0.0
 11
-108.5499988178412
 21
-71.84999730636673
 31
0.0
  0
LINE
  5
37A
330
1F
100
AcDbEntity
  8
16
  6
Continuous
 62
     3
370
    25
100
AcDbLine
 10
-108.5499988178412
 20
-71.84999730636673
 30
0.0
 11
-107.8833321313063
 21
-70.68333060493069
 31
0.0
  0
LINE
  5
37B
330
1F
100
AcDbEntity
  8
16
  6
Continuous
 62
     3
370
    25
100
AcDbLine
 10
-107.8833321313063
 20
-70.68333060493069
 30
0.0
 11
-107.3833321164052
 21
-70.68333060493069
 31
0.0
  0
LINE
  5
37C
330
1F
100
AcDbEntity
  8
16
  6
Continuous
 62
     3
370
    25
100
AcDbLine
 10
-107.3833321164052
 20
-70.68333060493069
 30
0.0
 11
-107.3833321164052
 21
-70.34999726166325
 31
0.0
  0
LINE
  5
37D
330
1F
100
AcDbEntity
  8
16
  6
Continuous
 62
     3
370
    25
100
AcDbLine
 10
-107.3833321164052
 20
-70.34999726166325
 30
0.0
 11
-108.0499988029401
 21
-70.34999726166325
 31
0.0
  0
LINE
  5
37E
330
1F
100
AcDbEntity
  8
16
  6
Continuous
 62
     3
370
    25
100
AcDbLine
 10
-108.0499988029401
 20
-70.34999726166325
 30
0.0
 11
-109.0499988327424
 21
-71.34999729146557
 31
0.0
  0
LINE
  5
37F
330
1F
100
AcDbEntity
  8
16
  6
Continuous
 62
     3
370
    25
100
AcDbLine
 10
-109.0499988327424
 20
-71.34999729146557
 30
0.0
 11
-110.0499988625447
 21
-70.34999726166325
 31
0.0
  0
LINE
  5
380
330
1F
100
AcDbEntity
  8
16
  6
Continuous
 62
     3
370
    25
100
AcDbLine
 10
-110.0499988625447
 20
-70.34999726166325
 30
0.0
 11
-110.7166655490796
 21
-70.34999726166325
 31
0.0
  0
CIRCLE
  5
381
330
1F
100
AcDbEntity
  8
16
  6
Continuous
 62
     3
370
    25
100
AcDbCircle
 10
-109.0499989307809
 20
-70.93333061238124
 30
0.0
 40
0.3000000009934105
  0
LINE
  5
382
330
1F
100
AcDbEntity
  8
16
  6
Continuous
 62
     3
370
    25
100
AcDbLine
 10
-106.0666664277514
 20
-70.34999726166325
 30
0.0
 11
-106.0666664277514
 21
-70.68333060493069
 31
0.0
  0
LINE
  5
383
330
1F
100
AcDbEntity
  8
16
  6
Continuous
 62
     3
370
    25
100
AcDbLine
 10
-106.0666664277514
 20
-70.68333060493069
 30
0.0
 11
-105.5666664128503
 21
-70.68333060493069
 31
0.0
  0
LINE
  5
384
330
1F
100
AcDbEntity
  8
16
  6
Continuous
 62
     3
370
    25
100
AcDbLine
 10
-105.5666664128503
 20
-70.68333060493069
 30
0.0
 11
-104.8999997263154
 21
-71.84999730636673
 31
0.0
  0
LINE
  5
385
330
1F
100
AcDbEntity
  8
16
  6
Continuous
 62
     3
370
    25
100
AcDbLine
 10
-104.8999997263154
 20
-71.84999730636673
 30
0.0
 11
-104.8999997263154
 21
-72.34999732126789
 31
0.0
  0
LINE
  5
386
330
1F
100
AcDbEntity
  8
16
  6
Continuous
 62
     3
370
    25
100
AcDbLine
 10
-104.8999997263154
 20
-72.34999732126789
 30
0.0
 11
-104.7333330546817
 21
-72.51666399290161
 31
0.0
  0
LINE
  5
387
330
1F
100
AcDbEntity
  8
16
  6
Continuous
 62
     3
370
    25
100
AcDbLine
 10
-104.7333330546817
 20
-72.51666399290161
 30
0.0
 11
-104.7333330546817
 21
-77.68333081354695
 31
0.0
  0
LINE
  5
388
330
1F
100
AcDbEntity
  8
16
  6
Continuous
 62
     3
370
    25
100
AcDbLine
 10
-104.7333330546817
 20
-77.68333081354695
 30
0.0
 11
-104.0666663681468
 21
-77.68333081354695
 31
0.0
  0
LINE
  5
389
330
1F
100
AcDbEntity
  8
16
  6
Continuous
 62
     3
370
    25
100
AcDbLine
 10
-104.0666663681468
 20
-77.68333081354695
 30
0.0
 11
-104.0666663681468
 21
-72.51666399290161
 31
0.0
  0
LINE
  5
38A
330
1F
100
AcDbEntity
  8
16
  6
Continuous
 62
     3
370
    25
100
AcDbLine
 10
-104.0666663681468
 20
-72.51666399290161
 30
0.0
 11
-103.8999996965131
 21
-72.34999732126789
 31
0.0
  0
LINE
  5
38B
330
1F
100
AcDbEntity
  8
16
  6
Continuous
 62
     3
370
    25
100
AcDbLine
 10
-103.8999996965131
 20
-72.34999732126789
 30
0.0
 11
-103.8999996965131
 21
-71.84999730636673
 31
0.0
  0
LINE
  5
38C
330
1F
100
AcDbEntity
  8
16
  6
Continuous
 62
     3
370
    25
100
AcDbLine
 10
-103.8999996965131
 20
-71.84999730636673
 30
0.0
 11
-103.2333330099782
 21
-70.68333060493069
 31
0.0
  0
LINE
  5
38D
330
1F
100
AcDbEntity
  8
16
  6
Continuous
 62
     3
370
    25
100
AcDbLine
 10
-103.2333330099782
 20
-70.68333060493069
 30
0.0
 11
-102.733332995077
 21
-70.68333060493069
 31
0.0
  0
LINE
  5
38E
330
1F
100
AcDbEntity
  8
16
  6
Continuous
 62
     3
370
    25
100
AcDbLine
 10
-102.733332995077
 20
-70.68333060493069
 30
0.0
 11
-102.733332995077
 21
-70.34999726166325
 31
0.0
  0
LINE
  5
38F
330
1F
100
AcDbEntity
  8
16
  6
Continuous
 62
     3
370
    25
100
AcDbLine
 10
-102.733332995077
 20
-70.34999726166325
 30
0.0
 11
-103.3999996816119
 21
-70.34999726166325
 31
0.0
  0
LINE
  5
390
330
1F
100
AcDbEntity
  8
16
  6
Continuous
 62
     3
370
    25
100
AcDbLine
 10
-103.3999996816119
 20
-70.34999726166325
 30
0.0
 11
-104.3999997114142
 21
-71.34999729146557
 31
0.0
  0
LINE
  5
391
330
1F
100
AcDbEntity
  8
16
  6
Continuous
 62
     3
370
    25
100
AcDbLine
 10
-104.3999997114142
 20
-71.34999729146557
 30
0.0
 11
-105.3999997412165
 21
-70.34999726166325
 31
0.0
  0
LINE
  5
392
330
1F
100
AcDbEntity
  8
16
  6
Continuous
 62
     3
370
    25
100
AcDbLine
 10
-105.3999997412165
 20
-70.34999726166325
 30
0.0
 11
-106.0666664277514
 21
-70.34999726166325
 31
0.0
  0
CIRCLE
  5
393
330
1F
100
AcDbEntity
  8
16
  6
Continuous
 62
     3
370
    25
100
AcDbCircle
 10
-104.3999998094527
 20
-70.93333061238124
 30
0.0
 40
0.3000000009934105
  0
LINE
  5
394
330
1F
100
AcDbEntity
  8
16
  6
Continuous
 62
     3
370
    25
100
AcDbLine
 10
-101.4166622201601
 20
-70.34999726166325
 30
0.0
 11
-101.4166622201601
 21
-70.68333060493069
 31
0.0
  0
LINE
  5
395
330
1F
100
AcDbEntity
  8
16
  6
Continuous
 62
     3
370
    25
100
AcDbLine
 10
-101.4166622201601
 20
-70.68333060493069
 30
0.0
 11
-100.9166622052589
 21
-70.68333060493069
 31
0.0
  0
LINE
  5
396
330
1F
100
AcDbEntity
  8
16
  6
Continuous
 62
     3
370
    25
100
AcDbLine
 10
-100.9166622052589
 20
-70.68333060493069
 30
0.0
 11
-100.2499955187241
 21
-71.84999730636673
 31
0.0
  0
LINE
  5
397
330
1F
100
AcDbEntity
  8
16
  6
Continuous
 62
     3
370
    25
100
AcDbLine
 10
-100.2499955187241
 20
-71.84999730636673
 30
0.0
 11
-100.2499955187241
 21
-72.34999732126789
 31
0.0
  0
LINE
  5
398
330
1F
100
AcDbEntity
  8
16
  6
Continuous
 62
     3
370
    25
100
AcDbLine
 10
-100.2499955187241
 20
-72.34999732126789
 30
0.0
 11
-100.0833288470903
 21
-72.51666399290161
 31
0.0
  0
LINE
  5
399
330
1F
100
AcDbEntity
  8
16
  6
Continuous
 62
     3
370
    25
100
AcDbLine
 10
-100.0833288470903
 20
-72.51666399290161
 30
0.0
 11
-100.0833288470903
 21
-77.68333081354695
 31
0.0
  0
LINE
  5
39A
330
1F
100
AcDbEntity
  8
16
  6
Continuous
 62
     3
370
    25
100
AcDbLine
 10
-100.0833288470903
 20
-77.68333081354695
 30
0.0
 11
-99.41666216055546
 21
-77.68333081354695
 31
0.0
  0
LINE
  5
39B
330
1F
100
AcDbEntity
  8
16
  6
Continuous
 62
     3
370
    25
100
AcDbLine
 10
-99.41666216055546
 20
-77.68333081354695
 30
0.0
 11
-99.41666216055546
 21
-72.51666399290161
 31
0.0
  0
LINE
  5
39C
330
1F
100
AcDbEntity
  8
16
  6
Continuous
 62
     3
370
    25
100
AcDbLine
 10
-99.41666216055546
 20
-72.51666399290161
 30
0.0
 11
-99.24999548892174
 21
-72.34999732126789
 31
0.0
  0
LINE
  5
39D
330
1F
100
AcDbEntity
  8
16
  6
Continuous
 62
     3
370
    25
100
AcDbLine
 10
-99.24999548892174
 20
-72.34999732126789
 30
0.0
 11
-99.24999548892174
 21
-71.84999730636673
 31
0.0
  0
LINE
  5
39E
330
1F
100
AcDbEntity
  8
16
  6
Continuous
 62
     3
370
    25
100
AcDbLine
 10
-99.24999548892174
 20
-71.84999730636673
 30
0.0
 11
-98.58332880238686
 21
-70.68333060493069
 31
0.0
  0
LINE
  5
39F
330
1F
100
AcDbEntity
  8
16
  6
Continuous
 62
     3
370
    25
100
AcDbLine
 10
-98.58332880238686
 20
-70.68333060493069
 30
0.0
 11
-98.0833287874857
 21
-70.68333060493069
 31
0.0
  0
LINE
  5
3A0
330
1F
100
AcDbEntity
  8
16
  6
Continuous
 62
     3
370
    25
100
AcDbLine
 10
-98.0833287874857
 20
-70.68333060493069
 30
0.0
 11
-98.0833287874857
 21
-70.34999726166325
 31
0.0
  0
LINE
  5
3A1
330
1F
100
AcDbEntity
  8
16
  6
Continuous
 62
     3
370
    25
100
AcDbLine
 10
-98.0833287874857
 20
-70.34999726166325
 30
0.0
 11
-98.74999547402058
 21
-70.34999726166325
 31
0.0
  0
LINE
  5
3A2
330
1F
100
AcDbEntity
  8
16
  6
Continuous
 62
     3
370
    25
100
AcDbLine
 10
-98.74999547402058
 20
-70.34999726166325
 30
0.0
 11
-99.7499955038229
 21
-71.34999729146557
 31
0.0
  0
LINE
  5
3A3
330
1F
100
AcDbEntity
  8
16
  6
Continuous
 62
     3
370
    25
100
AcDbLine
 10
-99.7499955038229
 20
-71.34999729146557
 30
0.0
 11
-100.7499955336252
 21
-70.34999726166325
 31
0.0
  0
LINE
  5
3A4
330
1F
100
AcDbEntity
  8
16
  6
Continuous
 62
     3
370
    25
100
AcDbLine
 10
-100.7499955336252
 20
-70.34999726166325
 30
0.0
 11
-101.4166622201601
 21
-70.34999726166325
 31
0.0
  0
CIRCLE
  5
3A5
330
1F
100
AcDbEntity
  8
16
  6
Continuous
 62
     3
370
    25
100
AcDbCircle
 10
-99.74999560186137
 20
-70.93333061238124
 30
0.0
 40
0.3000000009934105
  0
LINE
  5
3A6
330
1F
100
AcDbEntity
  8
16
  6
Continuous
 62
     3
370
    25
100
AcDbLine
 10
-96.76666818509511
 20
-70.34999726166325
 30
0.0
 11
-96.76666818509511
 21
-70.68333060493069
 31
0.0
  0
LINE
  5
3A7
330
1F
100
AcDbEntity
  8
16
  6
Continuous
 62
     3
370
    25
100
AcDbLine
 10
-96.76666818509511
 20
-70.68333060493069
 30
0.0
 11
-96.26666817019395
 21
-70.68333060493069
 31
0.0
  0
LINE
  5
3A8
330
1F
100
AcDbEntity
  8
16
  6
Continuous
 62
     3
370
    25
100
AcDbLine
 10
-96.26666817019395
 20
-70.68333060493069
 30
0.0
 11
-95.60000148365907
 21
-71.84999730636673
 31
0.0
  0
LINE
  5
3A9
330
1F
100
AcDbEntity
  8
16
  6
Continuous
 62
     3
370
    25
100
AcDbLine
 10
-95.60000148365907
 20
-71.84999730636673
 30
0.0
 11
-95.60000148365907
 21
-72.34999732126789
 31
0.0
  0
LINE
  5
3AA
330
1F
100
AcDbEntity
  8
16
  6
Continuous
 62
     3
370
    25
100
AcDbLine
 10
-95.60000148365907
 20
-72.34999732126789
 30
0.0
 11
-95.43333481202535
 21
-72.51666399290161
 31
0.0
  0
LINE
  5
3AB
330
1F
100
AcDbEntity
  8
16
  6
Continuous
 62
     3
370
    25
100
AcDbLine
 10
-95.43333481202535
 20
-72.51666399290161
 30
0.0
 11
-95.43333481202535
 21
-77.68333081354695
 31
0.0
  0
LINE
  5
3AC
330
1F
100
AcDbEntity
  8
16
  6
Continuous
 62
     3
370
    25
100
AcDbLine
 10
-95.43333481202535
 20
-77.68333081354695
 30
0.0
 11
-94.76666812549047
 21
-77.68333081354695
 31
0.0
  0
LINE
  5
3AD
330
1F
100
AcDbEntity
  8
16
  6
Continuous
 62
     3
370
    25
100
AcDbLine
 10
-94.76666812549047
 20
-77.68333081354695
 30
0.0
 11
-94.76666812549047
 21
-72.51666399290161
 31
0.0
  0
LINE
  5
3AE
330
1F
100
AcDbEntity
  8
16
  6
Continuous
 62
     3
370
    25
100
AcDbLine
 10
-94.76666812549047
 20
-72.51666399290161
 30
0.0
 11
-94.60000145385675
 21
-72.34999732126789
 31
0.0
  0
LINE
  5
3AF
330
1F
100
AcDbEntity
  8
16
  6
Continuous
 62
     3
370
    25
100
AcDbLine
 10
-94.60000145385675
 20
-72.34999732126789
 30
0.0
 11
-94.60000145385675
 21
-71.84999730636673
 31
0.0
  0
LINE
  5
3B0
330
1F
100
AcDbEntity
  8
16
  6
Continuous
 62
     3
370
    25
100
AcDbLine
 10
-94.60000145385675
 20
-71.84999730636673
 30
0.0
 11
-93.93333476732187
 21
-70.68333060493069
 31
0.0
  0
LINE
  5
3B1
330
1F
100
AcDbEntity
  8
16
  6
Continuous
 62
     3
370
    25
100
AcDbLine
 10
-93.93333476732187
 20
-70.68333060493069
 30
0.0
 11
-93.4333347524207
 21
-70.68333060493069
 31
0.0
  0
LINE
  5
3B2
330
1F
100
AcDbEntity
  8
16
  6
Continuous
 62
     3
370
    25
100
AcDbLine
 10
-93.4333347524207
 20
-70.68333060493069
 30
0.0
 11
-93.4333347524207
 21
-70.34999726166325
 31
0.0
  0
LINE
  5
3B3
330
1F
100
AcDbEntity
  8
16
  6
Continuous
 62
     3
370
    25
100
AcDbLine
 10
-93.4333347524207
 20
-70.34999726166325
 30
0.0
 11
-94.10000143895559
 21
-70.34999726166325
 31
0.0
  0
LINE
  5
3B4
330
1F
100
AcDbEntity
  8
16
  6
Continuous
 62
     3
370
    25
100
AcDbLine
 10
-94.10000143895559
 20
-70.34999726166325
 30
0.0
 11
-95.10000146875791
 21
-71.34999729146557
 31
0.0
  0
LINE
  5
3B5
330
1F
100
AcDbEntity
  8
16
  6
Continuous
 62
     3
370
    25
100
AcDbLine
 10
-95.10000146875791
 20
-71.34999729146557
 30
0.0
 11
-96.10000149856023
 21
-70.34999726166325
 31
0.0
  0
LINE
  5
3B6
330
1F
100
AcDbEntity
  8
16
  6
Continuous
 62
     3
370
    25
100
AcDbLine
 10
-96.10000149856023
 20
-70.34999726166325
 30
0.0
 11
-96.76666818509511
 21
-70.34999726166325
 31
0.0
  0
CIRCLE
  5
3B7
330
1F
100
AcDbEntity
  8
16
  6
Continuous
 62
     3
370
    25
100
AcDbCircle
 10
-95.10000156679638
 20
-70.93333061238124
 30
0.0
 40
0.3000000009934105
  0
LINE
  5
3B8
330
1F
100
AcDbEntity
  8
16
  6
Continuous
 62
     3
370
    25
100
AcDbLine
 10
-92.11666397750378
 20
-70.34999726166325
 30
0.0
 11
-92.11666397750378
 21
-70.68333060493069
 31
0.0
  0
LINE
  5
3B9
330
1F
100
AcDbEntity
  8
16
  6
Continuous
 62
     3
370
    25
100
AcDbLine
 10
-92.11666397750378
 20
-70.68333060493069
 30
0.0
 11
-91.61666396260262
 21
-70.68333060493069
 31
0.0
  0
LINE
  5
3BA
330
1F
100
AcDbEntity
  8
16
  6
Continuous
 62
     3
370
    25
100
AcDbLine
 10
-91.61666396260262
 20
-70.68333060493069
 30
0.0
 11
-90.94999727606773
 21
-71.84999730636673
 31
0.0
  0
LINE
  5
3BB
330
1F
100
AcDbEntity
  8
16
  6
Continuous
 62
     3
370
    25
100
AcDbLine
 10
-90.94999727606773
 20
-71.84999730636673
 30
0.0
 11
-90.94999727606773
 21
-72.34999732126789
 31
0.0
  0
LINE
  5
3BC
330
1F
100
AcDbEntity
  8
16
  6
Continuous
 62
     3
370
    25
100
AcDbLine
 10
-90.94999727606773
 20
-72.34999732126789
 30
0.0
 11
-90.78333060443401
 21
-72.51666399290161
 31
0.0
  0
LINE
  5
3BD
330
1F
100
AcDbEntity
  8
16
  6
Continuous
 62
     3
370
    25
100
AcDbLine
 10
-90.78333060443401
 20
-72.51666399290161
 30
0.0
 11
-90.78333060443401
 21
-77.68333081354695
 31
0.0
  0
LINE
  5
3BE
330
1F
100
AcDbEntity
  8
16
  6
Continuous
 62
     3
370
    25
100
AcDbLine
 10
-90.78333060443401
 20
-77.68333081354695
 30
0.0
 11
-90.11666391789913
 21
-77.68333081354695
 31
0.0
  0
LINE
  5
3BF
330
1F
100
AcDbEntity
  8
16
  6
Continuous
 62
     3
370
    25
100
AcDbLine
 10
-90.11666391789913
 20
-77.68333081354695
 30
0.0
 11
-90.11666391789913
 21
-72.51666399290161
 31
0.0
  0
LINE
  5
3C0
330
1F
100
AcDbEntity
  8
16
  6
Continuous
 62
     3
370
    25
100
AcDbLine
 10
-90.11666391789913
 20
-72.51666399290161
 30
0.0
 11
-89.94999724626541
 21
-72.34999732126789
 31
0.0
  0
LINE
  5
3C1
330
1F
100
AcDbEntity
  8
16
  6
Continuous
 62
     3
370
    25
100
AcDbLine
 10
-89.94999724626541
 20
-72.34999732126789
 30
0.0
 11
-89.94999724626541
 21
-71.84999730636673
 31
0.0
  0
LINE
  5
3C2
330
1F
100
AcDbEntity
  8
16
  6
Continuous
 62
     3
370
    25
100
AcDbLine
 10
-89.94999724626541
 20
-71.84999730636673
 30
0.0
 11
-89.28333055973053
 21
-70.68333060493069
 31
0.0
  0
LINE
  5
3C3
330
1F
100
AcDbEntity
  8
16
  6
Continuous
 62
     3
370
    25
100
AcDbLine
 10
-89.28333055973053
 20
-70.68333060493069
 30
0.0
 11
-88.78333054482937
 21
-70.68333060493069
 31
0.0
  0
LINE
  5
3C4
330
1F
100
AcDbEntity
  8
16
  6
Continuous
 62
     3
370
    25
100
AcDbLine
 10
-88.78333054482937
 20
-70.68333060493069
 30
0.0
 11
-88.78333054482937
 21
-70.34999726166325
 31
0.0
  0
LINE
  5
3C5
330
1F
100
AcDbEntity
  8
16
  6
Continuous
 62
     3
370
    25
100
AcDbLine
 10
-88.78333054482937
 20
-70.34999726166325
 30
0.0
 11
-89.44999723136425
 21
-70.34999726166325
 31
0.0
  0
LINE
  5
3C6
330
1F
100
AcDbEntity
  8
16
  6
Continuous
 62
     3
370
    25
100
AcDbLine
 10
-89.44999723136425
 20
-70.34999726166325
 30
0.0
 11
-90.44999726116657
 21
-71.34999729146557
 31
0.0
  0
LINE
  5
3C7
330
1F
100
AcDbEntity
  8
16
  6
Continuous
 62
     3
370
    25
100
AcDbLine
 10
-90.44999726116657
 20
-71.34999729146557
 30
0.0
 11
-91.4499972909689
 21
-70.34999726166325
 31
0.0
  0
LINE
  5
3C8
330
1F
100
AcDbEntity
  8
16
  6
Continuous
 62
     3
370
    25
100
AcDbLine
 10
-91.4499972909689
 20
-70.34999726166325
 30
0.0
 11
-92.11666397750378
 21
-70.34999726166325
 31
0.0
  0
CIRCLE
  5
3C9
330
1F
100
AcDbEntity
  8
16
  6
Continuous
 62
     3
370
    25
100
AcDbCircle
 10
-90.44999735920504
 20
-70.93333061238124
 30
0.0
 40
0.3000000009934105
  0
LINE
  5
3CA
330
1F
100
AcDbEntity
  8
16
  6
Continuous
 62
     3
370
    25
100
AcDbLine
 10
-87.46665976991244
 20
-70.34999726166325
 30
0.0
 11
-87.46665976991244
 21
-70.68333060493069
 31
0.0
  0
LINE
  5
3CB
330
1F
100
AcDbEntity
  8
16
  6
Continuous
 62
     3
370
    25
100
AcDbLine
 10
-87.46665976991244
 20
-70.68333060493069
 30
0.0
 11
-86.96665975501128
 21
-70.68333060493069
 31
0.0
  0
LINE
  5
3CC
330
1F
100
AcDbEntity
  8
16
  6
Continuous
 62
     3
370
    25
100
AcDbLine
 10
-86.96665975501128
 20
-70.68333060493069
 30
0.0
 11
-86.2999930684764
 21
-71.84999730636673
 31
0.0
  0
LINE
  5
3CD
330
1F
100
AcDbEntity
  8
16
  6
Continuous
 62
     3
370
    25
100
AcDbLine
 10
-86.2999930684764
 20
-71.84999730636673
 30
0.0
 11
-86.2999930684764
 21
-72.34999732126789
 31
0.0
  0
LINE
  5
3CE
330
1F
100
AcDbEntity
  8
16
  6
Continuous
 62
     3
370
    25
100
AcDbLine
 10
-86.2999930684764
 20
-72.34999732126789
 30
0.0
 11
-86.13332639684268
 21
-72.51666399290161
 31
0.0
  0
LINE
  5
3CF
330
1F
100
AcDbEntity
  8
16
  6
Continuous
 62
     3
370
    25
100
AcDbLine
 10
-86.13332639684268
 20
-72.51666399290161
 30
0.0
 11
-86.13332639684268
 21
-77.68333081354695
 31
0.0
  0
LINE
  5
3D0
330
1F
100
AcDbEntity
  8
16
  6
Continuous
 62
     3
370
    25
100
AcDbLine
 10
-86.13332639684268
 20
-77.68333081354695
 30
0.0
 11
-85.4666597103078
 21
-77.68333081354695
 31
0.0
  0
LINE
  5
3D1
330
1F
100
AcDbEntity
  8
16
  6
Continuous
 62
     3
370
    25
100
AcDbLine
 10
-85.4666597103078
 20
-77.68333081354695
 30
0.0
 11
-85.4666597103078
 21
-72.51666399290161
 31
0.0
  0
LINE
  5
3D2
330
1F
100
AcDbEntity
  8
16
  6
Continuous
 62
     3
370
    25
100
AcDbLine
 10
-85.4666597103078
 20
-72.51666399290161
 30
0.0
 11
-85.29999303867407
 21
-72.34999732126789
 31
0.0
  0
LINE
  5
3D3
330
1F
100
AcDbEntity
  8
16
  6
Continuous
 62
     3
370
    25
100
AcDbLine
 10
-85.29999303867407
 20
-72.34999732126789
 30
0.0
 11
-85.29999303867407
 21
-71.84999730636673
 31
0.0
  0
LINE
  5
3D4
330
1F
100
AcDbEntity
  8
16
  6
Continuous
 62
     3
370
    25
100
AcDbLine
 10
-85.29999303867407
 20
-71.84999730636673
 30
0.0
 11
-84.63332635213919
 21
-70.68333060493069
 31
0.0
  0
LINE
  5
3D5
330
1F
100
AcDbEntity
  8
16
  6
Continuous
 62
     3
370
    25
100
AcDbLine
 10
-84.63332635213919
 20
-70.68333060493069
 30
0.0
 11
-84.13332633723803
 21
-70.68333060493069
 31
0.0
  0
LINE
  5
3D6
330
1F
100
AcDbEntity
  8
16
  6
Continuous
 62
     3
370
    25
100
AcDbLine
 10
-84.13332633723803
 20
-70.68333060493069
 30
0.0
 11
-84.13332633723803
 21
-70.34999726166325
 31
0.0
  0
LINE
  5
3D7
330
1F
100
AcDbEntity
  8
16
  6
Continuous
 62
     3
370
    25
100
AcDbLine
 10
-84.13332633723803
 20
-70.34999726166325
 30
0.0
 11
-84.79999302377291
 21
-70.34999726166325
 31
0.0
  0
LINE
  5
3D8
330
1F
100
AcDbEntity
  8
16
  6
Continuous
 62
     3
370
    25
100
AcDbLine
 10
-84.79999302377291
 20
-70.34999726166325
 30
0.0
 11
-85.79999305357524
 21
-71.34999729146557
 31
0.0
  0
LINE
  5
3D9
330
1F
100
AcDbEntity
  8
16
  6
Continuous
 62
     3
370
    25
100
AcDbLine
 10
-85.79999305357524
 20
-71.34999729146557
 30
0.0
 11
-86.79999308337756
 21
-70.34999726166325
 31
0.0
  0
LINE
  5
3DA
330
1F
100
AcDbEntity
  8
16
  6
Continuous
 62
     3
370
    25
100
AcDbLine
 10
-86.79999308337756
 20
-70.34999726166325
 30
0.0
 11
-87.46665976991244
 21
-70.34999726166325
 31
0.0
  0
CIRCLE
  5
3DB
330
1F
100
AcDbEntity
  8
16
  6
Continuous
 62
     3
370
    25
100
AcDbCircle
 10
-85.7999931516137
 20
-70.93333061238124
 30
0.0
 40
0.3000000009934105
  0
LINE
  5
3DC
330
1F
100
AcDbEntity
  8
16
  6
Continuous
 62
     3
370
    25
100
AcDbLine
 10
-82.81666573484745
 20
-70.34999726166325
 30
0.0
 11
-82.81666573484745
 21
-70.68333060493069
 31
0.0
  0
LINE
  5
3DD
330
1F
100
AcDbEntity
  8
16
  6
Continuous
 62
     3
370
    25
100
AcDbLine
 10
-82.81666573484745
 20
-70.68333060493069
 30
0.0
 11
-82.31666571994629
 21
-70.68333060493069
 31
0.0
  0
LINE
  5
3DE
330
1F
100
AcDbEntity
  8
16
  6
Continuous
 62
     3
370
    25
100
AcDbLine
 10
-82.31666571994629
 20
-70.68333060493069
 30
0.0
 11
-81.6499990334114
 21
-71.84999730636673
 31
0.0
  0
LINE
  5
3DF
330
1F
100
AcDbEntity
  8
16
  6
Continuous
 62
     3
370
    25
100
AcDbLine
 10
-81.6499990334114
 20
-71.84999730636673
 30
0.0
 11
-81.6499990334114
 21
-72.34999732126789
 31
0.0
  0
LINE
  5
3E0
330
1F
100
AcDbEntity
  8
16
  6
Continuous
 62
     3
370
    25
100
AcDbLine
 10
-81.6499990334114
 20
-72.34999732126789
 30
0.0
 11
-81.48333236177768
 21
-72.51666399290161
 31
0.0
  0
LINE
  5
3E1
330
1F
100
AcDbEntity
  8
16
  6
Continuous
 62
     3
370
    25
100
AcDbLine
 10
-81.48333236177768
 20
-72.51666399290161
 30
0.0
 11
-81.48333236177768
 21
-77.68333081354695
 31
0.0
  0
LINE
  5
3E2
330
1F
100
AcDbEntity
  8
16
  6
Continuous
 62
     3
370
    25
100
AcDbLine
 10
-81.48333236177768
 20
-77.68333081354695
 30
0.0
 11
-80.8166656752428
 21
-77.68333081354695
 31
0.0
  0
LINE
  5
3E3
330
1F
100
AcDbEntity
  8
16
  6
Continuous
 62
     3
370
    25
100
AcDbLine
 10
-80.8166656752428
 20
-77.68333081354695
 30
0.0
 11
-80.8166656752428
 21
-72.51666399290161
 31
0.0
  0
LINE
  5
3E4
330
1F
100
AcDbEntity
  8
16
  6
Continuous
 62
     3
370
    25
100
AcDbLine
 10
-80.8166656752428
 20
-72.51666399290161
 30
0.0
 11
-80.64999900360908
 21
-72.34999732126789
 31
0.0
  0
LINE
  5
3E5
330
1F
100
AcDbEntity
  8
16
  6
Continuous
 62
     3
370
    25
100
AcDbLine
 10
-80.64999900360908
 20
-72.34999732126789
 30
0.0
 11
-80.64999900360908
 21
-71.84999730636673
 31
0.0
  0
LINE
  5
3E6
330
1F
100
AcDbEntity
  8
16
  6
Continuous
 62
     3
370
    25
100
AcDbLine
 10
-80.64999900360908
 20
-71.84999730636673
 30
0.0
 11
-79.9833323170742
 21
-70.68333060493069
 31
0.0
  0
LINE
  5
3E7
330
1F
100
AcDbEntity
  8
16
  6
Continuous
 62
     3
370
    25
100
AcDbLine
 10
-79.9833323170742
 20
-70.68333060493069
 30
0.0
 11
-79.48333230217304
 21
-70.68333060493069
 31
0.0
  0
LINE
  5
3E8
330
1F
100
AcDbEntity
  8
16
  6
Continuous
 62
     3
370
    25
100
AcDbLine
 10
-79.48333230217304
 20
-70.68333060493069
 30
0.0
 11
-79.48333230217304
 21
-70.34999726166325
 31
0.0
  0
LINE
  5
3E9
330
1F
100
AcDbEntity
  8
16
  6
Continuous
 62
     3
370
    25
100
AcDbLine
 10
-79.48333230217304
 20
-70.34999726166325
 30
0.0
 11
-80.14999898870792
 21
-70.34999726166325
 31
0.0
  0
LINE
  5
3EA
330
1F
100
AcDbEntity
  8
16
  6
Continuous
 62
     3
370
    25
100
AcDbLine
 10
-80.14999898870792
 20
-70.34999726166325
 30
0.0
 11
-81.14999901851024
 21
-71.34999729146557
 31
0.0
  0
LINE
  5
3EB
330
1F
100
AcDbEntity
  8
16
  6
Continuous
 62
     3
370
    25
100
AcDbLine
 10
-81.14999901851024
 20
-71.34999729146557
 30
0.0
 11
-82.14999904831257
 21
-70.34999726166325
 31
0.0
  0
LINE
  5
3EC
330
1F
100
AcDbEntity
  8
16
  6
Continuous
 62
     3
370
    25
100
AcDbLine
 10
-82.14999904831257
 20
-70.34999726166325
 30
0.0
 11
-82.81666573484745
 21
-70.34999726166325
 31
0.0
  0
CIRCLE
  5
3ED
330
1F
100
AcDbEntity
  8
16
  6
Continuous
 62
     3
370
    25
100
AcDbCircle
 10
-81.14999911654871
 20
-70.93333061238124
 30
0.0
 40
0.3000000009934105
  0
LINE
  5
3EE
330
1F
100
AcDbEntity
  8
16
  6
Continuous
 62
     3
370
    25
100
AcDbLine
 10
-78.16666152725611
 20
-70.34999726166325
 30
0.0
 11
-78.16666152725611
 21
-70.68333060493069
 31
0.0
  0
LINE
  5
3EF
330
1F
100
AcDbEntity
  8
16
  6
Continuous
 62
     3
370
    25
100
AcDbLine
 10
-78.16666152725611
 20
-70.68333060493069
 30
0.0
 11
-77.66666151235495
 21
-70.68333060493069
 31
0.0
  0
LINE
  5
3F0
330
1F
100
AcDbEntity
  8
16
  6
Continuous
 62
     3
370
    25
100
AcDbLine
 10
-77.66666151235495
 20
-70.68333060493069
 30
0.0
 11
-76.99999482582007
 21
-71.84999730636673
 31
0.0
  0
LINE
  5
3F1
330
1F
100
AcDbEntity
  8
16
  6
Continuous
 62
     3
370
    25
100
AcDbLine
 10
-76.99999482582007
 20
-71.84999730636673
 30
0.0
 11
-76.99999482582007
 21
-72.34999732126789
 31
0.0
  0
LINE
  5
3F2
330
1F
100
AcDbEntity
  8
16
  6
Continuous
 62
     3
370
    25
100
AcDbLine
 10
-76.99999482582007
 20
-72.34999732126789
 30
0.0
 11
-76.83332815418635
 21
-72.51666399290161
 31
0.0
  0
LINE
  5
3F3
330
1F
100
AcDbEntity
  8
16
  6
Continuous
 62
     3
370
    25
100
AcDbLine
 10
-76.83332815418635
 20
-72.51666399290161
 30
0.0
 11
-76.83332815418635
 21
-77.68333081354695
 31
0.0
  0
LINE
  5
3F4
330
1F
100
AcDbEntity
  8
16
  6
Continuous
 62
     3
370
    25
100
AcDbLine
 10
-76.83332815418635
 20
-77.68333081354695
 30
0.0
 11
-76.16666146765147
 21
-77.68333081354695
 31
0.0
  0
LINE
  5
3F5
330
1F
100
AcDbEntity
  8
16
  6
Continuous
 62
     3
370
    25
100
AcDbLine
 10
-76.16666146765147
 20
-77.68333081354695
 30
0.0
 11
-76.16666146765147
 21
-72.51666399290161
 31
0.0
  0
LINE
  5
3F6
330
1F
100
AcDbEntity
  8
16
  6
Continuous
 62
     3
370
    25
100
AcDbLine
 10
-76.16666146765147
 20
-72.51666399290161
 30
0.0
 11
-75.99999479601775
 21
-72.34999732126789
 31
0.0
  0
LINE
  5
3F7
330
1F
100
AcDbEntity
  8
16
  6
Continuous
 62
     3
370
    25
100
AcDbLine
 10
-75.99999479601775
 20
-72.34999732126789
 30
0.0
 11
-75.99999479601775
 21
-71.84999730636673
 31
0.0
  0
LINE
  5
3F8
330
1F
100
AcDbEntity
  8
16
  6
Continuous
 62
     3
370
    25
100
AcDbLine
 10
-75.99999479601775
 20
-71.84999730636673
 30
0.0
 11
-75.33332810948286
 21
-70.68333060493069
 31
0.0
  0
LINE
  5
3F9
330
1F
100
AcDbEntity
  8
16
  6
Continuous
 62
     3
370
    25
100
AcDbLine
 10
-75.33332810948286
 20
-70.68333060493069
 30
0.0
 11
-74.8333280945817
 21
-70.68333060493069
 31
0.0
  0
LINE
  5
3FA
330
1F
100
AcDbEntity
  8
16
  6
Continuous
 62
     3
370
    25
100
AcDbLine
 10
-74.8333280945817
 20
-70.68333060493069
 30
0.0
 11
-74.8333280945817
 21
-70.34999726166325
 31
0.0
  0
LINE
  5
3FB
330
1F
100
AcDbEntity
  8
16
  6
Continuous
 62
     3
370
    25
100
AcDbLine
 10
-74.8333280945817
 20
-70.34999726166325
 30
0.0
 11
-75.49999478111658
 21
-70.34999726166325
 31
0.0
  0
LINE
  5
3FC
330
1F
100
AcDbEntity
  8
16
  6
Continuous
 62
     3
370
    25
100
AcDbLine
 10
-75.49999478111658
 20
-70.34999726166325
 30
0.0
 11
-76.4999948109189
 21
-71.34999729146557
 31
0.0
  0
LINE
  5
3FD
330
1F
100
AcDbEntity
  8
16
  6
Continuous
 62
     3
370
    25
100
AcDbLine
 10
-76.4999948109189
 20
-71.34999729146557
 30
0.0
 11
-77.49999484072123
 21
-70.34999726166325
 31
0.0
  0
LINE
  5
3FE
330
1F
100
AcDbEntity
  8
16
  6
Continuous
 62
     3
370
    25
100
AcDbLine
 10
-77.49999484072123
 20
-70.34999726166325
 30
0.0
 11
-78.16666152725611
 21
-70.34999726166325
 31
0.0
  0
CIRCLE
  5
3FF
330
1F
100
AcDbEntity
  8
16
  6
Continuous
 62
     3
370
    25
100
AcDbCircle
 10
-76.49999490895738
 20
-70.93333061238124
 30
0.0
 40
0.3000000009934105
  0
LINE
  5
400
330
1F
100
AcDbEntity
  8
16
  6
Continuous
 62
     3
370
    25
100
AcDbLine
 10
-73.51666749219112
 20
-70.34999726166325
 30
0.0
 11
-73.51666749219112
 21
-70.68333060493069
 31
0.0
  0
LINE
  5
401
330
1F
100
AcDbEntity
  8
16
  6
Continuous
 62
     3
370
    25
100
AcDbLine
 10
-73.51666749219112
 20
-70.68333060493069
 30
0.0
 11
-73.01666747728996
 21
-70.68333060493069
 31
0.0
  0
LINE
  5
402
330
1F
100
AcDbEntity
  8
16
  6
Continuous
 62
     3
370
    25
100
AcDbLine
 10
-73.01666747728996
 20
-70.68333060493069
 30
0.0
 11
-72.35000079075508
 21
-71.84999730636673
 31
0.0
  0
LINE
  5
403
330
1F
100
AcDbEntity
  8
16
  6
Continuous
 62
     3
370
    25
100
AcDbLine
 10
-72.35000079075508
 20
-71.84999730636673
 30
0.0
 11
-72.35000079075508
 21
-72.34999732126789
 31
0.0
  0
LINE
  5
404
330
1F
100
AcDbEntity
  8
16
  6
Continuous
 62
     3
370
    25
100
AcDbLine
 10
-72.35000079075508
 20
-72.34999732126789
 30
0.0
 11
-72.18333411912135
 21
-72.51666399290161
 31
0.0
  0
LINE
  5
405
330
1F
100
AcDbEntity
  8
16
  6
Continuous
 62
     3
370
    25
100
AcDbLine
 10
-72.18333411912135
 20
-72.51666399290161
 30
0.0
 11
-72.18333411912135
 21
-77.68333081354695
 31
0.0
  0
LINE
  5
406
330
1F
100
AcDbEntity
  8
16
  6
Continuous
 62
     3
370
    25
100
AcDbLine
 10
-72.18333411912135
 20
-77.68333081354695
 30
0.0
 11
-71.51666743258647
 21
-77.68333081354695
 31
0.0
  0
LINE
  5
407
330
1F
100
AcDbEntity
  8
16
  6
Continuous
 62
     3
370
    25
100
AcDbLine
 10
-71.51666743258647
 20
-77.68333081354695
 30
0.0
 11
-71.51666743258647
 21
-72.51666399290161
 31
0.0
  0
LINE
  5
408
330
1F
100
AcDbEntity
  8
16
  6
Continuous
 62
     3
370
    25
100
AcDbLine
 10
-71.51666743258647
 20
-72.51666399290161
 30
0.0
 11
-71.35000076095275
 21
-72.34999732126789
 31
0.0
  0
LINE
  5
409
330
1F
100
AcDbEntity
  8
16
  6
Continuous
 62
     3
370
    25
100
AcDbLine
 10
-71.35000076095275
 20
-72.34999732126789
 30
0.0
 11
-71.35000076095275
 21
-71.84999730636673
 31
0.0
  0
LINE
  5
40A
330
1F
100
AcDbEntity
  8
16
  6
Continuous
 62
     3
370
    25
100
AcDbLine
 10
-71.35000076095275
 20
-71.84999730636673
 30
0.0
 11
-70.68333407441787
 21
-70.68333060493069
 31
0.0
  0
LINE
  5
40B
330
1F
100
AcDbEntity
  8
16
  6
Continuous
 62
     3
370
    25
100
AcDbLine
 10
-70.68333407441787
 20
-70.68333060493069
 30
0.0
 11
-70.18333405951671
 21
-70.68333060493069
 31
0.0
  0
LINE
  5
40C
330
1F
100
AcDbEntity
  8
16
  6
Continuous
 62
     3
370
    25
100
AcDbLine
 10
-70.18333405951671
 20
-70.68333060493069
 30
0.0
 11
-70.18333405951671
 21
-70.34999726166325
 31
0.0
  0
LINE
  5
40D
330
1F
100
AcDbEntity
  8
16
  6
Continuous
 62
     3
370
    25
100
AcDbLine
 10
-70.18333405951671
 20
-70.34999726166325
 30
0.0
 11
-70.85000074605159
 21
-70.34999726166325
 31
0.0
  0
LINE
  5
40E
330
1F
100
AcDbEntity
  8
16
  6
Continuous
 62
     3
370
    25
100
AcDbLine
 10
-70.85000074605159
 20
-70.34999726166325
 30
0.0
 11
-71.85000077585391
 21
-71.34999729146557
 31
0.0
  0
LINE
  5
40F
330
1F
100
AcDbEntity
  8
16
  6
Continuous
 62
     3
370
    25
100
AcDbLine
 10
-71.85000077585391
 20
-71.34999729146557
 30
0.0
 11
-72.85000080565624
 21
-70.34999726166325
 31
0.0
  0
LINE
  5
410
330
1F
100
AcDbEntity
  8
16
  6
Continuous
 62
     3
370
    25
100
AcDbLine
 10
-72.85000080565624
 20
-70.34999726166325
 30
0.0
 11
-73.51666749219112
 21
-70.34999726166325
 31
0.0
  0
CIRCLE
  5
411
330
1F
100
AcDbEntity
  8
16
  6
Continuous
 62
     3
370
    25
100
AcDbCircle
 10
-71.85000087389238
 20
-70.93333061238124
 30
0.0
 40
0.3000000009934105
  0
LINE
  5
412
330
1F
100
AcDbEntity
  8
16
  6
Continuous
 62
     3
370
    25
100
AcDbLine
 10
-68.86666328459978
 20
-70.34999726166325
 30
0.0
 11
-68.86666328459978
 21
-70.68333060493069
 31
0.0
  0
LINE
  5
413
330
1F
100
AcDbEntity
  8
16
  6
Continuous
 62
     3
370
    25
100
AcDbLine
 10
-68.86666328459978
 20
-70.68333060493069
 30
0.0
 11
-68.36666326969862
 21
-70.68333060493069
 31
0.0
  0
LINE
  5
414
330
1F
100
AcDbEntity
  8
16
  6
Continuous
 62
     3
370
    25
100
AcDbLine
 10
-68.36666326969862
 20
-70.68333060493069
 30
0.0
 11
-67.69999658316374
 21
-71.84999730636673
 31
0.0
  0
LINE
  5
415
330
1F
100
AcDbEntity
  8
16
  6
Continuous
 62
     3
370
    25
100
AcDbLine
 10
-67.69999658316374
 20
-71.84999730636673
 30
0.0
 11
-67.69999658316374
 21
-72.34999732126789
 31
0.0
  0
LINE
  5
416
330
1F
100
AcDbEntity
  8
16
  6
Continuous
 62
     3
370
    25
100
AcDbLine
 10
-67.69999658316374
 20
-72.34999732126789
 30
0.0
 11
-67.53332991153002
 21
-72.51666399290161
 31
0.0
  0
LINE
  5
417
330
1F
100
AcDbEntity
  8
16
  6
Continuous
 62
     3
370
    25
100
AcDbLine
 10
-67.53332991153002
 20
-72.51666399290161
 30
0.0
 11
-67.53332991153002
 21
-77.68333081354695
 31
0.0
  0
LINE
  5
418
330
1F
100
AcDbEntity
  8
16
  6
Continuous
 62
     3
370
    25
100
AcDbLine
 10
-67.53332991153002
 20
-77.68333081354695
 30
0.0
 11
-66.86666322499514
 21
-77.68333081354695
 31
0.0
  0
LINE
  5
419
330
1F
100
AcDbEntity
  8
16
  6
Continuous
 62
     3
370
    25
100
AcDbLine
 10
-66.86666322499514
 20
-77.68333081354695
 30
0.0
 11
-66.86666322499514
 21
-72.51666399290161
 31
0.0
  0
LINE
  5
41A
330
1F
100
AcDbEntity
  8
16
  6
Continuous
 62
     3
370
    25
100
AcDbLine
 10
-66.86666322499514
 20
-72.51666399290161
 30
0.0
 11
-66.69999655336142
 21
-72.34999732126789
 31
0.0
  0
LINE
  5
41B
330
1F
100
AcDbEntity
  8
16
  6
Continuous
 62
     3
370
    25
100
AcDbLine
 10
-66.69999655336142
 20
-72.34999732126789
 30
0.0
 11
-66.69999655336142
 21
-71.84999730636673
 31
0.0
  0
LINE
  5
41C
330
1F
100
AcDbEntity
  8
16
  6
Continuous
 62
     3
370
    25
100
AcDbLine
 10
-66.69999655336142
 20
-71.84999730636673
 30
0.0
 11
-66.03332986682653
 21
-70.68333060493069
 31
0.0
  0
LINE
  5
41D
330
1F
100
AcDbEntity
  8
16
  6
Continuous
 62
     3
370
    25
100
AcDbLine
 10
-66.03332986682653
 20
-70.68333060493069
 30
0.0
 11
-65.53332985192537
 21
-70.68333060493069
 31
0.0
  0
LINE
  5
41E
330
1F
100
AcDbEntity
  8
16
  6
Continuous
 62
     3
370
    25
100
AcDbLine
 10
-65.53332985192537
 20
-70.68333060493069
 30
0.0
 11
-65.53332985192537
 21
-70.34999726166325
 31
0.0
  0
LINE
  5
41F
330
1F
100
AcDbEntity
  8
16
  6
Continuous
 62
     3
370
    25
100
AcDbLine
 10
-65.53332985192537
 20
-70.34999726166325
 30
0.0
 11
-66.19999653846025
 21
-70.34999726166325
 31
0.0
  0
LINE
  5
420
330
1F
100
AcDbEntity
  8
16
  6
Continuous
 62
     3
370
    25
100
AcDbLine
 10
-66.19999653846025
 20
-70.34999726166325
 30
0.0
 11
-67.19999656826258
 21
-71.34999729146557
 31
0.0
  0
LINE
  5
421
330
1F
100
AcDbEntity
  8
16
  6
Continuous
 62
     3
370
    25
100
AcDbLine
 10
-67.19999656826258
 20
-71.34999729146557
 30
0.0
 11
-68.1999965980649
 21
-70.34999726166325
 31
0.0
  0
LINE
  5
422
330
1F
100
AcDbEntity
  8
16
  6
Continuous
 62
     3
370
    25
100
AcDbLine
 10
-68.1999965980649
 20
-70.34999726166325
 30
0.0
 11
-68.86666328459978
 21
-70.34999726166325
 31
0.0
  0
CIRCLE
  5
423
330
1F
100
AcDbEntity
  8
16
  6
Continuous
 62
     3
370
    25
100
AcDbCircle
 10
-67.19999666630105
 20
-70.93333061238124
 30
0.0
 40
0.3000000009934105
  0
LINE
  5
424
330
1F
100
AcDbEntity
  8
16
  6
Continuous
 62
     3
370
    25
100
AcDbLine
 10
-64.21665907700844
 20
-70.34999726166325
 30
0.0
 11
-64.21665907700844
 21
-70.68333060493069
 31
0.0
  0
LINE
  5
425
330
1F
100
AcDbEntity
  8
16
  6
Continuous
 62
     3
370
    25
100
AcDbLine
 10
-64.21665907700844
 20
-70.68333060493069
 30
0.0
 11
-63.71665906210729
 21
-70.68333060493069
 31
0.0
  0
LINE
  5
426
330
1F
100
AcDbEntity
  8
16
  6
Continuous
 62
     3
370
    25
100
AcDbLine
 10
-63.71665906210729
 20
-70.68333060493069
 30
0.0
 11
-63.04999237557241
 21
-71.84999730636673
 31
0.0
  0
LINE
  5
427
330
1F
100
AcDbEntity
  8
16
  6
Continuous
 62
     3
370
    25
100
AcDbLine
 10
-63.04999237557241
 20
-71.84999730636673
 30
0.0
 11
-63.04999237557241
 21
-72.34999732126789
 31
0.0
  0
LINE
  5
428
330
1F
100
AcDbEntity
  8
16
  6
Continuous
 62
     3
370
    25
100
AcDbLine
 10
-63.04999237557241
 20
-72.34999732126789
 30
0.0
 11
-62.88332570393869
 21
-72.51666399290161
 31
0.0
  0
LINE
  5
429
330
1F
100
AcDbEntity
  8
16
  6
Continuous
 62
     3
370
    25
100
AcDbLine
 10
-62.88332570393869
 20
-72.51666399290161
 30
0.0
 11
-62.88332570393869
 21
-77.68333081354695
 31
0.0
  0
LINE
  5
42A
330
1F
100
AcDbEntity
  8
16
  6
Continuous
 62
     3
370
    25
100
AcDbLine
 10
-62.88332570393869
 20
-77.68333081354695
 30
0.0
 11
-62.21665901740381
 21
-77.68333081354695
 31
0.0
  0
LINE
  5
42B
330
1F
100
AcDbEntity
  8
16
  6
Continuous
 62
     3
370
    25
100
AcDbLine
 10
-62.21665901740381
 20
-77.68333081354695
 30
0.0
 11
-62.21665901740381
 21
-72.51666399290161
 31
0.0
  0
LINE
  5
42C
330
1F
100
AcDbEntity
  8
16
  6
Continuous
 62
     3
370
    25
100
AcDbLine
 10
-62.21665901740381
 20
-72.51666399290161
 30
0.0
 11
-62.04999234577009
 21
-72.34999732126789
 31
0.0
  0
LINE
  5
42D
330
1F
100
AcDbEntity
  8
16
  6
Continuous
 62
     3
370
    25
100
AcDbLine
 10
-62.04999234577009
 20
-72.34999732126789
 30
0.0
 11
-62.04999234577009
 21
-71.84999730636673
 31
0.0
  0
LINE
  5
42E
330
1F
100
AcDbEntity
  8
16
  6
Continuous
 62
     3
370
    25
100
AcDbLine
 10
-62.04999234577009
 20
-71.84999730636673
 30
0.0
 11
-61.3833256592352
 21
-70.68333060493069
 31
0.0
  0
LINE
  5
42F
330
1F
100
AcDbEntity
  8
16
  6
Continuous
 62
     3
370
    25
100
AcDbLine
 10
-61.3833256592352
 20
-70.68333060493069
 30
0.0
 11
-60.88332564433404
 21
-70.68333060493069
 31
0.0
  0
LINE
  5
430
330
1F
100
AcDbEntity
  8
16
  6
Continuous
 62
     3
370
    25
100
AcDbLine
 10
-60.88332564433404
 20
-70.68333060493069
 30
0.0
 11
-60.88332564433404
 21
-70.34999726166325
 31
0.0
  0
LINE
  5
431
330
1F
100
AcDbEntity
  8
16
  6
Continuous
 62
     3
370
    25
100
AcDbLine
 10
-60.88332564433404
 20
-70.34999726166325
 30
0.0
 11
-61.54999233086892
 21
-70.34999726166325
 31
0.0
  0
LINE
  5
432
330
1F
100
AcDbEntity
  8
16
  6
Continuous
 62
     3
370
    25
100
AcDbLine
 10
-61.54999233086892
 20
-70.34999726166325
 30
0.0
 11
-62.54999236067125
 21
-71.34999729146557
 31
0.0
  0
LINE
  5
433
330
1F
100
AcDbEntity
  8
16
  6
Continuous
 62
     3
370
    25
100
AcDbLine
 10
-62.54999236067125
 20
-71.34999729146557
 30
0.0
 11
-63.54999239047357
 21
-70.34999726166325
 31
0.0
  0
LINE
  5
434
330
1F
100
AcDbEntity
  8
16
  6
Continuous
 62
     3
370
    25
100
AcDbLine
 10
-63.54999239047357
 20
-70.34999726166325
 30
0.0
 11
-64.21665907700844
 21
-70.34999726166325
 31
0.0
  0
CIRCLE
  5
435
330
1F
100
AcDbEntity
  8
16
  6
Continuous
 62
     3
370
    25
100
AcDbCircle
 10
-62.54999245870972
 20
-70.93333061238124
 30
0.0
 40
0.3000000009934105
  0
LINE
  5
436
330
1F
100
AcDbEntity
  8
16
  6
Continuous
 62
     3
370
    25
100
AcDbLine
 10
-59.56666504194346
 20
-70.34999726166325
 30
0.0
 11
-59.56666504194346
 21
-70.68333060493069
 31
0.0
  0
LINE
  5
437
330
1F
100
AcDbEntity
  8
16
  6
Continuous
 62
     3
370
    25
100
AcDbLine
 10
-59.56666504194346
 20
-70.68333060493069
 30
0.0
 11
-59.0666650270423
 21
-70.68333060493069
 31
0.0
  0
LINE
  5
438
330
1F
100
AcDbEntity
  8
16
  6
Continuous
 62
     3
370
    25
100
AcDbLine
 10
-59.0666650270423
 20
-70.68333060493069
 30
0.0
 11
-58.39999834050742
 21
-71.84999730636673
 31
0.0
  0
LINE
  5
439
330
1F
100
AcDbEntity
  8
16
  6
Continuous
 62
     3
370
    25
100
AcDbLine
 10
-58.39999834050742
 20
-71.84999730636673
 30
0.0
 11
-58.39999834050742
 21
-72.34999732126789
 31
0.0
  0
LINE
  5
43A
330
1F
100
AcDbEntity
  8
16
  6
Continuous
 62
     3
370
    25
100
AcDbLine
 10
-58.39999834050742
 20
-72.34999732126789
 30
0.0
 11
-58.2333316688737
 21
-72.51666399290161
 31
0.0
  0
LINE
  5
43B
330
1F
100
AcDbEntity
  8
16
  6
Continuous
 62
     3
370
    25
100
AcDbLine
 10
-58.2333316688737
 20
-72.51666399290161
 30
0.0
 11
-58.2333316688737
 21
-77.68333081354695
 31
0.0
  0
LINE
  5
43C
330
1F
100
AcDbEntity
  8
16
  6
Continuous
 62
     3
370
    25
100
AcDbLine
 10
-58.2333316688737
 20
-77.68333081354695
 30
0.0
 11
-57.56666498233881
 21
-77.68333081354695
 31
0.0
  0
LINE
  5
43D
330
1F
100
AcDbEntity
  8
16
  6
Continuous
 62
     3
370
    25
100
AcDbLine
 10
-57.56666498233881
 20
-77.68333081354695
 30
0.0
 11
-57.56666498233881
 21
-72.51666399290161
 31
0.0
  0
LINE
  5
43E
330
1F
100
AcDbEntity
  8
16
  6
Continuous
 62
     3
370
    25
100
AcDbLine
 10
-57.56666498233881
 20
-72.51666399290161
 30
0.0
 11
-57.39999831070509
 21
-72.34999732126789
 31
0.0
  0
LINE
  5
43F
330
1F
100
AcDbEntity
  8
16
  6
Continuous
 62
     3
370
    25
100
AcDbLine
 10
-57.39999831070509
 20
-72.34999732126789
 30
0.0
 11
-57.39999831070509
 21
-71.84999730636673
 31
0.0
  0
LINE
  5
440
330
1F
100
AcDbEntity
  8
16
  6
Continuous
 62
     3
370
    25
100
AcDbLine
 10
-57.39999831070509
 20
-71.84999730636673
 30
0.0
 11
-56.73333162417021
 21
-70.68333060493069
 31
0.0
  0
LINE
  5
441
330
1F
100
AcDbEntity
  8
16
  6
Continuous
 62
     3
370
    25
100
AcDbLine
 10
-56.73333162417021
 20
-70.68333060493069
 30
0.0
 11
-56.23333160926905
 21
-70.68333060493069
 31
0.0
  0
LINE
  5
442
330
1F
100
AcDbEntity
  8
16
  6
Continuous
 62
     3
370
    25
100
AcDbLine
 10
-56.23333160926905
 20
-70.68333060493069
 30
0.0
 11
-56.23333160926905
 21
-70.34999726166325
 31
0.0
  0
LINE
  5
443
330
1F
100
AcDbEntity
  8
16
  6
Continuous
 62
     3
370
    25
100
AcDbLine
 10
-56.23333160926905
 20
-70.34999726166325
 30
0.0
 11
-56.89999829580393
 21
-70.34999726166325
 31
0.0
  0
LINE
  5
444
330
1F
100
AcDbEntity
  8
16
  6
Continuous
 62
     3
370
    25
100
AcDbLine
 10
-56.89999829580393
 20
-70.34999726166325
 30
0.0
 11
-57.89999832560625
 21
-71.34999729146557
 31
0.0
  0
LINE
  5
445
330
1F
100
AcDbEntity
  8
16
  6
Continuous
 62
     3
370
    25
100
AcDbLine
 10
-57.89999832560625
 20
-71.34999729146557
 30
0.0
 11
-58.89999835540858
 21
-70.34999726166325
 31
0.0
  0
LINE
  5
446
330
1F
100
AcDbEntity
  8
16
  6
Continuous
 62
     3
370
    25
100
AcDbLine
 10
-58.89999835540858
 20
-70.34999726166325
 30
0.0
 11
-59.56666504194346
 21
-70.34999726166325
 31
0.0
  0
CIRCLE
  5
447
330
1F
100
AcDbEntity
  8
16
  6
Continuous
 62
     3
370
    25
100
AcDbCircle
 10
-57.89999842364472
 20
-70.93333061238124
 30
0.0
 40
0.3000000009934105
  0
LINE
  5
448
330
1F
100
AcDbEntity
  8
16
  6
Continuous
 62
     3
370
    25
100
AcDbLine
 10
-54.96665880133697
 20
-70.34999726166325
 30
0.0
 11
-54.96665880133697
 21
-70.68333060493069
 31
0.0
  0
LINE
  5
449
330
1F
100
AcDbEntity
  8
16
  6
Continuous
 62
     3
370
    25
100
AcDbLine
 10
-54.96665880133697
 20
-70.68333060493069
 30
0.0
 11
-54.46665878643581
 21
-70.68333060493069
 31
0.0
  0
LINE
  5
44A
330
1F
100
AcDbEntity
  8
16
  6
Continuous
 62
     3
370
    25
100
AcDbLine
 10
-54.46665878643581
 20
-70.68333060493069
 30
0.0
 11
-53.79999209990092
 21
-71.84999730636673
 31
0.0
  0
LINE
  5
44B
330
1F
100
AcDbEntity
  8
16
  6
Continuous
 62
     3
370
    25
100
AcDbLine
 10
-53.79999209990092
 20
-71.84999730636673
 30
0.0
 11
-53.79999209990092
 21
-72.34999732126789
 31
0.0
  0
LINE
  5
44C
330
1F
100
AcDbEntity
  8
16
  6
Continuous
 62
     3
370
    25
100
AcDbLine
 10
-53.79999209990092
 20
-72.34999732126789
 30
0.0
 11
-53.63332542826721
 21
-72.51666399290161
 31
0.0
  0
LINE
  5
44D
330
1F
100
AcDbEntity
  8
16
  6
Continuous
 62
     3
370
    25
100
AcDbLine
 10
-53.63332542826721
 20
-72.51666399290161
 30
0.0
 11
-53.63332542826721
 21
-77.68333081354695
 31
0.0
  0
LINE
  5
44E
330
1F
100
AcDbEntity
  8
16
  6
Continuous
 62
     3
370
    25
100
AcDbLine
 10
-53.63332542826721
 20
-77.68333081354695
 30
0.0
 11
-52.96665874173232
 21
-77.68333081354695
 31
0.0
  0
LINE
  5
44F
330
1F
100
AcDbEntity
  8
16
  6
Continuous
 62
     3
370
    25
100
AcDbLine
 10
-52.96665874173232
 20
-77.68333081354695
 30
0.0
 11
-52.96665874173232
 21
-72.51666399290161
 31
0.0
  0
LINE
  5
450
330
1F
100
AcDbEntity
  8
16
  6
Continuous
 62
     3
370
    25
100
AcDbLine
 10
-52.96665874173232
 20
-72.51666399290161
 30
0.0
 11
-52.7999920700986
 21
-72.34999732126789
 31
0.0
  0
LINE
  5
451
330
1F
100
AcDbEntity
  8
16
  6
Continuous
 62
     3
370
    25
100
AcDbLine
 10
-52.7999920700986
 20
-72.34999732126789
 30
0.0
 11
-52.7999920700986
 21
-71.84999730636673
 31
0.0
  0
LINE
  5
452
330
1F
100
AcDbEntity
  8
16
  6
Continuous
 62
     3
370
    25
100
AcDbLine
 10
-52.7999920700986
 20
-71.84999730636673
 30
0.0
 11
-52.13332538356372
 21
-70.68333060493069
 31
0.0
  0
LINE
  5
453
330
1F
100
AcDbEntity
  8
16
  6
Continuous
 62
     3
370
    25
100
AcDbLine
 10
-52.13332538356372
 20
-70.68333060493069
 30
0.0
 11
-51.63332536866256
 21
-70.68333060493069
 31
0.0
  0
LINE
  5
454
330
1F
100
AcDbEntity
  8
16
  6
Continuous
 62
     3
370
    25
100
AcDbLine
 10
-51.63332536866256
 20
-70.68333060493069
 30
0.0
 11
-51.63332536866256
 21
-70.34999726166325
 31
0.0
  0
LINE
  5
455
330
1F
100
AcDbEntity
  8
16
  6
Continuous
 62
     3
370
    25
100
AcDbLine
 10
-51.63332536866256
 20
-70.34999726166325
 30
0.0
 11
-52.29999205519744
 21
-70.34999726166325
 31
0.0
  0
LINE
  5
456
330
1F
100
AcDbEntity
  8
16
  6
Continuous
 62
     3
370
    25
100
AcDbLine
 10
-52.29999205519744
 20
-70.34999726166325
 30
0.0
 11
-53.29999208499977
 21
-71.34999729146557
 31
0.0
  0
LINE
  5
457
330
1F
100
AcDbEntity
  8
16
  6
Continuous
 62
     3
370
    25
100
AcDbLine
 10
-53.29999208499977
 20
-71.34999729146557
 30
0.0
 11
-54.29999211480209
 21
-70.34999726166325
 31
0.0
  0
LINE
  5
458
330
1F
100
AcDbEntity
  8
16
  6
Continuous
 62
     3
370
    25
100
AcDbLine
 10
-54.29999211480209
 20
-70.34999726166325
 30
0.0
 11
-54.96665880133697
 21
-70.34999726166325
 31
0.0
  0
CIRCLE
  5
459
330
1F
100
AcDbEntity
  8
16
  6
Continuous
 62
     3
370
    25
100
AcDbCircle
 10
-53.29999218303823
 20
-70.93333061238124
 30
0.0
 40
0.3000000009934105
  0
LINE
  5
45A
330
1F
100
AcDbEntity
  8
16
  6
Continuous
 62
     3
370
    25
100
AcDbLine
 10
-133.9666662419836
 20
-70.34999726166325
 30
0.0
 11
-51.63333045492573
 21
-70.34999726166325
 31
0.0
  0
LINE
  5
45B
330
1F
100
AcDbEntity
  8
16
  6
Continuous
 62
     3
370
    25
100
AcDbLine
 10
-133.9666662419836
 20
-70.34999726166325
 30
0.0
 11
-133.9666662419836
 21
-75.6833307539423
 31
0.0
  0
LINE
  5
45C
330
1F
100
AcDbEntity
  8
16
  6
Continuous
 62
     3
370
    25
100
AcDbLine
 10
-133.9666662419836
 20
-75.6833307539423
 30
0.0
 11
-132.6749995368223
 21
-75.6833307539423
 31
0.0
  0
LINE
  5
45D
330
1F
100
AcDbEntity
  8
16
  6
Continuous
 62
     3
370
    25
100
AcDbLine
 10
-131.9249995144705
 20
-75.6833307539423
 30
0.0
 11
-128.0249994618197
 21
-75.6833307539423
 31
0.0
  0
LINE
  5
45E
330
1F
100
AcDbEntity
  8
16
  6
Continuous
 62
     3
370
    25
100
AcDbLine
 10
-127.2750003931423
 20
-75.6833307539423
 30
0.0
 11
-123.3750003404916
 21
-75.6833307539423
 31
0.0
  0
LINE
  5
45F
330
1F
100
AcDbEntity
  8
16
  6
Continuous
 62
     3
370
    25
100
AcDbLine
 10
-122.624996185551
 20
-75.6833307539423
 30
0.0
 11
-118.7249961329002
 21
-75.6833307539423
 31
0.0
  0
LINE
  5
460
330
1F
100
AcDbEntity
  8
16
  6
Continuous
 62
     3
370
    25
100
AcDbLine
 10
-117.9749970642228
 20
-75.6833307539423
 30
0.0
 11
-114.0749970115721
 21
-75.6833307539423
 31
0.0
  0
LINE
  5
461
330
1F
100
AcDbEntity
  8
16
  6
Continuous
 62
     3
370
    25
100
AcDbLine
 10
-113.3249979428947
 20
-75.6833307539423
 30
0.0
 11
-109.4249978902439
 21
-75.6833307539423
 31
0.0
  0
LINE
  5
462
330
1F
100
AcDbEntity
  8
16
  6
Continuous
 62
     3
370
    25
100
AcDbLine
 10
-108.6749988215665
 20
-75.6833307539423
 30
0.0
 11
-104.7749987689158
 21
-75.6833307539423
 31
0.0
  0
LINE
  5
463
330
1F
100
AcDbEntity
  8
16
  6
Continuous
 62
     3
370
    25
100
AcDbLine
 10
-104.0249997002384
 20
-75.6833307539423
 30
0.0
 11
-100.1249996475876
 21
-75.6833307539423
 31
0.0
  0
LINE
  5
464
330
1F
100
AcDbEntity
  8
16
  6
Continuous
 62
     3
370
    25
100
AcDbLine
 10
-99.37499549264703
 20
-75.6833307539423
 30
0.0
 11
-95.47499543999625
 21
-75.6833307539423
 31
0.0
  0
LINE
  5
465
330
1F
100
AcDbEntity
  8
16
  6
Continuous
 62
     3
370
    25
100
AcDbLine
 10
-94.72500145758204
 20
-75.6833307539423
 30
0.0
 11
-90.82500140493126
 21
-75.6833307539423
 31
0.0
  0
LINE
  5
466
330
1F
100
AcDbEntity
  8
16
  6
Continuous
 62
     3
370
    25
100
AcDbLine
 10
-90.0749972499907
 20
-75.6833307539423
 30
0.0
 11
-86.17499719733992
 21
-75.6833307539423
 31
0.0
  0
LINE
  5
467
330
1F
100
AcDbEntity
  8
16
  6
Continuous
 62
     3
370
    25
100
AcDbLine
 10
-85.42499304239936
 20
-75.6833307539423
 30
0.0
 11
-81.5249929897486
 21
-75.6833307539423
 31
0.0
  0
LINE
  5
468
330
1F
100
AcDbEntity
  8
16
  6
Continuous
 62
     3
370
    25
100
AcDbLine
 10
-80.77499900733437
 20
-75.6833307539423
 30
0.0
 11
-76.8749989546836
 21
-75.6833307539423
 31
0.0
  0
LINE
  5
469
330
1F
100
AcDbEntity
  8
16
  6
Continuous
 62
     3
370
    25
100
AcDbLine
 10
-76.12499479974304
 20
-75.6833307539423
 30
0.0
 11
-72.22499474709227
 21
-75.6833307539423
 31
0.0
  0
LINE
  5
46A
330
1F
100
AcDbEntity
  8
16
  6
Continuous
 62
     3
370
    25
100
AcDbLine
 10
-71.47500076467804
 20
-75.6833307539423
 30
0.0
 11
-67.57500071202728
 21
-75.6833307539423
 31
0.0
  0
LINE
  5
46B
330
1F
100
AcDbEntity
  8
16
  6
Continuous
 62
     3
370
    25
100
AcDbLine
 10
-66.8249965570867
 20
-75.6833307539423
 30
0.0
 11
-62.92499650443594
 21
-75.6833307539423
 31
0.0
  0
LINE
  5
46C
330
1F
100
AcDbEntity
  8
16
  6
Continuous
 62
     3
370
    25
100
AcDbLine
 10
-62.17499234949538
 20
-75.6833307539423
 30
0.0
 11
-58.27499229684461
 21
-75.6833307539423
 31
0.0
  0
LINE
  5
46D
330
1F
100
AcDbEntity
  8
16
  6
Continuous
 62
     3
370
    25
100
AcDbLine
 10
-57.52499831443038
 20
-75.6833307539423
 30
0.0
 11
-53.67499813611315
 21
-75.6833307539423
 31
0.0
  0
LINE
  5
46E
330
1F
100
AcDbEntity
  8
16
  6
Continuous
 62
     3
370
    25
100
AcDbLine
 10
-52.92499207382389
 20
-75.6833307539423
 30
0.0
 11
-51.63332536866256
 21
-75.6833307539423
 31
0.0
  0
LINE
  5
46F
330
1F
100
AcDbEntity
  8
16
  6
Continuous
 62
     3
370
    25
100
AcDbLine
 10
-51.63332536866256
 20
-75.6833307539423
 30
0.0
 11
-51.63332536866256
 21
-70.34999726166325
 31
0.0
  0
LINE
  5
470
330
1F
100
AcDbEntity
  8
16
  6
Continuous
 62
     3
370
    25
100
AcDbLine
 10
-131.9249995144705
 20
-72.51666399290161
 30
0.0
 11
-131.7583328428368
 21
-72.34999732126789
 31
0.0
  0
LINE
  5
471
330
1F
100
AcDbEntity
  8
16
  6
Continuous
 62
     3
370
    25
100
AcDbLine
 10
-131.7583328428368
 20
-72.34999732126789
 30
0.0
 11
-128.1916661334535
 21
-72.34999732126789
 31
0.0
  0
LINE
  5
472
330
1F
100
AcDbEntity
  8
16
  6
Continuous
 62
     3
370
    25
100
AcDbLine
 10
-128.1916661334535
 20
-72.34999732126789
 30
0.0
 11
-128.0249994618197
 21
-72.51666399290161
 31
0.0
  0
LINE
  5
473
330
1F
100
AcDbEntity
  8
16
  6
Continuous
 62
     3
370
    25
100
AcDbLine
 10
-128.0249994618197
 20
-74.18333070923882
 30
0.0
 11
-128.1916661334535
 21
-74.34999738087254
 31
0.0
  0
LINE
  5
474
330
1F
100
AcDbEntity
  8
16
  6
Continuous
 62
     3
370
    25
100
AcDbLine
 10
-128.1916661334535
 20
-74.34999738087254
 30
0.0
 11
-131.7583328428368
 21
-74.34999738087254
 31
0.0
  0
LINE
  5
475
330
1F
100
AcDbEntity
  8
16
  6
Continuous
 62
     3
370
    25
100
AcDbLine
 10
-131.7583328428368
 20
-74.34999738087254
 30
0.0
 11
-131.9249995144705
 21
-74.18333070923882
 31
0.0
  0
LINE
  5
476
330
1F
100
AcDbEntity
  8
16
  6
Continuous
 62
     3
370
    25
100
AcDbLine
 10
-127.2750003931423
 20
-72.51666399290161
 30
0.0
 11
-127.1083337215086
 21
-72.34999732126789
 31
0.0
  0
LINE
  5
477
330
1F
100
AcDbEntity
  8
16
  6
Continuous
 62
     3
370
    25
100
AcDbLine
 10
-127.1083337215086
 20
-72.34999732126789
 30
0.0
 11
-123.5416670121253
 21
-72.34999732126789
 31
0.0
  0
LINE
  5
478
330
1F
100
AcDbEntity
  8
16
  6
Continuous
 62
     3
370
    25
100
AcDbLine
 10
-123.5416670121253
 20
-72.34999732126789
 30
0.0
 11
-123.3750003404916
 21
-72.51666399290161
 31
0.0
  0
LINE
  5
479
330
1F
100
AcDbEntity
  8
16
  6
Continuous
 62
     3
370
    25
100
AcDbLine
 10
-123.3750003404916
 20
-74.18333070923882
 30
0.0
 11
-123.5416670121253
 21
-74.34999738087254
 31
0.0
  0
LINE
  5
47A
330
1F
100
AcDbEntity
  8
16
  6
Continuous
 62
     3
370
    25
100
AcDbLine
 10
-123.5416670121253
 20
-74.34999738087254
 30
0.0
 11
-127.1083337215086
 21
-74.34999738087254
 31
0.0
  0
LINE
  5
47B
330
1F
100
AcDbEntity
  8
16
  6
Continuous
 62
     3
370
    25
100
AcDbLine
 10
-127.1083337215086
 20
-74.34999738087254
 30
0.0
 11
-127.2750003931423
 21
-74.18333070923882
 31
0.0
  0
LINE
  5
47C
330
1F
100
AcDbEntity
  8
16
  6
Continuous
 62
     3
370
    25
100
AcDbLine
 10
-122.624996185551
 20
-72.51666399290161
 30
0.0
 11
-122.4583295139173
 21
-72.34999732126789
 31
0.0
  0
LINE
  5
47D
330
1F
100
AcDbEntity
  8
16
  6
Continuous
 62
     3
370
    25
100
AcDbLine
 10
-122.4583295139173
 20
-72.34999732126789
 30
0.0
 11
-118.891662804534
 21
-72.34999732126789
 31
0.0
  0
LINE
  5
47E
330
1F
100
AcDbEntity
  8
16
  6
Continuous
 62
     3
370
    25
100
AcDbLine
 10
-118.891662804534
 20
-72.34999732126789
 30
0.0
 11
-118.7249961329002
 21
-72.51666399290161
 31
0.0
  0
LINE
  5
47F
330
1F
100
AcDbEntity
  8
16
  6
Continuous
 62
     3
370
    25
100
AcDbLine
 10
-118.7249961329002
 20
-74.18333070923882
 30
0.0
 11
-118.891662804534
 21
-74.34999738087254
 31
0.0
  0
LINE
  5
480
330
1F
100
AcDbEntity
  8
16
  6
Continuous
 62
     3
370
    25
100
AcDbLine
 10
-118.891662804534
 20
-74.34999738087254
 30
0.0
 11
-122.4583295139173
 21
-74.34999738087254
 31
0.0
  0
LINE
  5
481
330
1F
100
AcDbEntity
  8
16
  6
Continuous
 62
     3
370
    25
100
AcDbLine
 10
-122.4583295139173
 20
-74.34999738087254
 30
0.0
 11
-122.624996185551
 21
-74.18333070923882
 31
0.0
  0
LINE
  5
482
330
1F
100
AcDbEntity
  8
16
  6
Continuous
 62
     3
370
    25
100
AcDbLine
 10
-117.9749970642228
 20
-72.51666399290161
 30
0.0
 11
-117.8083303925891
 21
-72.34999732126789
 31
0.0
  0
LINE
  5
483
330
1F
100
AcDbEntity
  8
16
  6
Continuous
 62
     3
370
    25
100
AcDbLine
 10
-117.8083303925891
 20
-72.34999732126789
 30
0.0
 11
-114.2416636832058
 21
-72.34999732126789
 31
0.0
  0
LINE
  5
484
330
1F
100
AcDbEntity
  8
16
  6
Continuous
 62
     3
370
    25
100
AcDbLine
 10
-114.2416636832058
 20
-72.34999732126789
 30
0.0
 11
-114.0749970115721
 21
-72.51666399290161
 31
0.0
  0
LINE
  5
485
330
1F
100
AcDbEntity
  8
16
  6
Continuous
 62
     3
370
    25
100
AcDbLine
 10
-114.0749970115721
 20
-74.18333070923882
 30
0.0
 11
-114.2416636832058
 21
-74.34999738087254
 31
0.0
  0
LINE
  5
486
330
1F
100
AcDbEntity
  8
16
  6
Continuous
 62
     3
370
    25
100
AcDbLine
 10
-114.2416636832058
 20
-74.34999738087254
 30
0.0
 11
-117.8083303925891
 21
-74.34999738087254
 31
0.0
  0
LINE
  5
487
330
1F
100
AcDbEntity
  8
16
  6
Continuous
 62
     3
370
    25
100
AcDbLine
 10
-117.8083303925891
 20
-74.34999738087254
 30
0.0
 11
-117.9749970642228
 21
-74.18333070923882
 31
0.0
  0
LINE
  5
488
330
1F
100
AcDbEntity
  8
16
  6
Continuous
 62
     3
370
    25
100
AcDbLine
 10
-113.3249979428947
 20
-72.51666399290161
 30
0.0
 11
-113.158331271261
 21
-72.34999732126789
 31
0.0
  0
LINE
  5
489
330
1F
100
AcDbEntity
  8
16
  6
Continuous
 62
     3
370
    25
100
AcDbLine
 10
-113.158331271261
 20
-72.34999732126789
 30
0.0
 11
-109.5916645618776
 21
-72.34999732126789
 31
0.0
  0
LINE
  5
48A
330
1F
100
AcDbEntity
  8
16
  6
Continuous
 62
     3
370
    25
100
AcDbLine
 10
-109.5916645618776
 20
-72.34999732126789
 30
0.0
 11
-109.4249978902439
 21
-72.51666399290161
 31
0.0
  0
LINE
  5
48B
330
1F
100
AcDbEntity
  8
16
  6
Continuous
 62
     3
370
    25
100
AcDbLine
 10
-109.4249978902439
 20
-74.18333070923882
 30
0.0
 11
-109.5916645618776
 21
-74.34999738087254
 31
0.0
  0
LINE
  5
48C
330
1F
100
AcDbEntity
  8
16
  6
Continuous
 62
     3
370
    25
100
AcDbLine
 10
-109.5916645618776
 20
-74.34999738087254
 30
0.0
 11
-113.158331271261
 21
-74.34999738087254
 31
0.0
  0
LINE
  5
48D
330
1F
100
AcDbEntity
  8
16
  6
Continuous
 62
     3
370
    25
100
AcDbLine
 10
-113.158331271261
 20
-74.34999738087254
 30
0.0
 11
-113.3249979428947
 21
-74.18333070923882
 31
0.0
  0
LINE
  5
48E
330
1F
100
AcDbEntity
  8
16
  6
Continuous
 62
     3
370
    25
100
AcDbLine
 10
-108.6749988215665
 20
-72.51666399290161
 30
0.0
 11
-108.5083321499328
 21
-72.34999732126789
 31
0.0
  0
LINE
  5
48F
330
1F
100
AcDbEntity
  8
16
  6
Continuous
 62
     3
370
    25
100
AcDbLine
 10
-108.5083321499328
 20
-72.34999732126789
 30
0.0
 11
-104.9416654405495
 21
-72.34999732126789
 31
0.0
  0
LINE
  5
490
330
1F
100
AcDbEntity
  8
16
  6
Continuous
 62
     3
370
    25
100
AcDbLine
 10
-104.9416654405495
 20
-72.34999732126789
 30
0.0
 11
-104.7749987689158
 21
-72.51666399290161
 31
0.0
  0
LINE
  5
491
330
1F
100
AcDbEntity
  8
16
  6
Continuous
 62
     3
370
    25
100
AcDbLine
 10
-104.7749987689158
 20
-74.18333070923882
 30
0.0
 11
-104.9416654405495
 21
-74.34999738087254
 31
0.0
  0
LINE
  5
492
330
1F
100
AcDbEntity
  8
16
  6
Continuous
 62
     3
370
    25
100
AcDbLine
 10
-104.9416654405495
 20
-74.34999738087254
 30
0.0
 11
-108.5083321499328
 21
-74.34999738087254
 31
0.0
  0
LINE
  5
493
330
1F
100
AcDbEntity
  8
16
  6
Continuous
 62
     3
370
    25
100
AcDbLine
 10
-108.5083321499328
 20
-74.34999738087254
 30
0.0
 11
-108.6749988215665
 21
-74.18333070923882
 31
0.0
  0
LINE
  5
494
330
1F
100
AcDbEntity
  8
16
  6
Continuous
 62
     3
370
    25
100
AcDbLine
 10
-104.0249997002384
 20
-72.51666399290161
 30
0.0
 11
-103.8583330286046
 21
-72.34999732126789
 31
0.0
  0
LINE
  5
495
330
1F
100
AcDbEntity
  8
16
  6
Continuous
 62
     3
370
    25
100
AcDbLine
 10
-103.8583330286046
 20
-72.34999732126789
 30
0.0
 11
-100.2916663192213
 21
-72.34999732126789
 31
0.0
  0
LINE
  5
496
330
1F
100
AcDbEntity
  8
16
  6
Continuous
 62
     3
370
    25
100
AcDbLine
 10
-100.2916663192213
 20
-72.34999732126789
 30
0.0
 11
-100.1249996475876
 21
-72.51666399290161
 31
0.0
  0
LINE
  5
497
330
1F
100
AcDbEntity
  8
16
  6
Continuous
 62
     3
370
    25
100
AcDbLine
 10
-100.1249996475876
 20
-74.18333070923882
 30
0.0
 11
-100.2916663192213
 21
-74.34999738087254
 31
0.0
  0
LINE
  5
498
330
1F
100
AcDbEntity
  8
16
  6
Continuous
 62
     3
370
    25
100
AcDbLine
 10
-100.2916663192213
 20
-74.34999738087254
 30
0.0
 11
-103.8583330286046
 21
-74.34999738087254
 31
0.0
  0
LINE
  5
499
330
1F
100
AcDbEntity
  8
16
  6
Continuous
 62
     3
370
    25
100
AcDbLine
 10
-103.8583330286046
 20
-74.34999738087254
 30
0.0
 11
-104.0249997002384
 21
-74.18333070923882
 31
0.0
  0
LINE
  5
49A
330
1F
100
AcDbEntity
  8
16
  6
Continuous
 62
     3
370
    25
100
AcDbLine
 10
-99.37499549264703
 20
-72.51666399290161
 30
0.0
 11
-99.20832882101331
 21
-72.34999732126789
 31
0.0
  0
LINE
  5
49B
330
1F
100
AcDbEntity
  8
16
  6
Continuous
 62
     3
370
    25
100
AcDbLine
 10
-99.20832882101331
 20
-72.34999732126789
 30
0.0
 11
-95.64166211162997
 21
-72.34999732126789
 31
0.0
  0
LINE
  5
49C
330
1F
100
AcDbEntity
  8
16
  6
Continuous
 62
     3
370
    25
100
AcDbLine
 10
-95.64166211162997
 20
-72.34999732126789
 30
0.0
 11
-95.47499543999625
 21
-72.51666399290161
 31
0.0
  0
LINE
  5
49D
330
1F
100
AcDbEntity
  8
16
  6
Continuous
 62
     3
370
    25
100
AcDbLine
 10
-95.47499543999625
 20
-74.18333070923882
 30
0.0
 11
-95.64166211162997
 21
-74.34999738087254
 31
0.0
  0
LINE
  5
49E
330
1F
100
AcDbEntity
  8
16
  6
Continuous
 62
     3
370
    25
100
AcDbLine
 10
-95.64166211162997
 20
-74.34999738087254
 30
0.0
 11
-99.20832882101331
 21
-74.34999738087254
 31
0.0
  0
LINE
  5
49F
330
1F
100
AcDbEntity
  8
16
  6
Continuous
 62
     3
370
    25
100
AcDbLine
 10
-99.20832882101331
 20
-74.34999738087254
 30
0.0
 11
-99.37499549264703
 21
-74.18333070923882
 31
0.0
  0
LINE
  5
4A0
330
1F
100
AcDbEntity
  8
16
  6
Continuous
 62
     3
370
    25
100
AcDbLine
 10
-94.72500145758204
 20
-72.51666399290161
 30
0.0
 11
-94.55833478594832
 21
-72.34999732126789
 31
0.0
  0
LINE
  5
4A1
330
1F
100
AcDbEntity
  8
16
  6
Continuous
 62
     3
370
    25
100
AcDbLine
 10
-94.55833478594832
 20
-72.34999732126789
 30
0.0
 11
-90.99166807656498
 21
-72.34999732126789
 31
0.0
  0
LINE
  5
4A2
330
1F
100
AcDbEntity
  8
16
  6
Continuous
 62
     3
370
    25
100
AcDbLine
 10
-90.99166807656498
 20
-72.34999732126789
 30
0.0
 11
-90.82500140493126
 21
-72.51666399290161
 31
0.0
  0
LINE
  5
4A3
330
1F
100
AcDbEntity
  8
16
  6
Continuous
 62
     3
370
    25
100
AcDbLine
 10
-90.82500140493126
 20
-74.18333070923882
 30
0.0
 11
-90.99166807656498
 21
-74.34999738087254
 31
0.0
  0
LINE
  5
4A4
330
1F
100
AcDbEntity
  8
16
  6
Continuous
 62
     3
370
    25
100
AcDbLine
 10
-90.99166807656498
 20
-74.34999738087254
 30
0.0
 11
-94.55833478594832
 21
-74.34999738087254
 31
0.0
  0
LINE
  5
4A5
330
1F
100
AcDbEntity
  8
16
  6
Continuous
 62
     3
370
    25
100
AcDbLine
 10
-94.55833478594832
 20
-74.34999738087254
 30
0.0
 11
-94.72500145758204
 21
-74.18333070923882
 31
0.0
  0
LINE
  5
4A6
330
1F
100
AcDbEntity
  8
16
  6
Continuous
 62
     3
370
    25
100
AcDbLine
 10
-90.0749972499907
 20
-72.51666399290161
 30
0.0
 11
-89.90833057835698
 21
-72.34999732126789
 31
0.0
  0
LINE
  5
4A7
330
1F
100
AcDbEntity
  8
16
  6
Continuous
 62
     3
370
    25
100
AcDbLine
 10
-89.90833057835698
 20
-72.34999732126789
 30
0.0
 11
-86.34166386897364
 21
-72.34999732126789
 31
0.0
  0
LINE
  5
4A8
330
1F
100
AcDbEntity
  8
16
  6
Continuous
 62
     3
370
    25
100
AcDbLine
 10
-86.34166386897364
 20
-72.34999732126789
 30
0.0
 11
-86.17499719733992
 21
-72.51666399290161
 31
0.0
  0
LINE
  5
4A9
330
1F
100
AcDbEntity
  8
16
  6
Continuous
 62
     3
370
    25
100
AcDbLine
 10
-86.17499719733992
 20
-74.18333070923882
 30
0.0
 11
-86.34166386897364
 21
-74.34999738087254
 31
0.0
  0
LINE
  5
4AA
330
1F
100
AcDbEntity
  8
16
  6
Continuous
 62
     3
370
    25
100
AcDbLine
 10
-86.34166386897364
 20
-74.34999738087254
 30
0.0
 11
-89.90833057835698
 21
-74.34999738087254
 31
0.0
  0
LINE
  5
4AB
330
1F
100
AcDbEntity
  8
16
  6
Continuous
 62
     3
370
    25
100
AcDbLine
 10
-89.90833057835698
 20
-74.34999738087254
 30
0.0
 11
-90.0749972499907
 21
-74.18333070923882
 31
0.0
  0
LINE
  5
4AC
330
1F
100
AcDbEntity
  8
16
  6
Continuous
 62
     3
370
    25
100
AcDbLine
 10
-85.42499304239936
 20
-72.51666399290161
 30
0.0
 11
-85.25832637076564
 21
-72.34999732126789
 31
0.0
  0
LINE
  5
4AD
330
1F
100
AcDbEntity
  8
16
  6
Continuous
 62
     3
370
    25
100
AcDbLine
 10
-85.25832637076564
 20
-72.34999732126789
 30
0.0
 11
-81.69165966138232
 21
-72.34999732126789
 31
0.0
  0
LINE
  5
4AE
330
1F
100
AcDbEntity
  8
16
  6
Continuous
 62
     3
370
    25
100
AcDbLine
 10
-81.69165966138232
 20
-72.34999732126789
 30
0.0
 11
-81.5249929897486
 21
-72.51666399290161
 31
0.0
  0
LINE
  5
4AF
330
1F
100
AcDbEntity
  8
16
  6
Continuous
 62
     3
370
    25
100
AcDbLine
 10
-81.5249929897486
 20
-74.18333070923882
 30
0.0
 11
-81.69165966138232
 21
-74.34999738087254
 31
0.0
  0
LINE
  5
4B0
330
1F
100
AcDbEntity
  8
16
  6
Continuous
 62
     3
370
    25
100
AcDbLine
 10
-81.69165966138232
 20
-74.34999738087254
 30
0.0
 11
-85.25832637076564
 21
-74.34999738087254
 31
0.0
  0
LINE
  5
4B1
330
1F
100
AcDbEntity
  8
16
  6
Continuous
 62
     3
370
    25
100
AcDbLine
 10
-85.25832637076564
 20
-74.34999738087254
 30
0.0
 11
-85.42499304239936
 21
-74.18333070923882
 31
0.0
  0
LINE
  5
4B2
330
1F
100
AcDbEntity
  8
16
  6
Continuous
 62
     3
370
    25
100
AcDbLine
 10
-80.77499900733437
 20
-72.51666399290161
 30
0.0
 11
-80.60833233570065
 21
-72.34999732126789
 31
0.0
  0
LINE
  5
4B3
330
1F
100
AcDbEntity
  8
16
  6
Continuous
 62
     3
370
    25
100
AcDbLine
 10
-80.60833233570065
 20
-72.34999732126789
 30
0.0
 11
-77.04166562631733
 21
-72.34999732126789
 31
0.0
  0
LINE
  5
4B4
330
1F
100
AcDbEntity
  8
16
  6
Continuous
 62
     3
370
    25
100
AcDbLine
 10
-77.04166562631733
 20
-72.34999732126789
 30
0.0
 11
-76.8749989546836
 21
-72.51666399290161
 31
0.0
  0
LINE
  5
4B5
330
1F
100
AcDbEntity
  8
16
  6
Continuous
 62
     3
370
    25
100
AcDbLine
 10
-76.8749989546836
 20
-74.18333070923882
 30
0.0
 11
-77.04166562631733
 21
-74.34999738087254
 31
0.0
  0
LINE
  5
4B6
330
1F
100
AcDbEntity
  8
16
  6
Continuous
 62
     3
370
    25
100
AcDbLine
 10
-77.04166562631733
 20
-74.34999738087254
 30
0.0
 11
-80.60833233570065
 21
-74.34999738087254
 31
0.0
  0
LINE
  5
4B7
330
1F
100
AcDbEntity
  8
16
  6
Continuous
 62
     3
370
    25
100
AcDbLine
 10
-80.60833233570065
 20
-74.34999738087254
 30
0.0
 11
-80.77499900733437
 21
-74.18333070923882
 31
0.0
  0
LINE
  5
4B8
330
1F
100
AcDbEntity
  8
16
  6
Continuous
 62
     3
370
    25
100
AcDbLine
 10
-76.12499479974304
 20
-72.51666399290161
 30
0.0
 11
-75.95832812810932
 21
-72.34999732126789
 31
0.0
  0
LINE
  5
4B9
330
1F
100
AcDbEntity
  8
16
  6
Continuous
 62
     3
370
    25
100
AcDbLine
 10
-75.95832812810932
 20
-72.34999732126789
 30
0.0
 11
-72.39166141872599
 21
-72.34999732126789
 31
0.0
  0
LINE
  5
4BA
330
1F
100
AcDbEntity
  8
16
  6
Continuous
 62
     3
370
    25
100
AcDbLine
 10
-72.39166141872599
 20
-72.34999732126789
 30
0.0
 11
-72.22499474709227
 21
-72.51666399290161
 31
0.0
  0
LINE
  5
4BB
330
1F
100
AcDbEntity
  8
16
  6
Continuous
 62
     3
370
    25
100
AcDbLine
 10
-72.22499474709227
 20
-74.18333070923882
 30
0.0
 11
-72.39166141872599
 21
-74.34999738087254
 31
0.0
  0
LINE
  5
4BC
330
1F
100
AcDbEntity
  8
16
  6
Continuous
 62
     3
370
    25
100
AcDbLine
 10
-72.39166141872599
 20
-74.34999738087254
 30
0.0
 11
-75.95832812810932
 21
-74.34999738087254
 31
0.0
  0
LINE
  5
4BD
330
1F
100
AcDbEntity
  8
16
  6
Continuous
 62
     3
370
    25
100
AcDbLine
 10
-75.95832812810932
 20
-74.34999738087254
 30
0.0
 11
-76.12499479974304
 21
-74.18333070923882
 31
0.0
  0
LINE
  5
4BE
330
1F
100
AcDbEntity
  8
16
  6
Continuous
 62
     3
370
    25
100
AcDbLine
 10
-71.47500076467804
 20
-72.51666399290161
 30
0.0
 11
-71.30833409304432
 21
-72.34999732126789
 31
0.0
  0
LINE
  5
4BF
330
1F
100
AcDbEntity
  8
16
  6
Continuous
 62
     3
370
    25
100
AcDbLine
 10
-71.30833409304432
 20
-72.34999732126789
 30
0.0
 11
-67.741667383661
 21
-72.34999732126789
 31
0.0
  0
LINE
  5
4C0
330
1F
100
AcDbEntity
  8
16
  6
Continuous
 62
     3
370
    25
100
AcDbLine
 10
-67.741667383661
 20
-72.34999732126789
 30
0.0
 11
-67.57500071202728
 21
-72.51666399290161
 31
0.0
  0
LINE
  5
4C1
330
1F
100
AcDbEntity
  8
16
  6
Continuous
 62
     3
370
    25
100
AcDbLine
 10
-67.57500071202728
 20
-74.18333070923882
 30
0.0
 11
-67.741667383661
 21
-74.34999738087254
 31
0.0
  0
LINE
  5
4C2
330
1F
100
AcDbEntity
  8
16
  6
Continuous
 62
     3
370
    25
100
AcDbLine
 10
-67.741667383661
 20
-74.34999738087254
 30
0.0
 11
-71.30833409304432
 21
-74.34999738087254
 31
0.0
  0
LINE
  5
4C3
330
1F
100
AcDbEntity
  8
16
  6
Continuous
 62
     3
370
    25
100
AcDbLine
 10
-71.30833409304432
 20
-74.34999738087254
 30
0.0
 11
-71.47500076467804
 21
-74.18333070923882
 31
0.0
  0
LINE
  5
4C4
330
1F
100
AcDbEntity
  8
16
  6
Continuous
 62
     3
370
    25
100
AcDbLine
 10
-66.8249965570867
 20
-72.51666399290161
 30
0.0
 11
-66.65832988545299
 21
-72.34999732126789
 31
0.0
  0
LINE
  5
4C5
330
1F
100
AcDbEntity
  8
16
  6
Continuous
 62
     3
370
    25
100
AcDbLine
 10
-66.65832988545299
 20
-72.34999732126789
 30
0.0
 11
-63.09166317606967
 21
-72.34999732126789
 31
0.0
  0
LINE
  5
4C6
330
1F
100
AcDbEntity
  8
16
  6
Continuous
 62
     3
370
    25
100
AcDbLine
 10
-63.09166317606967
 20
-72.34999732126789
 30
0.0
 11
-62.92499650443594
 21
-72.51666399290161
 31
0.0
  0
LINE
  5
4C7
330
1F
100
AcDbEntity
  8
16
  6
Continuous
 62
     3
370
    25
100
AcDbLine
 10
-62.92499650443594
 20
-74.18333070923882
 30
0.0
 11
-63.09166317606967
 21
-74.34999738087254
 31
0.0
  0
LINE
  5
4C8
330
1F
100
AcDbEntity
  8
16
  6
Continuous
 62
     3
370
    25
100
AcDbLine
 10
-63.09166317606967
 20
-74.34999738087254
 30
0.0
 11
-66.65832988545299
 21
-74.34999738087254
 31
0.0
  0
LINE
  5
4C9
330
1F
100
AcDbEntity
  8
16
  6
Continuous
 62
     3
370
    25
100
AcDbLine
 10
-66.65832988545299
 20
-74.34999738087254
 30
0.0
 11
-66.8249965570867
 21
-74.18333070923882
 31
0.0
  0
LINE
  5
4CA
330
1F
100
AcDbEntity
  8
16
  6
Continuous
 62
     3
370
    25
100
AcDbLine
 10
-62.17499234949538
 20
-72.51666399290161
 30
0.0
 11
-62.00832567786166
 21
-72.34999732126789
 31
0.0
  0
LINE
  5
4CB
330
1F
100
AcDbEntity
  8
16
  6
Continuous
 62
     3
370
    25
100
AcDbLine
 10
-62.00832567786166
 20
-72.34999732126789
 30
0.0
 11
-58.44165896847833
 21
-72.34999732126789
 31
0.0
  0
LINE
  5
4CC
330
1F
100
AcDbEntity
  8
16
  6
Continuous
 62
     3
370
    25
100
AcDbLine
 10
-58.44165896847833
 20
-72.34999732126789
 30
0.0
 11
-58.27499229684461
 21
-72.51666399290161
 31
0.0
  0
LINE
  5
4CD
330
1F
100
AcDbEntity
  8
16
  6
Continuous
 62
     3
370
    25
100
AcDbLine
 10
-58.27499229684461
 20
-74.18333070923882
 30
0.0
 11
-58.44165896847833
 21
-74.34999738087254
 31
0.0
  0
LINE
  5
4CE
330
1F
100
AcDbEntity
  8
16
  6
Continuous
 62
     3
370
    25
100
AcDbLine
 10
-58.44165896847833
 20
-74.34999738087254
 30
0.0
 11
-62.00832567786166
 21
-74.34999738087254
 31
0.0
  0
LINE
  5
4CF
330
1F
100
AcDbEntity
  8
16
  6
Continuous
 62
     3
370
    25
100
AcDbLine
 10
-62.00832567786166
 20
-74.34999738087254
 30
0.0
 11
-62.17499234949538
 21
-74.18333070923882
 31
0.0
  0
LINE
  5
4D0
330
1F
100
AcDbEntity
  8
16
  6
Continuous
 62
     3
370
    25
100
AcDbLine
 10
-57.52499831443038
 20
-72.51666399290161
 30
0.0
 11
-57.35833164279666
 21
-72.34999732126789
 31
0.0
  0
LINE
  5
4D1
330
1F
100
AcDbEntity
  8
16
  6
Continuous
 62
     3
370
    25
100
AcDbLine
 10
-57.35833164279666
 20
-72.34999732126789
 30
0.0
 11
-53.84166480774687
 21
-72.34999732126789
 31
0.0
  0
LINE
  5
4D2
330
1F
100
AcDbEntity
  8
16
  6
Continuous
 62
     3
370
    25
100
AcDbLine
 10
-53.84166480774687
 20
-72.34999732126789
 30
0.0
 11
-53.67499813611315
 21
-72.51666399290161
 31
0.0
  0
LINE
  5
4D3
330
1F
100
AcDbEntity
  8
16
  6
Continuous
 62
     3
370
    25
100
AcDbLine
 10
-53.67499813611315
 20
-74.18333070923882
 30
0.0
 11
-53.84166480774687
 21
-74.34999738087254
 31
0.0
  0
LINE
  5
4D4
330
1F
100
AcDbEntity
  8
16
  6
Continuous
 62
     3
370
    25
100
AcDbLine
 10
-53.84166480774687
 20
-74.34999738087254
 30
0.0
 11
-57.35833164279666
 21
-74.34999738087254
 31
0.0
  0
LINE
  5
4D5
330
1F
100
AcDbEntity
  8
16
  6
Continuous
 62
     3
370
    25
100
AcDbLine
 10
-57.35833164279666
 20
-74.34999738087254
 30
0.0
 11
-57.52499831443038
 21
-74.18333070923882
 31
0.0
  0
LINE
  5
4D6
330
1F
100
AcDbEntity
  8
16
  6
Continuous
 62
     3
370
    25
100
AcDbLine
 10
-132.6333328689138
 20
-77.68333081354695
 30
0.0
 11
-52.9666638279955
 21
-77.68333081354695
 31
0.0
  0
LINE
  5
4D7
330
1F
100
AcDbEntity
  8
16
  6
Continuous
 62
     3
370
    25
100
AcDbLine
 10
-52.9666638279955
 20
-77.68333081354695
 30
0.0
 11
-52.9666638279955
 21
-88.51666446973877
 31
0.0
  0
LINE
  5
4D8
330
1F
100
AcDbEntity
  8
16
  6
Continuous
 62
     3
370
    25
100
AcDbLine
 10
-52.9666638279955
 20
-88.51666446973877
 30
0.0
 11
-132.6333328689138
 21
-88.51666446973877
 31
0.0
  0
LINE
  5
4D9
330
1F
100
AcDbEntity
  8
16
  6
Continuous
 62
     3
370
    25
100
AcDbLine
 10
-132.6333328689138
 20
-88.51666446973877
 30
0.0
 11
-132.6333328689138
 21
-77.68333081354695
 31
0.0
  0
LINE
  5
4DA
330
1F
100
AcDbEntity
  8
16
  6
Continuous
 62
     3
370
    25
100
AcDbLine
 10
-6.633324027558054
 20
58.15000148167201
 30
0.0
 11
-1.299990535279001
 21
58.15000148167201
 31
0.0
  0
LINE
  5
4DB
330
1F
100
AcDbEntity
  8
16
  6
Continuous
 62
     3
370
    25
100
AcDbLine
 10
-1.299990535279001
 20
58.15000148167201
 30
0.0
 11
-1.299990535279001
 21
58.90000150402375
 31
0.0
  0
LINE
  5
4DC
330
1F
100
AcDbEntity
  8
16
  6
Continuous
 62
     3
370
    25
100
AcDbLine
 10
-1.299990535279001
 20
58.90000150402375
 30
0.0
 11
-6.633324027558054
 21
58.90000150402375
 31
0.0
  0
LINE
  5
4DD
330
1F
100
AcDbEntity
  8
16
  6
Continuous
 62
     3
370
    25
100
AcDbLine
 10
-6.633324027558054
 20
58.90000150402375
 30
0.0
 11
-6.633324027558054
 21
58.15000148167201
 31
0.0
  0
LINE
  5
4DE
330
1F
100
AcDbEntity
  8
16
  6
Continuous
 62
     3
370
    25
100
AcDbLine
 10
-6.633324027558054
 20
-25.35000100682191
 30
0.0
 11
-1.299990535279001
 21
-25.35000100682191
 31
0.0
  0
LINE
  5
4DF
330
1F
100
AcDbEntity
  8
16
  6
Continuous
 62
     3
370
    25
100
AcDbLine
 10
-1.299990535279001
 20
-25.35000100682191
 30
0.0
 11
-1.299990535279001
 21
-26.10000102917365
 31
0.0
  0
LINE
  5
4E0
330
1F
100
AcDbEntity
  8
16
  6
Continuous
 62
     3
370
    25
100
AcDbLine
 10
-1.299990535279001
 20
-26.10000102917365
 30
0.0
 11
-6.633324027558054
 21
-26.10000102917365
 31
0.0
  0
LINE
  5
4E1
330
1F
100
AcDbEntity
  8
16
  6
Continuous
 62
     3
370
    25
100
AcDbLine
 10
-6.633324027558054
 20
-26.10000102917365
 30
0.0
 11
-6.633324027558054
 21
-25.35000100682191
 31
0.0
  0
ARC
  5
4E2
330
1F
100
AcDbEntity
  8
16
  6
Continuous
 62
     3
370
    25
100
AcDbCircle
 10
-3.633323938151086
 20
49.73333456416913
 30
0.0
 40
0.6666666865348816
100
AcDbArc
 50
46.60000000000011
 51
133.4000000000003
  0
ARC
  5
4E3
330
1F
100
AcDbEntity
  8
16
  6
Continuous
 62
     3
370
    25
100
AcDbCircle
 10
-3.633323938151086
 20
49.73333456416913
 30
0.0
 40
0.6666666865348816
100
AcDbArc
 50
226.6000000000004
 51
313.4000000000007
  0
LINE
  5
4E4
330
1F
100
AcDbEntity
  8
16
  6
Continuous
 62
     3
370
    25
100
AcDbLine
 10
-3.299990594883646
 20
50.23333457907029
 30
0.0
 11
-3.966657281418526
 21
50.23333457907029
 31
0.0
  0
ARC
  5
4E5
330
1F
100
AcDbEntity
  8
16
  6
Continuous
 62
     3
370
    25
100
AcDbCircle
 10
-3.966657444815978
 20
49.73333456416916
 30
0.0
 40
0.5000000149011612
100
AcDbArc
 50
90.0000000000002
 51
270.0000000000006
  0
LINE
  5
4E6
330
1F
100
AcDbEntity
  8
16
  6
Continuous
 62
     3
370
    25
100
AcDbLine
 10
-3.966657935008339
 20
49.23333454926823
 30
0.0
 11
-3.299991248473456
 21
49.23333454926823
 31
0.0
  0
ARC
  5
4E7
330
1F
100
AcDbEntity
  8
16
  6
Continuous
 62
     3
370
    25
100
AcDbCircle
 10
-3.299990758281098
 20
49.73333456416916
 30
0.0
 40
0.5000000149011612
100
AcDbArc
 50
270.0000000000006
 51
90.00000000000102
  0
LINE
  5
4E8
330
1F
100
AcDbEntity
  8
16
  6
Continuous
 62
     3
370
    25
100
AcDbLine
 10
-4.96665731122085
 20
49.73333456416913
 30
0.0
 11
-2.299990565081323
 21
49.73333456416913
 31
0.0
  0
LINE
  5
4E9
330
1F
100
AcDbEntity
  8
16
  6
Continuous
 62
     3
370
    25
100
AcDbLine
 10
-3.633323938151086
 20
50.73333459397145
 30
0.0
 11
-3.633323938151086
 21
48.73333453436681
 31
0.0
  0
ARC
  5
4EA
330
1F
100
AcDbEntity
  8
16
  6
Continuous
 62
     3
370
    25
100
AcDbCircle
 10
-3.633323938151086
 20
33.06666740079709
 30
0.0
 40
0.6666666865348816
100
AcDbArc
 50
46.60000000000011
 51
133.4000000000003
  0
ARC
  5
4EB
330
1F
100
AcDbEntity
  8
16
  6
Continuous
 62
     3
370
    25
100
AcDbCircle
 10
-3.633323938151086
 20
33.06666740079709
 30
0.0
 40
0.6666666865348816
100
AcDbArc
 50
226.6000000000004
 51
313.4000000000007
  0
LINE
  5
4EC
330
1F
100
AcDbEntity
  8
16
  6
Continuous
 62
     3
370
    25
100
AcDbLine
 10
-3.299990594883646
 20
33.56666741569825
 30
0.0
 11
-3.966657281418526
 21
33.56666741569825
 31
0.0
  0
ARC
  5
4ED
330
1F
100
AcDbEntity
  8
16
  6
Continuous
 62
     3
370
    25
100
AcDbCircle
 10
-3.966657444815978
 20
33.06666740079712
 30
0.0
 40
0.5000000149011612
100
AcDbArc
 50
90.0000000000002
 51
270.0000000000006
  0
LINE
  5
4EE
330
1F
100
AcDbEntity
  8
16
  6
Continuous
 62
     3
370
    25
100
AcDbLine
 10
-3.966657935008339
 20
32.5666673858962
 30
0.0
 11
-3.299991248473456
 21
32.5666673858962
 31
0.0
  0
ARC
  5
4EF
330
1F
100
AcDbEntity
  8
16
  6
Continuous
 62
     3
370
    25
100
AcDbCircle
 10
-3.299990758281098
 20
33.06666740079712
 30
0.0
 40
0.5000000149011612
100
AcDbArc
 50
270.0000000000006
 51
90.00000000000102
  0
LINE
  5
4F0
330
1F
100
AcDbEntity
  8
16
  6
Continuous
 62
     3
370
    25
100
AcDbLine
 10
-4.96665731122085
 20
33.06666740079709
 30
0.0
 11
-2.299990565081323
 21
33.06666740079709
 31
0.0
  0
LINE
  5
4F1
330
1F
100
AcDbEntity
  8
16
  6
Continuous
 62
     3
370
    25
100
AcDbLine
 10
-3.633323938151086
 20
34.06666743059941
 30
0.0
 11
-3.633323938151086
 21
32.06666737099476
 31
0.0
  0
ARC
  5
4F2
330
1F
100
AcDbEntity
  8
16
  6
Continuous
 62
     3
370
    25
100
AcDbCircle
 10
-3.633323938151086
 20
16.40000023742505
 30
0.0
 40
0.6666666865348816
100
AcDbArc
 50
46.60000000000011
 51
133.4000000000003
  0
ARC
  5
4F3
330
1F
100
AcDbEntity
  8
16
  6
Continuous
 62
     3
370
    25
100
AcDbCircle
 10
-3.633323938151086
 20
16.40000023742505
 30
0.0
 40
0.6666666865348816
100
AcDbArc
 50
226.6000000000004
 51
313.4000000000007
  0
LINE
  5
4F4
330
1F
100
AcDbEntity
  8
16
  6
Continuous
 62
     3
370
    25
100
AcDbLine
 10
-3.299990594883646
 20
16.90000025232621
 30
0.0
 11
-3.966657281418526
 21
16.90000025232621
 31
0.0
  0
ARC
  5
4F5
330
1F
100
AcDbEntity
  8
16
  6
Continuous
 62
     3
370
    25
100
AcDbCircle
 10
-3.966657444815978
 20
16.40000023742508
 30
0.0
 40
0.5000000149011612
100
AcDbArc
 50
90.0000000000002
 51
270.0000000000006
  0
LINE
  5
4F6
330
1F
100
AcDbEntity
  8
16
  6
Continuous
 62
     3
370
    25
100
AcDbLine
 10
-3.966657935008339
 20
15.90000022252416
 30
0.0
 11
-3.299991248473456
 21
15.90000022252416
 31
0.0
  0
ARC
  5
4F7
330
1F
100
AcDbEntity
  8
16
  6
Continuous
 62
     3
370
    25
100
AcDbCircle
 10
-3.299990758281098
 20
16.40000023742508
 30
0.0
 40
0.5000000149011612
100
AcDbArc
 50
270.0000000000006
 51
90.00000000000102
  0
LINE
  5
4F8
330
1F
100
AcDbEntity
  8
16
  6
Continuous
 62
     3
370
    25
100
AcDbLine
 10
-4.96665731122085
 20
16.40000023742505
 30
0.0
 11
-2.299990565081323
 21
16.40000023742505
 31
0.0
  0
LINE
  5
4F9
330
1F
100
AcDbEntity
  8
16
  6
Continuous
 62
     3
370
    25
100
AcDbLine
 10
-3.633323938151086
 20
17.40000026722737
 30
0.0
 11
-3.633323938151086
 21
15.40000020762273
 31
0.0
  0
ARC
  5
4FA
330
1F
100
AcDbEntity
  8
16
  6
Continuous
 62
     3
370
    25
100
AcDbCircle
 10
-3.633323938151086
 20
-0.2666669259469931
 30
0.0
 40
0.6666666865348816
100
AcDbArc
 50
46.60000000000011
 51
133.4000000000003
  0
ARC
  5
4FB
330
1F
100
AcDbEntity
  8
16
  6
Continuous
 62
     3
370
    25
100
AcDbCircle
 10
-3.633323938151086
 20
-0.2666669259469931
 30
0.0
 40
0.6666666865348816
100
AcDbArc
 50
226.6000000000004
 51
313.4000000000007
  0
LINE
  5
4FC
330
1F
100
AcDbEntity
  8
16
  6
Continuous
 62
     3
370
    25
100
AcDbLine
 10
-3.299990594883646
 20
0.2333330889541685
 30
0.0
 11
-3.966657281418526
 21
0.2333330889541685
 31
0.0
  0
ARC
  5
4FD
330
1F
100
AcDbEntity
  8
16
  6
Continuous
 62
     3
370
    25
100
AcDbCircle
 10
-3.966657444815978
 20
-0.2666669259469661
 30
0.0
 40
0.5000000149011612
100
AcDbArc
 50
90.0000000000002
 51
270.0000000000006
  0
LINE
  5
4FE
330
1F
100
AcDbEntity
  8
16
  6
Continuous
 62
     3
370
    25
100
AcDbLine
 10
-3.966657935008339
 20
-0.766666940847887
 30
0.0
 11
-3.299991248473456
 21
-0.766666940847887
 31
0.0
  0
ARC
  5
4FF
330
1F
100
AcDbEntity
  8
16
  6
Continuous
 62
     3
370
    25
100
AcDbCircle
 10
-3.299990758281098
 20
-0.2666669259469661
 30
0.0
 40
0.5000000149011612
100
AcDbArc
 50
270.0000000000006
 51
90.00000000000102
  0
LINE
  5
500
330
1F
100
AcDbEntity
  8
16
  6
Continuous
 62
     3
370
    25
100
AcDbLine
 10
-4.96665731122085
 20
-0.2666669259469931
 30
0.0
 11
-2.299990565081323
 21
-0.2666669259469931
 31
0.0
  0
LINE
  5
501
330
1F
100
AcDbEntity
  8
16
  6
Continuous
 62
     3
370
    25
100
AcDbLine
 10
-3.633323938151086
 20
0.7333331038553297
 30
0.0
 11
-3.633323938151086
 21
-1.266666955749315
 31
0.0
  0
ARC
  5
502
330
1F
100
AcDbEntity
  8
16
  6
Continuous
 62
     3
370
    25
100
AcDbCircle
 10
-3.633323938151086
 20
-16.93333408931903
 30
0.0
 40
0.6666666865348816
100
AcDbArc
 50
46.60000000000011
 51
133.4000000000003
  0
ARC
  5
503
330
1F
100
AcDbEntity
  8
16
  6
Continuous
 62
     3
370
    25
100
AcDbCircle
 10
-3.633323938151086
 20
-16.93333408931903
 30
0.0
 40
0.6666666865348816
100
AcDbArc
 50
226.6000000000004
 51
313.4000000000007
  0
LINE
  5
504
330
1F
100
AcDbEntity
  8
16
  6
Continuous
 62
     3
370
    25
100
AcDbLine
 10
-3.299990594883646
 20
-16.43333407441787
 30
0.0
 11
-3.966657281418526
 21
-16.43333407441787
 31
0.0
  0
ARC
  5
505
330
1F
100
AcDbEntity
  8
16
  6
Continuous
 62
     3
370
    25
100
AcDbCircle
 10
-3.966657444815978
 20
-16.933334089319
 30
0.0
 40
0.5000000149011612
100
AcDbArc
 50
90.0000000000002
 51
270.0000000000006
  0
LINE
  5
506
330
1F
100
AcDbEntity
  8
16
  6
Continuous
 62
     3
370
    25
100
AcDbLine
 10
-3.966657935008339
 20
-17.43333410421993
 30
0.0
 11
-3.299991248473456
 21
-17.43333410421993
 31
0.0
  0
ARC
  5
507
330
1F
100
AcDbEntity
  8
16
  6
Continuous
 62
     3
370
    25
100
AcDbCircle
 10
-3.299990758281098
 20
-16.933334089319
 30
0.0
 40
0.5000000149011612
100
AcDbArc
 50
270.0000000000006
 51
90.00000000000102
  0
LINE
  5
508
330
1F
100
AcDbEntity
  8
16
  6
Continuous
 62
     3
370
    25
100
AcDbLine
 10
-4.96665731122085
 20
-16.93333408931903
 30
0.0
 11
-2.299990565081323
 21
-16.93333408931903
 31
0.0
  0
LINE
  5
509
330
1F
100
AcDbEntity
  8
16
  6
Continuous
 62
     3
370
    25
100
AcDbLine
 10
-3.633323938151086
 20
-15.93333405951671
 30
0.0
 11
-3.633323938151086
 21
-17.93333411912135
 31
0.0
  0
LINE
  5
50A
330
1F
100
AcDbEntity
  8
16
  6
Continuous
 62
     3
370
    25
100
AcDbLine
 10
-6.633324027558054
 20
58.15000148167201
 30
0.0
 11
-6.633324027558054
 21
-25.35000100682191
 31
0.0
  0
LINE
  5
50B
330
1F
100
AcDbEntity
  8
16
  6
Continuous
 62
     3
370
    25
100
AcDbLine
 10
-6.633324027558054
 20
-25.35000100682191
 30
0.0
 11
0.7000095243256441
 21
-25.35000100682191
 31
0.0
  0
LINE
  5
50C
330
1F
100
AcDbEntity
  8
16
  6
Continuous
 62
     3
370
    25
100
AcDbLine
 10
0.7000095243256441
 20
-25.35000100682191
 30
0.0
 11
0.7000095243256441
 21
58.15000148167201
 31
0.0
  0
LINE
  5
50D
330
1F
100
AcDbEntity
  8
16
  6
Continuous
 62
     3
370
    25
100
AcDbLine
 10
0.7000095243256441
 20
58.15000148167201
 30
0.0
 11
-6.633324027558054
 21
58.15000148167201
 31
0.0
  0
LINE
  5
50E
330
1F
100
AcDbEntity
  8
16
  6
Continuous
 62
     3
370
    25
100
AcDbLine
 10
-6.299990684290613
 20
58.15000148167201
 30
0.0
 11
-6.299990684290613
 21
-25.35000100682191
 31
0.0
  0
LINE
  5
50F
330
1F
100
AcDbEntity
  8
16
  6
Continuous
 62
     3
370
    25
100
AcDbLine
 10
-5.13332398285457
 20
-25.35000100682191
 30
0.0
 11
-5.13332398285457
 21
58.15000148167201
 31
0.0
  0
LINE
  5
510
330
1F
100
AcDbEntity
  8
16
  6
Continuous
 62
     3
370
    25
100
AcDbLine
 10
-4.466657296319688
 20
58.15000148167201
 30
0.0
 11
-4.466657296319688
 21
-25.35000100682191
 31
0.0
  0
LINE
  5
511
330
1F
100
AcDbEntity
  8
16
  6
Continuous
 62
     3
370
    25
100
AcDbLine
 10
0.7000095243256441
 20
57.65000146677085
 30
0.0
 11
11.53334318051747
 21
57.65000146677085
 31
0.0
  0
LINE
  5
512
330
1F
100
AcDbEntity
  8
16
  6
Continuous
 62
     3
370
    25
100
AcDbLine
 10
11.53334318051747
 20
57.65000146677085
 30
0.0
 11
11.53334318051747
 21
50.98333460142203
 31
0.0
  0
LINE
  5
513
330
1F
100
AcDbEntity
  8
16
  6
Continuous
 62
     3
370
    25
100
AcDbLine
 10
11.53334318051747
 20
50.98333460142203
 30
0.0
 11
0.7000095243256441
 21
50.98333460142203
 31
0.0
  0
LINE
  5
514
330
1F
100
AcDbEntity
  8
16
  6
Continuous
 62
     3
370
    25
100
AcDbLine
 10
0.7000095243256441
 20
50.98333460142203
 30
0.0
 11
0.7000095243256441
 21
57.65000146677085
 31
0.0
  0
LINE
  5
515
330
1F
100
AcDbEntity
  8
16
  6
Continuous
 62
     3
370
    25
100
AcDbLine
 10
1.200009539226805
 20
57.15000145186967
 30
0.0
 11
11.03334316561631
 21
57.15000145186967
 31
0.0
  0
LINE
  5
516
330
1F
100
AcDbEntity
  8
16
  6
Continuous
 62
     3
370
    25
100
AcDbLine
 10
11.03334316561631
 20
57.15000145186967
 30
0.0
 11
11.03334316561631
 21
51.48333461632319
 31
0.0
  0
LINE
  5
517
330
1F
100
AcDbEntity
  8
16
  6
Continuous
 62
     3
370
    25
100
AcDbLine
 10
11.03334316561631
 20
51.48333461632319
 30
0.0
 11
1.200009539226805
 21
51.48333461632319
 31
0.0
  0
LINE
  5
518
330
1F
100
AcDbEntity
  8
16
  6
Continuous
 62
     3
370
    25
100
AcDbLine
 10
1.200009539226805
 20
51.48333461632319
 30
0.0
 11
1.200009539226805
 21
57.15000145186967
 31
0.0
  0
LINE
  5
519
330
1F
100
AcDbEntity
  8
16
  6
Continuous
 62
     3
370
    25
100
AcDbLine
 10
0.7000095243256441
 20
-24.85000099192075
 30
0.0
 11
11.53334318051747
 21
-24.85000099192075
 31
0.0
  0
LINE
  5
51A
330
1F
100
AcDbEntity
  8
16
  6
Continuous
 62
     3
370
    25
100
AcDbLine
 10
11.53334318051747
 20
-24.85000099192075
 30
0.0
 11
11.53334318051747
 21
-18.18333412657193
 31
0.0
  0
LINE
  5
51B
330
1F
100
AcDbEntity
  8
16
  6
Continuous
 62
     3
370
    25
100
AcDbLine
 10
11.53334318051747
 20
-18.18333412657193
 30
0.0
 11
0.7000095243256441
 21
-18.18333412657193
 31
0.0
  0
LINE
  5
51C
330
1F
100
AcDbEntity
  8
16
  6
Continuous
 62
     3
370
    25
100
AcDbLine
 10
0.7000095243256441
 20
-18.18333412657193
 30
0.0
 11
0.7000095243256441
 21
-24.85000099192075
 31
0.0
  0
LINE
  5
51D
330
1F
100
AcDbEntity
  8
16
  6
Continuous
 62
     3
370
    25
100
AcDbLine
 10
1.200009539226805
 20
-24.35000097701959
 30
0.0
 11
11.03334316561631
 21
-24.35000097701959
 31
0.0
  0
LINE
  5
51E
330
1F
100
AcDbEntity
  8
16
  6
Continuous
 62
     3
370
    25
100
AcDbLine
 10
11.03334316561631
 20
-24.35000097701959
 30
0.0
 11
11.03334316561631
 21
-18.6833341414731
 31
0.0
  0
LINE
  5
51F
330
1F
100
AcDbEntity
  8
16
  6
Continuous
 62
     3
370
    25
100
AcDbLine
 10
11.03334316561631
 20
-18.6833341414731
 30
0.0
 11
1.200009539226805
 21
-18.6833341414731
 31
0.0
  0
LINE
  5
520
330
1F
100
AcDbEntity
  8
16
  6
Continuous
 62
     3
370
    25
100
AcDbLine
 10
1.200009539226805
 20
-18.6833341414731
 30
0.0
 11
1.200009539226805
 21
-24.35000097701959
 31
0.0
  0
LINE
  5
521
330
1F
100
AcDbEntity
  8
16
  6
Continuous
 62
     3
370
    25
100
AcDbLine
 10
-52.75833292541407
 20
-72.34999729146556
 30
0.0
 11
-52.42499958711369
 21
-72.34999729146556
 31
0.0
  0
LINE
  5
522
330
1F
100
AcDbEntity
  8
16
  6
Continuous
 62
     3
370
    25
100
AcDbLine
 10
-52.42499958711369
 20
-72.34999729146556
 30
0.0
 11
-52.42499958711369
 21
-74.34999732126788
 31
0.0
  0
LINE
  5
523
330
1F
100
AcDbEntity
  8
16
  6
Continuous
 62
     3
370
    25
100
AcDbLine
 10
-52.42499958711369
 20
-74.34999732126788
 30
0.0
 11
-52.75833292541407
 21
-74.34999732126788
 31
0.0
  0
LINE
  5
524
330
1F
100
AcDbEntity
  8
16
  6
Continuous
 62
     3
370
    25
100
AcDbLine
 10
-132.8416662252199
 20
-72.34999729146556
 30
0.0
 11
-133.1749995635203
 21
-72.34999729146556
 31
0.0
  0
LINE
  5
525
330
1F
100
AcDbEntity
  8
16
  6
Continuous
 62
     3
370
    25
100
AcDbLine
 10
-133.1749995635203
 20
-72.34999729146556
 30
0.0
 11
-133.1749995635203
 21
-74.34999732126788
 31
0.0
  0
LINE
  5
526
330
1F
100
AcDbEntity
  8
16
  6
Continuous
 62
     3
370
    25
100
AcDbLine
 10
-133.1749995635203
 20
-74.34999732126788
 30
0.0
 11
-132.8416662252199
 21
-74.34999732126788
 31
0.0
  0
LINE
  5
527
330
1F
100
AcDbEntity
  8
16
  6
Continuous
 62
     3
370
    25
100
AcDbLine
 10
-52.92499959456427
 20
-72.51666396061574
 30
0.0
 11
-52.75833292541407
 21
-72.34999729146556
 31
0.0
  0
LINE
  5
528
330
1F
100
AcDbEntity
  8
16
  6
Continuous
 62
     3
370
    25
100
AcDbLine
 10
-52.75833292541407
 20
-74.34999732126788
 30
0.0
 11
-52.92499959456427
 21
-74.18333065211769
 31
0.0
  0
LINE
  5
529
330
1F
100
AcDbEntity
  8
16
  6
Continuous
 62
     3
370
    25
100
AcDbLine
 10
-132.6749995560696
 20
-72.51666396061574
 30
0.0
 11
-132.8416662252199
 21
-72.34999729146556
 31
0.0
  0
LINE
  5
52A
330
1F
100
AcDbEntity
  8
16
  6
Continuous
 62
     3
370
    25
100
AcDbLine
 10
-132.8416662252199
 20
-74.34999732126788
 30
0.0
 11
-132.6749995560696
 21
-74.18333065211769
 31
0.0
  0
LINE
  5
52B
330
1F
100
AcDbEntity
  8
16
  6
DASHED2
 62
     3
370
    25
100
AcDbLine
 10
-132.6333328689138
 20
-78.21666417072211
 30
0.0
 11
-52.9666638279955
 21
-78.21666417072211
 31
0.0
  0
LINE
  5
52C
330
1F
100
AcDbEntity
  8
16
  6
DASHED2
 62
     3
370
    25
100
AcDbLine
 10
-132.6333328689138
 20
-87.98333162913718
 30
0.0
 11
-52.9666638279955
 21
-87.98333162913718
 31
0.0
  0
LINE
  5
52D
330
1F
100
AcDbEntity
  8
22
  6
Continuous
 62
     4
370
    25
100
AcDbLine
 10
91.20000407099724
 20
95.70000328421591
 30
0.0
 11
86.20000399649143
 21
95.70000328421591
 31
0.0
  0
LINE
  5
52E
330
1F
100
AcDbEntity
  8
22
  6
Continuous
 62
     4
370
    25
100
AcDbLine
 10
86.20000399649143
 20
95.70000328421591
 30
0.0
 11
86.20000399649143
 21
91.70000322461127
 31
0.0
  0
LINE
  5
52F
330
1F
100
AcDbEntity
  8
22
  6
Continuous
 62
     4
370
    25
100
AcDbLine
 10
86.20000399649143
 20
91.70000322461127
 30
0.0
 11
144.2000048607588
 21
91.70000322461127
 31
0.0
  0
LINE
  5
530
330
1F
100
AcDbEntity
  8
22
  6
Continuous
 62
     4
370
    25
100
AcDbLine
 10
144.2000048607588
 20
91.70000322461127
 30
0.0
 11
144.2000048607588
 21
95.70000328421591
 31
0.0
  0
LINE
  5
531
330
1F
100
AcDbEntity
  8
22
  6
Continuous
 62
     4
370
    25
100
AcDbLine
 10
144.2000048607588
 20
95.70000328421591
 30
0.0
 11
139.200004786253
 21
95.70000328421591
 31
0.0
  0
LINE
  5
532
330
1F
100
AcDbEntity
  8
22
  6
Continuous
 62
     4
370
    25
100
AcDbLine
 10
68.20000372827053
 20
27.20000226348638
 30
0.0
 11
67.20000371336937
 21
27.20000226348638
 31
0.0
  0
LINE
  5
533
330
1F
100
AcDbEntity
  8
22
  6
Continuous
 62
     4
370
    25
100
AcDbLine
 10
67.20000371336937
 20
27.20000226348638
 30
0.0
 11
67.20000371336937
 21
24.70000222623348
 31
0.0
  0
LINE
  5
534
330
1F
100
AcDbEntity
  8
22
  6
Continuous
 62
     4
370
    25
100
AcDbLine
 10
67.20000371336937
 20
24.70000222623348
 30
0.0
 11
81.20000392198563
 21
24.70000222623348
 31
0.0
  0
LINE
  5
535
330
1F
100
AcDbEntity
  8
22
  6
Continuous
 62
     4
370
    25
100
AcDbLine
 10
81.20000392198563
 20
24.70000222623348
 30
0.0
 11
81.20000392198563
 21
27.20000226348638
 31
0.0
  0
LINE
  5
536
330
1F
100
AcDbEntity
  8
22
  6
Continuous
 62
     4
370
    25
100
AcDbLine
 10
81.20000392198563
 20
27.20000226348638
 30
0.0
 11
80.20000390708447
 21
27.20000226348638
 31
0.0
  0
LINE
  5
537
330
1F
100
AcDbEntity
  8
22
  6
Continuous
 62
     4
370
    25
100
AcDbLine
 10
79.2000038921833
 20
17.20000211447476
 30
0.0
 11
91.20000407099724
 21
17.20000211447476
 31
0.0
  0
LINE
  5
538
330
1F
100
AcDbEntity
  8
22
  6
Continuous
 62
     4
370
    25
100
AcDbLine
 10
96.20000414550304
 20
17.20000211447476
 30
0.0
 11
100.2000042051077
 21
17.20000211447476
 31
0.0
  0
LINE
  5
539
330
1F
100
AcDbEntity
  8
22
  6
Continuous
 62
     4
370
    25
100
AcDbLine
 10
105.2000042796135
 20
17.20000211447476
 30
0.0
 11
137.2000047564507
 21
17.20000211447476
 31
0.0
  0
LINE
  5
53A
330
1F
100
AcDbEntity
  8
22
  6
Continuous
 62
     4
370
    25
100
AcDbLine
 10
82.20000393688679
 20
-59.29999902546406
 30
0.0
 11
130.2000046521425
 21
-59.29999902546406
 31
0.0
  0
LINE
  5
53B
330
1F
100
AcDbEntity
  8
22
  6
Continuous
 62
     4
370
    25
100
AcDbLine
 10
-182.0
 20
-128.5
 30
0.0
 11
-178.9999999552965
 21
-128.5
 31
0.0
  0
LINE
  5
53C
330
1F
100
AcDbEntity
  8
22
  6
Continuous
 62
     4
370
    25
100
AcDbLine
 10
-178.9999999552965
 20
-128.5
 30
0.0
 11
-178.9999999552965
 21
-125.4999999552965
 31
0.0
  0
LINE
  5
53D
330
1F
100
AcDbEntity
  8
22
  6
Continuous
 62
     4
370
    25
100
AcDbLine
 10
-178.9999999552965
 20
-125.4999999552965
 30
0.0
 11
-182.0
 21
-125.4999999552965
 31
0.0
  0
LINE
  5
53E
330
1F
100
AcDbEntity
  8
22
  6
Continuous
 62
     4
370
    25
100
AcDbLine
 10
-182.0
 20
-125.4999999552965
 30
0.0
 11
-182.0
 21
-128.5
 31
0.0
  0
LINE
  5
53F
330
1F
100
AcDbEntity
  8
22
  6
Continuous
 62
     4
370
    25
100
AcDbLine
 10
-182.0
 20
-128.5
 30
0.0
 11
-178.9999999552965
 21
-128.5
 31
0.0
  0
LINE
  5
540
330
1F
100
AcDbEntity
  8
22
  6
Continuous
 62
     4
370
    25
100
AcDbLine
 10
-178.9999999552965
 20
-128.5
 30
0.0
 11
-178.9999999552965
 21
-125.4999999552965
 31
0.0
  0
LINE
  5
541
330
1F
100
AcDbEntity
  8
22
  6
Continuous
 62
     4
370
    25
100
AcDbLine
 10
-178.9999999552965
 20
-125.4999999552965
 30
0.0
 11
-182.0
 21
-125.4999999552965
 31
0.0
  0
LINE
  5
542
330
1F
100
AcDbEntity
  8
22
  6
Continuous
 62
     4
370
    25
100
AcDbLine
 10
-182.0
 20
-125.4999999552965
 30
0.0
 11
-182.0
 21
-128.5
 31
0.0
  0
LINE
  5
543
330
1F
100
AcDbEntity
  8
22
  6
Continuous
 62
     4
370
    25
100
AcDbLine
 10
-182.0
 20
-128.5
 30
0.0
 11
-178.9999999552965
 21
-128.5
 31
0.0
  0
LINE
  5
544
330
1F
100
AcDbEntity
  8
22
  6
Continuous
 62
     4
370
    25
100
AcDbLine
 10
-178.9999999552965
 20
-128.5
 30
0.0
 11
-178.9999999552965
 21
-125.4999999552965
 31
0.0
  0
LINE
  5
545
330
1F
100
AcDbEntity
  8
22
  6
Continuous
 62
     4
370
    25
100
AcDbLine
 10
-178.9999999552965
 20
-125.4999999552965
 30
0.0
 11
-182.0
 21
-125.4999999552965
 31
0.0
  0
LINE
  5
546
330
1F
100
AcDbEntity
  8
22
  6
Continuous
 62
     4
370
    25
100
AcDbLine
 10
-182.0
 20
-125.4999999552965
 30
0.0
 11
-182.0
 21
-128.5
 31
0.0
  0
ARC
  5
547
330
1F
100
AcDbEntity
  8
22
  6
Continuous
 62
     4
370
    25
100
AcDbCircle
 10
59.20000359416008
 20
102.700003388524
 30
0.0
 40
5.000000074505806
100
AcDbArc
 50
270.0000000000006
 51
0.0000000000008142
  0
LINE
  5
548
330
1F
100
AcDbEntity
  8
22
  6
Continuous
 62
     4
370
    25
100
AcDbLine
 10
59.20000522813459
 20
97.7000033140185
 30
0.0
 11
59.20000359416008
 21
-57.29999899566172
 31
0.0
  0
ARC
  5
549
330
1F
100
AcDbEntity
  8
22
  6
Continuous
 62
     4
370
    25
100
AcDbCircle
 10
59.20000196018556
 20
-62.29999907016728
 30
0.0
 40
5.000000074505806
100
AcDbArc
 50
0.0
 51
90.0000000000002
  0
LINE
  5
54A
330
1F
100
AcDbEntity
  8
22
  6
Continuous
 62
     4
370
    25
100
AcDbLine
 10
64.20000203469138
 20
-62.29999907016728
 30
0.0
 11
164.200005158782
 21
-62.29999907016754
 31
0.0
  0
ARC
  5
54B
330
1F
100
AcDbEntity
  8
22
  6
Continuous
 62
     4
370
    25
100
AcDbCircle
 10
169.2000052332867
 20
-62.30000233811656
 30
0.0
 40
5.000000074505806
100
AcDbArc
 50
90.0000000000002
 51
180.0000000000004
  0
LINE
  5
54C
330
1F
100
AcDbEntity
  8
22
  6
Continuous
 62
     4
370
    25
100
AcDbLine
 10
169.2000068672612
 20
-57.30000226361102
 30
0.0
 11
169.2000052332878
 21
97.70000331401823
 31
0.0
  0
ARC
  5
54D
330
1F
100
AcDbEntity
  8
22
  6
Continuous
 62
     4
370
    25
100
AcDbCircle
 10
169.2000101352113
 20
102.7000033885216
 30
0.0
 40
5.000000074505806
100
AcDbArc
 50
180.0000000000004
 51
270.0000000000006
  0
LINE
  5
54E
330
1F
100
AcDbEntity
  8
22
  6
Continuous
 62
     4
370
    25
100
AcDbLine
 10
164.2000100607066
 20
102.7000066564706
 30
0.0
 11
64.20000366866589
 21
102.700003388524
 31
0.0
  0
LINE
  5
54F
330
1F
100
AcDbEntity
  8
22
  6
Continuous
 62
     4
370
    25
100
AcDbLine
 10
-130.6333328093092
 20
41.98333433320113
 30
0.0
 11
-130.3333328048388
 21
43.4433343931038
 31
0.0
  0
LINE
  5
550
330
1F
100
AcDbEntity
  8
22
  6
Continuous
 62
     4
370
    25
100
AcDbLine
 10
-130.6333328093092
 20
41.98333433320113
 30
0.0
 11
-129.633332794408
 21
43.08333434959241
 31
0.0
  0
LINE
  5
551
330
1F
100
AcDbEntity
  8
22
  6
Continuous
 62
     4
370
    25
100
AcDbLine
 10
-130.6333328093092
 20
41.98333433320113
 30
0.0
 11
-108.0916317287828
 21
87.06663578624466
 31
0.0
  0
LINE
  5
552
330
1F
100
AcDbEntity
  8
22
  6
Continuous
 62
     4
370
    25
100
AcDbLine
 10
-108.0916317287828
 20
87.06663578624466
 30
0.0
 11
-62.09163104332936
 21
87.06663578624466
 31
0.0
  0
LINE
  5
553
330
1F
100
AcDbEntity
  8
22
  6
Continuous
 62
     4
370
    25
100
AcDbLine
 10
-120.6749991791944
 20
50.31666791488715
 30
0.0
 11
-120.374999174724
 21
51.77666797478982
 31
0.0
  0
LINE
  5
554
330
1F
100
AcDbEntity
  8
22
  6
Continuous
 62
     4
370
    25
100
AcDbLine
 10
-120.6749991791944
 20
50.31666791488715
 30
0.0
 11
-119.6749991642932
 21
51.41666793127843
 31
0.0
  0
LINE
  5
555
330
1F
100
AcDbEntity
  8
22
  6
Continuous
 62
     4
370
    25
100
AcDbLine
 10
-120.6749991791944
 20
50.31666791488715
 30
0.0
 11
-104.3832981918002
 21
82.89996918166617
 31
0.0
  0
LINE
  5
556
330
1F
100
AcDbEntity
  8
22
  6
Continuous
 62
     4
370
    25
100
AcDbLine
 10
-104.3832981918002
 20
82.89996918166617
 30
0.0
 11
-60.38329753614915
 21
82.89996918166617
 31
0.0
  0
LINE
  5
557
330
1F
100
AcDbEntity
  8
22
  6
Continuous
 62
     4
370
    25
100
AcDbLine
 10
-106.7249967289467
 20
58.90000150402375
 30
0.0
 11
-106.4249967244764
 21
60.36000156392642
 31
0.0
  0
LINE
  5
558
330
1F
100
AcDbEntity
  8
22
  6
Continuous
 62
     4
370
    25
100
AcDbLine
 10
-106.7249967289467
 20
58.90000150402375
 30
0.0
 11
-105.7249967140456
 21
60.00000152041503
 31
0.0
  0
LINE
  5
559
330
1F
100
AcDbEntity
  8
22
  6
Continuous
 62
     4
370
    25
100
AcDbLine
 10
-106.7249967289467
 20
58.90000150402375
 30
0.0
 11
-97.09999658552306
 21
78.1500017908711
 31
0.0
  0
LINE
  5
55A
330
1F
100
AcDbEntity
  8
22
  6
Continuous
 62
     4
370
    25
100
AcDbLine
 10
-97.09999658552306
 20
78.1500017908711
 30
0.0
 11
-55.0999959596743
 21
78.1500017908711
 31
0.0
  0
LINE
  5
55B
330
1F
100
AcDbEntity
  8
22
  6
Continuous
 62
     4
370
    25
100
AcDbLine
 10
-95.10000146875791
 20
-69.84999724676209
 30
0.0
 11
-95.10000146875791
 21
-64.84999717225628
 31
0.0
  0
LINE
  5
55C
330
1F
100
AcDbEntity
  8
22
  6
Continuous
 62
     4
370
    25
100
AcDbLine
 10
-95.10000146875791
 20
-65.84999718715744
 30
0.0
 11
-96.60000149110965
 21
-65.44999718119698
 31
0.0
  0
LINE
  5
55D
330
1F
100
AcDbEntity
  8
22
  6
Continuous
 62
     4
370
    25
100
AcDbLine
 10
-96.60000149110965
 20
-66.2499971931179
 30
0.0
 11
-95.10000146875791
 21
-65.84999718715744
 31
0.0
  0
LINE
  5
55E
330
1F
100
AcDbEntity
  8
22
  6
Continuous
 62
     4
370
    25
100
AcDbLine
 10
-95.10000146875791
 20
-65.84999718715744
 30
0.0
 11
-98.1000015134614
 21
-65.84999718715744
 31
0.0
  0
LINE
  5
55F
330
1F
100
AcDbEntity
  8
22
  6
Continuous
 62
     4
370
    25
100
AcDbLine
 10
-95.10000146875791
 20
-65.84999718715744
 30
0.0
 11
-90.45000139946751
 21
-65.84999718715744
 31
0.0
  0
LINE
  5
560
330
1F
100
AcDbEntity
  8
22
  6
Continuous
 62
     4
370
    25
100
AcDbLine
 10
-90.45000139946751
 20
-65.84999718715744
 30
0.0
 11
-88.95000137711577
 21
-65.44999718119698
 31
0.0
  0
LINE
  5
561
330
1F
100
AcDbEntity
  8
22
  6
Continuous
 62
     4
370
    25
100
AcDbLine
 10
-88.95000137711577
 20
-66.2499971931179
 30
0.0
 11
-90.45000139946751
 21
-65.84999718715744
 31
0.0
  0
LINE
  5
562
330
1F
100
AcDbEntity
  8
22
  6
Continuous
 62
     4
370
    25
100
AcDbLine
 10
-90.45000139946751
 20
-65.84999718715744
 30
0.0
 11
-78.45000122065358
 21
-65.84999718715744
 31
0.0
  0
LINE
  5
563
330
1F
100
AcDbEntity
  8
22
  6
Continuous
 62
     4
370
    25
100
AcDbLine
 10
-90.45000139946751
 20
-64.84999717225628
 30
0.0
 11
-90.45000139946751
 21
-69.84999724676209
 31
0.0
  0
LINE
  5
564
330
1F
100
AcDbEntity
  8
22
  6
Continuous
 62
     4
370
    25
100
AcDbLine
 10
-133.9666662419836
 20
-69.84999724676209
 30
0.0
 11
-133.9666662419836
 21
-57.84999706794815
 31
0.0
  0
LINE
  5
565
330
1F
100
AcDbEntity
  8
22
  6
Continuous
 62
     4
370
    25
100
AcDbLine
 10
-133.9666662419836
 20
-58.84999708284931
 30
0.0
 11
-132.4666662196318
 21
-58.44999707688885
 31
0.0
  0
LINE
  5
566
330
1F
100
AcDbEntity
  8
22
  6
Continuous
 62
     4
370
    25
100
AcDbLine
 10
-132.4666662196318
 20
-59.24999708880978
 30
0.0
 11
-133.9666662419836
 21
-58.84999708284931
 31
0.0
  0
LINE
  5
567
330
1F
100
AcDbEntity
  8
22
  6
Continuous
 62
     4
370
    25
100
AcDbLine
 10
-133.9666662419836
 20
-58.84999708284931
 30
0.0
 11
-51.63336423387182
 21
-58.84999708284931
 31
0.0
  0
LINE
  5
568
330
1F
100
AcDbEntity
  8
22
  6
Continuous
 62
     4
370
    25
100
AcDbLine
 10
-51.63336423387182
 20
-58.84999708284931
 30
0.0
 11
-53.13336425622356
 21
-58.44999707688885
 31
0.0
  0
LINE
  5
569
330
1F
100
AcDbEntity
  8
22
  6
Continuous
 62
     4
370
    25
100
AcDbLine
 10
-53.13336425622356
 20
-59.24999708880978
 30
0.0
 11
-51.63336423387182
 21
-58.84999708284931
 31
0.0
  0
LINE
  5
56A
330
1F
100
AcDbEntity
  8
22
  6
Continuous
 62
     4
370
    25
100
AcDbLine
 10
-51.63336423387182
 20
-69.84999724676209
 30
0.0
 11
-51.63336423387182
 21
-57.84999706794815
 31
0.0
  0
LINE
  5
56B
330
1F
100
AcDbEntity
  8
22
  6
Continuous
 62
     4
370
    25
100
AcDbLine
 10
-132.6333328689138
 20
-98.01666461875038
 30
0.0
 11
-132.6333328689138
 21
-89.01666448463993
 31
0.0
  0
LINE
  5
56C
330
1F
100
AcDbEntity
  8
22
  6
Continuous
 62
     4
370
    25
100
AcDbLine
 10
-132.6333328689138
 20
-97.01666460384922
 30
0.0
 11
-131.1333328465621
 21
-96.61666459788876
 31
0.0
  0
LINE
  5
56D
330
1F
100
AcDbEntity
  8
22
  6
Continuous
 62
     4
370
    25
100
AcDbLine
 10
-131.1333328465621
 20
-97.41666460980969
 30
0.0
 11
-132.6333328689138
 21
-97.01666460384922
 31
0.0
  0
LINE
  5
56E
330
1F
100
AcDbEntity
  8
22
  6
Continuous
 62
     4
370
    25
100
AcDbLine
 10
-132.6333328689138
 20
-97.01666460384922
 30
0.0
 11
-52.96663246303752
 21
-97.01666460384922
 31
0.0
  0
LINE
  5
56F
330
1F
100
AcDbEntity
  8
22
  6
Continuous
 62
     4
370
    25
100
AcDbLine
 10
-52.96663246303752
 20
-97.01666460384922
 30
0.0
 11
-54.46663248538926
 21
-96.61666459788876
 31
0.0
  0
LINE
  5
570
330
1F
100
AcDbEntity
  8
22
  6
Continuous
 62
     4
370
    25
100
AcDbLine
 10
-54.46663248538926
 20
-97.41666460980969
 30
0.0
 11
-52.96663246303752
 21
-97.01666460384922
 31
0.0
  0
LINE
  5
571
330
1F
100
AcDbEntity
  8
22
  6
Continuous
 62
     4
370
    25
100
AcDbLine
 10
-52.96663246303752
 20
-98.01666461875038
 30
0.0
 11
-52.96663246303752
 21
-89.01666448463993
 31
0.0
  0
LINE
  5
572
330
1F
100
AcDbEntity
  8
22
  6
Continuous
 62
     4
370
    25
100
AcDbLine
 10
-104.3999997114142
 20
-69.84999725421267
 30
0.0
 11
-104.6999997158846
 21
-68.38999719430998
 31
0.0
  0
LINE
  5
573
330
1F
100
AcDbEntity
  8
22
  6
Continuous
 62
     4
370
    25
100
AcDbLine
 10
-104.3999997114142
 20
-69.84999725421267
 30
0.0
 11
-105.3999997263154
 21
-68.74999723782139
 31
0.0
  0
LINE
  5
574
330
1F
100
AcDbEntity
  8
22
  6
Continuous
 62
     4
370
    25
100
AcDbLine
 10
-104.3999997114142
 20
-69.84999725421267
 30
0.0
 11
-109.39999978592
 21
-59.84999710520104
 31
0.0
  0
LINE
  5
575
330
1F
100
AcDbEntity
  8
22
  6
Continuous
 62
     4
370
    25
100
AcDbLine
 10
-110.3999998008212
 20
-57.84999707539873
 30
0.0
 11
-113.3999998455247
 21
-51.84999698599175
 31
0.0
  0
LINE
  5
576
330
1F
100
AcDbEntity
  8
22
  6
Continuous
 62
     4
370
    25
100
AcDbLine
 10
-135.4000001733502
 20
-51.84999698599175
 30
0.0
 11
-113.3999998455247
 21
-51.84999698599175
 31
0.0
  0
LINE
  5
577
330
1F
100
AcDbEntity
  8
22
  6
Continuous
 62
     4
370
    25
100
AcDbLine
 10
-7.133324042459215
 20
58.90000150402375
 30
0.0
 11
-12.13332411696502
 21
58.90000150402375
 31
0.0
  0
LINE
  5
578
330
1F
100
AcDbEntity
  8
22
  6
Continuous
 62
     4
370
    25
100
AcDbLine
 10
-11.13332410206386
 20
58.90000150402375
 30
0.0
 11
-11.53332410802432
 21
57.40000148167201
 31
0.0
  0
LINE
  5
579
330
1F
100
AcDbEntity
  8
22
  6
Continuous
 62
     4
370
    25
100
AcDbLine
 10
-10.73332409610339
 20
57.40000148167201
 30
0.0
 11
-11.13332410206386
 21
58.90000150402375
 31
0.0
  0
LINE
  5
57A
330
1F
100
AcDbEntity
  8
22
  6
Continuous
 62
     4
370
    25
100
AcDbLine
 10
-11.13332410206386
 20
58.90000150402375
 30
0.0
 11
-11.13332410206386
 21
49.73333114037894
 31
0.0
  0
LINE
  5
57B
330
1F
100
AcDbEntity
  8
22
  6
Continuous
 62
     4
370
    25
100
AcDbLine
 10
-11.13332410206386
 20
49.73333114037894
 30
0.0
 11
-11.53332410802432
 21
51.23333116273068
 31
0.0
  0
LINE
  5
57C
330
1F
100
AcDbEntity
  8
22
  6
Continuous
 62
     4
370
    25
100
AcDbLine
 10
-10.73332409610339
 20
51.23333116273068
 30
0.0
 11
-11.13332410206386
 21
49.73333114037894
 31
0.0
  0
LINE
  5
57D
330
1F
100
AcDbEntity
  8
22
  6
Continuous
 62
     4
370
    25
100
AcDbLine
 10
-12.13332411696502
 20
49.73333114037894
 30
0.0
 11
-7.133324042459215
 21
49.73333114037894
 31
0.0
  0
LINE
  5
57E
330
1F
100
AcDbEntity
  8
22
  6
Continuous
 62
     4
370
    25
100
AcDbLine
 10
-11.13332410206386
 20
49.73333456416913
 30
0.0
 11
-11.53332410802432
 21
48.23333454181739
 31
0.0
  0
LINE
  5
57F
330
1F
100
AcDbEntity
  8
22
  6
Continuous
 62
     4
370
    25
100
AcDbLine
 10
-10.73332409610339
 20
48.23333454181739
 30
0.0
 11
-11.13332410206386
 21
49.73333456416913
 31
0.0
  0
LINE
  5
580
330
1F
100
AcDbEntity
  8
22
  6
Continuous
 62
     4
370
    25
100
AcDbLine
 10
-11.13332410206386
 20
49.73333456416913
 30
0.0
 11
-11.13332410206386
 21
33.06663357118703
 31
0.0
  0
LINE
  5
581
330
1F
100
AcDbEntity
  8
22
  6
Continuous
 62
     4
370
    25
100
AcDbLine
 10
-11.13332410206386
 20
33.06663357118703
 30
0.0
 11
-11.53332410802432
 21
34.56663359353877
 31
0.0
  0
LINE
  5
582
330
1F
100
AcDbEntity
  8
22
  6
Continuous
 62
     4
370
    25
100
AcDbLine
 10
-10.73332409610339
 20
34.56663359353877
 30
0.0
 11
-11.13332410206386
 21
33.06663357118703
 31
0.0
  0
LINE
  5
583
330
1F
100
AcDbEntity
  8
22
  6
Continuous
 62
     4
370
    25
100
AcDbLine
 10
-12.13332411696502
 20
33.06663357118703
 30
0.0
 11
-7.133324042459215
 21
33.06663357118703
 31
0.0
  0
LINE
  5
584
330
1F
100
AcDbEntity
  8
22
  6
Continuous
 62
     4
370
    25
100
AcDbLine
 10
-7.133324042459215
 20
58.90000150402375
 30
0.0
 11
-19.13332422127315
 21
58.90000150402375
 31
0.0
  0
LINE
  5
585
330
1F
100
AcDbEntity
  8
22
  6
Continuous
 62
     4
370
    25
100
AcDbLine
 10
-18.13332420637199
 20
58.90000150402375
 30
0.0
 11
-18.53332421233245
 21
57.40000148167201
 31
0.0
  0
LINE
  5
586
330
1F
100
AcDbEntity
  8
22
  6
Continuous
 62
     4
370
    25
100
AcDbLine
 10
-17.73332420041152
 20
57.40000148167201
 30
0.0
 11
-18.13332420637199
 21
58.90000150402375
 31
0.0
  0
LINE
  5
587
330
1F
100
AcDbEntity
  8
22
  6
Continuous
 62
     4
370
    25
100
AcDbLine
 10
-18.13332420637199
 20
58.90000150402375
 30
0.0
 11
-18.13332420637199
 21
-26.09999976257495
 31
0.0
  0
LINE
  5
588
330
1F
100
AcDbEntity
  8
22
  6
Continuous
 62
     4
370
    25
100
AcDbLine
 10
-18.13332420637199
 20
-26.09999976257495
 30
0.0
 11
-18.53332421233245
 21
-24.59999974022321
 31
0.0
  0
LINE
  5
589
330
1F
100
AcDbEntity
  8
22
  6
Continuous
 62
     4
370
    25
100
AcDbLine
 10
-17.73332420041152
 20
-24.59999974022321
 30
0.0
 11
-18.13332420637199
 21
-26.09999976257495
 31
0.0
  0
LINE
  5
58A
330
1F
100
AcDbEntity
  8
22
  6
Continuous
 62
     4
370
    25
100
AcDbLine
 10
-19.13332422127315
 20
-26.09999976257495
 30
0.0
 11
-7.133324042459215
 21
-26.09999976257495
 31
0.0
  0
LINE
  5
58B
330
1F
100
AcDbEntity
  8
22
  6
Continuous
 62
     4
370
    25
100
AcDbLine
 10
12.03334319541863
 20
57.65000146677085
 30
0.0
 11
24.03334337423257
 21
57.65000146677085
 31
0.0
  0
LINE
  5
58C
330
1F
100
AcDbEntity
  8
22
  6
Continuous
 62
     4
370
    25
100
AcDbLine
 10
23.0333433593314
 20
57.65000146677085
 30
0.0
 11
22.63334335337094
 21
56.15000144441909
 31
0.0
  0
LINE
  5
58D
330
1F
100
AcDbEntity
  8
22
  6
Continuous
 62
     4
370
    25
100
AcDbLine
 10
23.43334336529187
 20
56.15000144441909
 30
0.0
 11
23.0333433593314
 21
57.65000146677085
 31
0.0
  0
LINE
  5
58E
330
1F
100
AcDbEntity
  8
22
  6
Continuous
 62
     4
370
    25
100
AcDbLine
 10
23.0333433593314
 20
57.65000146677085
 30
0.0
 11
23.0333433593314
 21
-24.84999976257495
 31
0.0
  0
LINE
  5
58F
330
1F
100
AcDbEntity
  8
22
  6
Continuous
 62
     4
370
    25
100
AcDbLine
 10
23.0333433593314
 20
-24.84999976257495
 30
0.0
 11
22.63334335337094
 21
-23.34999974022321
 31
0.0
  0
LINE
  5
590
330
1F
100
AcDbEntity
  8
22
  6
Continuous
 62
     4
370
    25
100
AcDbLine
 10
23.43334336529187
 20
-23.34999974022321
 30
0.0
 11
23.0333433593314
 21
-24.84999976257495
 31
0.0
  0
LINE
  5
591
330
1F
100
AcDbEntity
  8
22
  6
Continuous
 62
     4
370
    25
100
AcDbLine
 10
24.03334337423257
 20
-24.84999976257495
 30
0.0
 11
12.03334319541863
 21
-24.84999976257495
 31
0.0
  0
LINE
  5
592
330
1F
100
AcDbEntity
  8
22
  6
Continuous
 62
     4
370
    25
100
AcDbLine
 10
9.033343106011664
 20
58.15000148167201
 30
0.0
 11
9.333343110482009
 21
59.61000154157468
 31
0.0
  0
LINE
  5
593
330
1F
100
AcDbEntity
  8
22
  6
Continuous
 62
     4
370
    25
100
AcDbLine
 10
9.033343106011664
 20
58.15000148167201
 30
0.0
 11
10.03334312091282
 21
59.25000149806327
 31
0.0
  0
LINE
  5
594
330
1F
100
AcDbEntity
  8
22
  6
Continuous
 62
     4
370
    25
100
AcDbLine
 10
9.033343106011664
 20
58.15000148167201
 30
0.0
 11
18.5333432475727
 21
77.15000176479407
 31
0.0
  0
LINE
  5
595
330
1F
100
AcDbEntity
  8
22
  6
Continuous
 62
     4
370
    25
100
AcDbLine
 10
18.5333432475727
 20
77.15000176479407
 30
0.0
 11
-4.466657095154011
 21
77.15000176479407
 31
0.0
  0
LINE
  5
596
330
1F
100
AcDbEntity
  8
22
  6
Continuous
 62
     4
370
    25
100
AcDbLine
 10
-6.633324027558054
 20
-26.60000104407481
 30
0.0
 11
-6.633324027558054
 21
-42.60000128249338
 31
0.0
  0
LINE
  5
597
330
1F
100
AcDbEntity
  8
22
  6
Continuous
 62
     4
370
    25
100
AcDbLine
 10
-6.633324027558054
 20
-41.60000126759223
 30
0.0
 11
-5.133324005206312
 21
-41.20000126163177
 31
0.0
  0
LINE
  5
598
330
1F
100
AcDbEntity
  8
22
  6
Continuous
 62
     4
370
    25
100
AcDbLine
 10
-5.133324005206312
 20
-42.0000012735527
 30
0.0
 11
-6.633324027558054
 21
-41.60000126759223
 31
0.0
  0
LINE
  5
599
330
1F
100
AcDbEntity
  8
22
  6
Continuous
 62
     4
370
    25
100
AcDbLine
 10
-6.633324027558054
 20
-41.60000126759223
 30
0.0
 11
0.7000058546662942
 21
-41.60000126759223
 31
0.0
  0
LINE
  5
59A
330
1F
100
AcDbEntity
  8
22
  6
Continuous
 62
     4
370
    25
100
AcDbLine
 10
0.7000058546662942
 20
-41.60000126759223
 30
0.0
 11
-0.7999941676854476
 21
-41.20000126163177
 31
0.0
  0
LINE
  5
59B
330
1F
100
AcDbEntity
  8
22
  6
Continuous
 62
     4
370
    25
100
AcDbLine
 10
-0.7999941676854476
 20
-42.0000012735527
 30
0.0
 11
0.7000058546662942
 21
-41.60000126759223
 31
0.0
  0
LINE
  5
59C
330
1F
100
AcDbEntity
  8
22
  6
Continuous
 62
     4
370
    25
100
AcDbLine
 10
0.7000058546662942
 20
-42.60000128249338
 30
0.0
 11
0.7000058546662942
 21
-26.60000104407481
 31
0.0
  0
LINE
  5
59D
330
1F
100
AcDbEntity
  8
22
  6
Continuous
 62
     4
370
    25
100
AcDbLine
 10
-6.633324027558054
 20
-26.60000104407481
 30
0.0
 11
-6.633324027558054
 21
-49.60000138680152
 31
0.0
  0
LINE
  5
59E
330
1F
100
AcDbEntity
  8
22
  6
Continuous
 62
     4
370
    25
100
AcDbLine
 10
-6.633324027558054
 20
-48.60000137190036
 30
0.0
 11
-5.133324005206312
 21
-48.2000013659399
 31
0.0
  0
LINE
  5
59F
330
1F
100
AcDbEntity
  8
22
  6
Continuous
 62
     4
370
    25
100
AcDbLine
 10
-5.133324005206312
 20
-49.00000137786081
 30
0.0
 11
-6.633324027558054
 21
-48.60000137190036
 31
0.0
  0
LINE
  5
5A0
330
1F
100
AcDbEntity
  8
22
  6
Continuous
 62
     4
370
    25
100
AcDbLine
 10
-6.633324027558054
 20
-48.60000137190036
 30
0.0
 11
11.53337698777579
 21
-48.60000137190036
 31
0.0
  0
LINE
  5
5A1
330
1F
100
AcDbEntity
  8
22
  6
Continuous
 62
     4
370
    25
100
AcDbLine
 10
11.53337698777579
 20
-48.60000137190036
 30
0.0
 11
10.03337696542405
 21
-48.2000013659399
 31
0.0
  0
LINE
  5
5A2
330
1F
100
AcDbEntity
  8
22
  6
Continuous
 62
     4
370
    25
100
AcDbLine
 10
10.03337696542405
 20
-49.00000137786081
 30
0.0
 11
11.53337698777579
 21
-48.60000137190036
 31
0.0
  0
LINE
  5
5A3
330
1F
100
AcDbEntity
  8
22
  6
Continuous
 62
     4
370
    25
100
AcDbLine
 10
11.53337698777579
 20
-49.60000138680152
 30
0.0
 11
11.53337698777579
 21
-26.60000104407481
 31
0.0
  0
LINE
  5
5A4
330
1F
100
AcDbEntity
  8
0
  6
Continuous
 62
     4
370
    25
100
AcDbLine
 10
-132.399966630862
 20
95.34996945928863
 30
0.0
 11
-130.8999666085103
 21
95.7499694652491
 31
0.0
  0
LINE
  5
5A5
330
1F
100
AcDbEntity
  8
0
  6
Continuous
 62
     4
370
    25
100
AcDbLine
 10
-130.8999666085103
 20
94.94996945332817
 30
0.0
 11
-132.399966630862
 21
95.34996945928863
 31
0.0
  0
LINE
  5
5A6
330
1F
100
AcDbEntity
  8
0
  6
Continuous
 62
     4
370
    25
100
AcDbLine
 10
-132.399966630862
 20
95.34996945928863
 30
0.0
 11
-102.3999661838272
 21
95.34996945928863
 31
0.0
  0
LINE
  5
5A7
330
1F
100
AcDbEntity
  8
0
  6
Continuous
 62
     4
370
    25
100
AcDbLine
 10
-102.3999661838272
 20
95.34996945928863
 30
0.0
 11
-103.8999662061789
 21
95.7499694652491
 31
0.0
  0
LINE
  5
5A8
330
1F
100
AcDbEntity
  8
0
  6
Continuous
 62
     4
370
    25
100
AcDbLine
 10
-103.8999662061789
 20
94.94996945332817
 30
0.0
 11
-102.3999661838272
 21
95.34996945928863
 31
0.0
  0
TEXT
  5
5A9
330
1F
100
AcDbEntity
  8
0
 62
     2
100
AcDbText
 10
-126.3999665452863
 20
96.04996947176893
 30
0.0
 40
3.0
  1
車両進行方向
 41
0.8333333352623458
  7
dcStyle0
 72
     5
 11
-108.3999662952863
 21
96.04996947176893
 31
0.0
100
AcDbText
  0
VIEWPORT
  5
77
330
1B
100
AcDbEntity
 67
     1
  8
0
100
AcDbViewport
 10
-4.799997359514236
 20
-11.29999825358391
 30
0.0
 40
1063.200015842915
 41
703.2000104784966
 68
     1
 69
     1
 12
-4.799997359514236
 22
-11.29999825358391
 13
0.0
 23
0.0
 14
0.5
 24
0.5
 15
0.0
 25
0.0
 16
0.0
 26
0.0
 36
1.0
 17
0.0
 27
0.0
 37
0.0
 42
50.0
 43
0.0
 44
0.0
 45
703.2000104784966
 50
0.0
 51
0.0
 72
   100
 90
   557152
  1

281
     0
 71
     1
 74
     0
110
0.0
120
0.0
130
0.0
111
1.0
121
0.0
131
0.0
112
0.0
122
1.0
132
0.0
 79
     0
146
0.0
  0
ENDSEC
  0
SECTION
  2
OBJECTS
  0
DICTIONARY
  5
C
330
0
100
AcDbDictionary
281
     1
  3
ACAD_GROUP
350
D
  3
ACAD_LAYOUT
350
1A
  3
ACAD_MATERIAL
350
3B
  3
ACAD_MLEADERSTYLE
350
5CE
  3
ACAD_MLINESTYLE
350
17
  3
ACAD_PLOTSETTINGS
350
19
  3
ACAD_PLOTSTYLENAME
350
E
  3
ACAD_SCALELIST
350
5AA
  3
ACAD_VISUALSTYLE
350
2A
  3
AcDbVariableDictionary
350
5CC
  0
DICTIONARY
  5
D
102
{ACAD_REACTORS
330
C
102
}
330
C
100
AcDbDictionary
281
     1
  0
DICTIONARY
  5
1A
102
{ACAD_REACTORS
330
C
102
}
330
C
100
AcDbDictionary
281
     1
  3
Layout1
350
1E
  3
Layout2
350
26
  3
Model
350
22
  0
DICTIONARY
  5
3B
102
{ACAD_REACTORS
330
C
102
}
330
C
100
AcDbDictionary
281
     1
  3
ByBlock
350
3D
  3
ByLayer
350
3C
  3
Global
350
3E
  0
DICTIONARY
  5
5CE
102
{ACAD_REACTORS
330
C
102
}
330
C
100
AcDbDictionary
281
     1
  0
DICTIONARY
  5
17
102
{ACAD_REACTORS
330
C
102
}
330
C
100
AcDbDictionary
281
     1
  3
Standard
350
18
  0
DICTIONARY
  5
19
102
{ACAD_REACTORS
330
C
102
}
330
C
100
AcDbDictionary
281
     1
  0
ACDBDICTIONARYWDFLT
  5
E
102
{ACAD_REACTORS
330
C
102
}
330
C
100
AcDbDictionary
281
     1
  3
Normal
350
F
100
AcDbDictionaryWithDefault
340
F
  0
DICTIONARY
  5
5AA
102
{ACAD_REACTORS
330
C
102
}
330
C
100
AcDbDictionary
281
     1
  3
A0
350
5AB
  3
A1
350
5AC
  3
A2
350
5AD
  3
A3
350
5AE
  3
A4
350
5AF
  3
A5
350
5B0
  3
A6
350
5B1
  3
A7
350
5B2
  3
A8
350
5B3
  3
A9
350
5B4
  3
B0
350
5B5
  3
B1
350
5B6
  3
B2
350
5B7
  3
B3
350
5B8
  3
B4
350
5B9
  3
B5
350
5BA
  3
B6
350
5BB
  3
B7
350
5BC
  3
B8
350
5BD
  3
B9
350
5BE
  3
C0
350
5BF
  3
C1
350
5C0
  3
C2
350
5C1
  3
C3
350
5C2
  3
C4
350
5C3
  3
C5
350
5C4
  3
C6
350
5C5
  3
C7
350
5C6
  3
C8
350
5C7
  3
C9
350
5C8
  3
D0
350
5C9
  3
D1
350
5CA
  3
D2
350
5CB
  0
DICTIONARY
  5
2A
102
{ACAD_REACTORS
330
C
102
}
330
C
100
AcDbDictionary
281
     1
  3
2dWireframe
350
2F
  3
3D Hidden
350
31
  3
3dWireframe
350
30
  3
Basic
350
32
  3
Brighten
350
36
  3
ColorChange
350
3A
  3
Conceptual
350
34
  3
Dim
350
35
  3
Facepattern
350
39
  3
Flat
350
2B
  3
FlatWithEdges
350
2C
  3
Gouraud
350
2D
  3
GouraudWithEdges
350
2E
  3
Linepattern
350
38
  3
Realistic
350
33
  3
Thicken
350
37
  0
DICTIONARY
  5
5CC
102
{ACAD_REACTORS
330
C
102
}
330
C
100
AcDbDictionary
281
     1
  3
CANNOSCALE
350
5CF
  3
DIMASSOC
350
5D0
  3
HIDETEXT
350
5D1
  0
LAYOUT
  5
1E
102
{ACAD_REACTORS
330
1A
102
}
330
1A
100
AcDbPlotSettings
  1

  2
none_device
  4

  6

 40
0.0
 41
0.0
 42
0.0
 43
0.0
 44
0.0
 45
0.0
 46
0.0
 47
0.0
 48
0.0
 49
0.0
140
0.0
141
0.0
142
1.0
143
1.0
 70
   688
 72
     0
 73
     0
 74
     5
  7

 75
    16
147
1.0
148
0.0
149
0.0
100
AcDbLayout
  1
Layout1
 70
     0
 71
     1
 10
0.0
 20
0.0
 11
12.0
 21
9.0
 12
0.0
 22
0.0
 32
0.0
 14
1.000000000000000E+20
 24
1.000000000000000E+20
 34
1.000000000000000E+20
 15
-1.000000000000000E+20
 25
-1.000000000000000E+20
 35
-1.000000000000000E+20
146
0.0
 13
0.0
 23
0.0
 33
0.0
 16
1.0
 26
0.0
 36
0.0
 17
0.0
 27
1.0
 37
0.0
 76
     0
330
1B
331
77
  0
LAYOUT
  5
26
102
{ACAD_REACTORS
330
1A
102
}
330
1A
100
AcDbPlotSettings
  1

  2
none_device
  4

  6

 40
0.0
 41
0.0
 42
0.0
 43
0.0
 44
0.0
 45
0.0
 46
0.0
 47
0.0
 48
0.0
 49
0.0
140
0.0
141
0.0
142
1.0
143
1.0
 70
   688
 72
     0
 73
     0
 74
     5
  7

 75
    16
147
1.0
148
0.0
149
0.0
100
AcDbLayout
  1
Layout2
 70
     1
 71
     2
 10
0.0
 20
0.0
 11
0.0
 21
0.0
 12
0.0
 22
0.0
 32
0.0
 14
0.0
 24
0.0
 34
0.0
 15
0.0
 25
0.0
 35
0.0
146
0.0
 13
0.0
 23
0.0
 33
0.0
 16
1.0
 26
0.0
 36
0.0
 17
0.0
 27
1.0
 37
0.0
 76
     0
330
23
  0
LAYOUT
  5
22
102
{ACAD_REACTORS
330
1A
102
}
330
1A
100
AcDbPlotSettings
  1

  2
none_device
  4

  6

 40
0.0
 41
0.0
 42
0.0
 43
0.0
 44
0.0
 45
0.0
 46
0.0
 47
0.0
 48
0.0
 49
0.0
140
0.0
141
0.0
142
1.0
143
1.0
 70
  1712
 72
     0
 73
     0
 74
     0
  7

 75
     0
147
1.0
148
0.0
149
0.0
100
AcDbLayout
  1
Model
 70
     1
 71
     0
 10
-182.0
 20
-128.5
 11
182.0
 21
128.5
 12
0.0
 22
0.0
 32
0.0
 14
-536.4000052809715
 24
-362.9000034928322
 34
0.0
 15
526.800010561943
 25
340.3000069856644
 35
0.0
146
0.0
 13
0.0
 23
0.0
 33
0.0
 16
1.0
 26
0.0
 36
0.0
 17
0.0
 27
1.0
 37
0.0
 76
     0
330
1F
331
29
  0
MATERIAL
  5
3D
102
{ACAD_REACTORS
330
3B
102
}
102
{ACAD_XDICTIONARY
360
5F4
102
}
330
3B
100
AcDbMaterial
  1
ByBlock
  0
MATERIAL
  5
3C
102
{ACAD_REACTORS
330
3B
102
}
102
{ACAD_XDICTIONARY
360
5F2
102
}
330
3B
100
AcDbMaterial
  1
ByLayer
  0
MATERIAL
  5
3E
102
{ACAD_REACTORS
330
3B
102
}
102
{ACAD_XDICTIONARY
360
5F6
102
}
330
3B
100
AcDbMaterial
  1
Global
  0
MLINESTYLE
  5
18
102
{ACAD_REACTORS
330
17
102
}
330
17
100
AcDbMlineStyle
  2
Standard
 70
     0
  3

 62
   256
 51
90.0
 52
90.0
 71
     2
 49
0.5
 62
   256
  6
BYLAYER
 49
-0.5
 62
   256
  6
BYLAYER
  0
ACDBPLACEHOLDER
  5
F
102
{ACAD_REACTORS
330
E
102
}
330
E
  0
SCALE
  5
5AB
102
{ACAD_REACTORS
330
5AA
102
}
330
5AA
100
AcDbScale
 70
     0
300
1:1
140
1.0
141
1.0
290
     1
  0
SCALE
  5
5AC
102
{ACAD_REACTORS
330
5AA
102
}
330
5AA
100
AcDbScale
 70
     0
300
1:2
140
1.0
141
2.0
290
     0
  0
SCALE
  5
5AD
102
{ACAD_REACTORS
330
5AA
102
}
330
5AA
100
AcDbScale
 70
     0
300
1:4
140
1.0
141
4.0
290
     0
  0
SCALE
  5
5AE
102
{ACAD_REACTORS
330
5AA
102
}
330
5AA
100
AcDbScale
 70
     0
300
1:5
140
1.0
141
5.0
290
     0
  0
SCALE
  5
5AF
102
{ACAD_REACTORS
330
5AA
102
}
330
5AA
100
AcDbScale
 70
     0
300
1:8
140
1.0
141
8.0
290
     0
  0
SCALE
  5
5B0
102
{ACAD_REACTORS
330
5AA
102
}
330
5AA
100
AcDbScale
 70
     0
300
1:10
140
1.0
141
10.0
290
     0
  0
SCALE
  5
5B1
102
{ACAD_REACTORS
330
5AA
102
}
330
5AA
100
AcDbScale
 70
     0
300
1:16
140
1.0
141
16.0
290
     0
  0
SCALE
  5
5B2
102
{ACAD_REACTORS
330
5AA
102
}
330
5AA
100
AcDbScale
 70
     0
300
1:20
140
1.0
141
20.0
290
     0
  0
SCALE
  5
5B3
102
{ACAD_REACTORS
330
5AA
102
}
330
5AA
100
AcDbScale
 70
     0
300
1:30
140
1.0
141
30.0
290
     0
  0
SCALE
  5
5B4
102
{ACAD_REACTORS
330
5AA
102
}
330
5AA
100
AcDbScale
 70
     0
300
1:40
140
1.0
141
40.0
290
     0
  0
SCALE
  5
5B5
102
{ACAD_REACTORS
330
5AA
102
}
330
5AA
100
AcDbScale
 70
     0
300
1:50
140
1.0
141
50.0
290
     0
  0
SCALE
  5
5B6
102
{ACAD_REACTORS
330
5AA
102
}
330
5AA
100
AcDbScale
 70
     0
300
1:100
140
1.0
141
100.0
290
     0
  0
SCALE
  5
5B7
102
{ACAD_REACTORS
330
5AA
102
}
330
5AA
100
AcDbScale
 70
     0
300
2:1
140
2.0
141
1.0
290
     0
  0
SCALE
  5
5B8
102
{ACAD_REACTORS
330
5AA
102
}
330
5AA
100
AcDbScale
 70
     0
300
4:1
140
4.0
141
1.0
290
     0
  0
SCALE
  5
5B9
102
{ACAD_REACTORS
330
5AA
102
}
330
5AA
100
AcDbScale
 70
     0
300
8:1
140
8.0
141
1.0
290
     0
  0
SCALE
  5
5BA
102
{ACAD_REACTORS
330
5AA
102
}
330
5AA
100
AcDbScale
 70
     0
300
10:1
140
10.0
141
1.0
290
     0
  0
SCALE
  5
5BB
102
{ACAD_REACTORS
330
5AA
102
}
330
5AA
100
AcDbScale
 70
     0
300
100:1
140
100.0
141
1.0
290
     0
  0
SCALE
  5
5BC
102
{ACAD_REACTORS
330
5AA
102
}
330
5AA
100
AcDbScale
 70
     0
300
1/128" = 1'-0"
140
0.0078125
141
12.0
290
     0
  0
SCALE
  5
5BD
102
{ACAD_REACTORS
330
5AA
102
}
330
5AA
100
AcDbScale
 70
     0
300
1/64" = 1'-0"
140
0.015625
141
12.0
290
     0
  0
SCALE
  5
5BE
102
{ACAD_REACTORS
330
5AA
102
}
330
5AA
100
AcDbScale
 70
     0
300
1/32" = 1'-0"
140
0.03125
141
12.0
290
     0
  0
SCALE
  5
5BF
102
{ACAD_REACTORS
330
5AA
102
}
330
5AA
100
AcDbScale
 70
     0
300
1/16" = 1'-0"
140
0.0625
141
12.0
290
     0
  0
SCALE
  5
5C0
102
{ACAD_REACTORS
330
5AA
102
}
330
5AA
100
AcDbScale
 70
     0
300
3/32" = 1'-0"
140
0.09375
141
12.0
290
     0
  0
SCALE
  5
5C1
102
{ACAD_REACTORS
330
5AA
102
}
330
5AA
100
AcDbScale
 70
     0
300
1/8" = 1'-0"
140
0.125
141
12.0
290
     0
  0
SCALE
  5
5C2
102
{ACAD_REACTORS
330
5AA
102
}
330
5AA
100
AcDbScale
 70
     0
300
3/16" = 1'-0"
140
0.1875
141
12.0
290
     0
  0
SCALE
  5
5C3
102
{ACAD_REACTORS
330
5AA
102
}
330
5AA
100
AcDbScale
 70
     0
300
1/4" = 1'-0"
140
0.25
141
12.0
290
     0
  0
SCALE
  5
5C4
102
{ACAD_REACTORS
330
5AA
102
}
330
5AA
100
AcDbScale
 70
     0
300
3/8" = 1'-0"
140
0.375
141
12.0
290
     0
  0
SCALE
  5
5C5
102
{ACAD_REACTORS
330
5AA
102
}
330
5AA
100
AcDbScale
 70
     0
300
1/2" = 1'-0"
140
0.5
141
12.0
290
     0
  0
SCALE
  5
5C6
102
{ACAD_REACTORS
330
5AA
102
}
330
5AA
100
AcDbScale
 70
     0
300
3/4" = 1'-0"
140
0.75
141
12.0
290
     0
  0
SCALE
  5
5C7
102
{ACAD_REACTORS
330
5AA
102
}
330
5AA
100
AcDbScale
 70
     0
300
1" = 1'-0"
140
1.0
141
12.0
290
     0
  0
SCALE
  5
5C8
102
{ACAD_REACTORS
330
5AA
102
}
330
5AA
100
AcDbScale
 70
     0
300
1-1/2" = 1'-0"
140
1.5
141
12.0
290
     0
  0
SCALE
  5
5C9
102
{ACAD_REACTORS
330
5AA
102
}
330
5AA
100
AcDbScale
 70
     0
300
3" = 1'-0"
140
3.0
141
12.0
290
     0
  0
SCALE
  5
5CA
102
{ACAD_REACTORS
330
5AA
102
}
330
5AA
100
AcDbScale
 70
     0
300
6" = 1'-0"
140
6.0
141
12.0
290
     0
  0
SCALE
  5
5CB
102
{ACAD_REACTORS
330
5AA
102
}
330
5AA
100
AcDbScale
 70
     0
300
1'-0" = 1'-0"
140
12.0
141
12.0
290
     0
  0
VISUALSTYLE
  5
2F
102
{ACAD_REACTORS
330
2A
102
}
102
{ACAD_XDICTIONARY
360
5DA
102
}
330
2A
100
AcDbVisualStyle
  2
2dWireframe
 70
     4
 71
     0
 72
     2
 73
     0
 90
        0
 40
-0.6
 41
-30.0
 62
     5
 63
     7
 74
     1
 91
        4
 64
     7
 65
   257
 75
     1
175
     1
 42
1.0
 92
        0
 66
   257
 43
1.0
 76
     1
 77
     6
 78
     2
 67
     7
 79
     5
170
     0
171
     0
290
     0
174
     0
 93
        1
 44
0.0
173
     0
291
     0
 45
0.0
1001
ACAD
1000
AcDbSavedByObjectVersion
1070
     0
  0
VISUALSTYLE
  5
31
102
{ACAD_REACTORS
330
2A
102
}
102
{ACAD_XDICTIONARY
360
5DE
102
}
330
2A
100
AcDbVisualStyle
  2
3D Hidden
 70
     6
 71
     1
 72
     2
 73
     2
 90
        0
 40
-0.6
 41
-30.0
 62
     5
 63
     7
 74
     2
 91
        2
 64
     7
 65
   257
 75
     2
175
     1
 42
40.0
 92
        0
 66
   257
 43
1.0
 76
     1
 77
     6
 78
     2
 67
     7
 79
     3
170
     0
171
     0
290
     0
174
     0
 93
        1
 44
0.0
173
     0
291
     0
 45
0.0
1001
ACAD
1000
AcDbSavedByObjectVersion
1070
     0
  0
VISUALSTYLE
  5
30
102
{ACAD_REACTORS
330
2A
102
}
102
{ACAD_XDICTIONARY
360
5DC
102
}
330
2A
100
AcDbVisualStyle
  2
3dWireframe
 70
     5
 71
     0
 72
     2
 73
     0
 90
        0
 40
-0.6
 41
-30.0
 62
     5
 63
     7
 74
     1
 91
        4
 64
     7
 65
   257
 75
     1
175
     1
 42
1.0
 92
        0
 66
   257
 43
1.0
 76
     1
 77
     6
 78
     2
 67
     7
 79
     5
170
     0
171
     0
290
     0
174
     0
 93
        1
 44
0.0
173
     0
291
     0
 45
0.0
1001
ACAD
1000
AcDbSavedByObjectVersion
1070
     0
  0
VISUALSTYLE
  5
32
102
{ACAD_REACTORS
330
2A
102
}
102
{ACAD_XDICTIONARY
360
5E0
102
}
330
2A
100
AcDbVisualStyle
  2
Basic
 70
     7
 71
     1
 72
     0
 73
     1
 90
        0
 40
-0.6
 41
-30.0
 62
     5
 63
     7
 74
     0
 91
        4
 64
     7
 65
   257
 75
     1
175
     1
 42
1.0
 92
        8
 66
     7
 43
1.0
 76
     1
 77
     6
 78
     2
 67
     7
 79
     5
170
     0
171
     0
290
     0
174
     0
 93
        1
 44
0.0
173
     0
291
     1
 45
0.0
1001
ACAD
1000
AcDbSavedByObjectVersion
1070
     0
  0
VISUALSTYLE
  5
36
102
{ACAD_REACTORS
330
2A
102
}
102
{ACAD_XDICTIONARY
360
5E8
102
}
330
2A
100
AcDbVisualStyle
  2
Brighten
 70
    12
 71
     2
 72
     2
 73
     0
 90
        0
 40
-0.6
 41
-30.0
 62
     5
 63
     7
 74
     1
 91
        4
 64
     7
 65
   257
 75
     1
175
     1
 42
1.0
 92
        8
 66
     7
 43
1.0
 76
     1
 77
     6
 78
     2
 67
     7
 79
     5
170
     0
171
     0
290
     0
174
     0
 93
        1
 44
50.0
173
     0
291
     1
 45
0.0
1001
ACAD
1000
AcDbSavedByObjectVersion
1070
     0
  0
VISUALSTYLE
  5
3A
102
{ACAD_REACTORS
330
2A
102
}
102
{ACAD_XDICTIONARY
360
5F0
102
}
330
2A
100
AcDbVisualStyle
  2
ColorChange
 70
    16
 71
     2
 72
     2
 73
     3
 90
        0
 40
-0.6
 41
-30.0
 62
     5
 63
     8
 74
     1
 91
        4
 64
     7
 65
   257
 75
     1
175
     1
 42
1.0
 92
        8
 66
     8
 43
1.0
 76
     1
 77
     6
 78
     2
 67
     7
 79
     5
170
     0
171
     0
290
     0
174
     0
 93
        1
 44
0.0
173
     0
291
     1
 45
0.0
1001
ACAD
1000
AcDbSavedByObjectVersion
1070
     0
  0
VISUALSTYLE
  5
34
102
{ACAD_REACTORS
330
2A
102
}
102
{ACAD_XDICTIONARY
360
5E4
102
}
330
2A
100
AcDbVisualStyle
  2
Conceptual
 70
     9
 71
     3
 72
     2
 73
     0
 90
        0
 40
-0.6
 41
-30.0
 62
     5
 63
     7
 74
     2
 91
        2
 64
     7
 65
   257
 75
     1
175
     1
 42
40.0
 92
        8
 66
     7
 43
1.0
 76
     1
 77
     6
 78
     2
 67
     7
 79
     3
170
     0
171
     0
290
     0
174
     0
 93
        1
 44
0.0
173
     0
291
     0
 45
0.0
1001
ACAD
1000
AcDbSavedByObjectVersion
1070
     0
  0
VISUALSTYLE
  5
35
102
{ACAD_REACTORS
330
2A
102
}
102
{ACAD_XDICTIONARY
360
5E6
102
}
330
2A
100
AcDbVisualStyle
  2
Dim
 70
    11
 71
     2
 72
     2
 73
     0
 90
        0
 40
-0.6
 41
-30.0
 62
     5
 63
     7
 74
     1
 91
        4
 64
     7
 65
   257
 75
     1
175
     1
 42
1.0
 92
        8
 66
     7
 43
1.0
 76
     1
 77
     6
 78
     2
 67
     7
 79
     5
170
     0
171
     0
290
     0
174
     0
 93
        1
 44
-50.0
173
     0
291
     1
 45
0.0
1001
ACAD
1000
AcDbSavedByObjectVersion
1070
     0
  0
VISUALSTYLE
  5
39
102
{ACAD_REACTORS
330
2A
102
}
102
{ACAD_XDICTIONARY
360
5EE
102
}
330
2A
100
AcDbVisualStyle
  2
Facepattern
 70
    15
 71
     2
 72
     2
 73
     0
 90
        0
 40
-0.6
 41
-30.0
 62
     5
 63
     7
 74
     1
 91
        4
 64
     7
 65
   257
 75
     1
175
     1
 42
1.0
 92
        8
 66
     7
 43
1.0
 76
     1
 77
     6
 78
     2
 67
     7
 79
     5
170
     0
171
     0
290
     0
174
     0
 93
        1
 44
0.0
173
     0
291
     1
 45
0.0
1001
ACAD
1000
AcDbSavedByObjectVersion
1070
     0
  0
VISUALSTYLE
  5
2B
102
{ACAD_REACTORS
330
2A
102
}
102
{ACAD_XDICTIONARY
360
5D2
102
}
330
2A
100
AcDbVisualStyle
  2
Flat
 70
     0
 71
     2
 72
     1
 73
     1
 90
        2
 40
-0.6
 41
30.0
 62
     5
 63
     7
 74
     0
 91
        4
 64
     7
 65
   257
 75
     1
175
     1
 42
1.0
 92
        8
 66
     7
 43
1.0
 76
     1
 77
     6
 78
     2
 67
     7
 79
     5
170
     0
171
     0
290
     0
174
     0
 93
       13
 44
0.0
173
     0
291
     1
 45
0.0
1001
ACAD
1000
AcDbSavedByObjectVersion
1070
     0
  0
VISUALSTYLE
  5
2C
102
{ACAD_REACTORS
330
2A
102
}
102
{ACAD_XDICTIONARY
360
5D4
102
}
330
2A
100
AcDbVisualStyle
  2
FlatWithEdges
 70
     1
 71
     2
 72
     1
 73
     1
 90
        2
 40
-0.6
 41
30.0
 62
     5
 63
     7
 74
     1
 91
        4
 64
     7
 65
   257
 75
     1
175
     1
 42
1.0
 92
        0
 66
   257
 43
1.0
 76
     1
 77
     6
 78
     2
 67
     7
 79
     5
170
     0
171
     0
290
     0
174
     0
 93
       13
 44
0.0
173
     0
291
     1
 45
0.0
1001
ACAD
1000
AcDbSavedByObjectVersion
1070
     0
  0
VISUALSTYLE
  5
2D
102
{ACAD_REACTORS
330
2A
102
}
102
{ACAD_XDICTIONARY
360
5D6
102
}
330
2A
100
AcDbVisualStyle
  2
Gouraud
 70
     2
 71
     2
 72
     2
 73
     1
 90
        2
 40
-0.6
 41
30.0
 62
     5
 63
     7
 74
     0
 91
        4
 64
     7
 65
   257
 75
     1
175
     1
 42
1.0
 92
        0
 66
     7
 43
1.0
 76
     1
 77
     6
 78
     2
 67
     7
 79
     5
170
     0
171
     0
290
     0
174
     0
 93
       13
 44
0.0
173
     0
291
     1
 45
0.0
1001
ACAD
1000
AcDbSavedByObjectVersion
1070
     0
  0
VISUALSTYLE
  5
2E
102
{ACAD_REACTORS
330
2A
102
}
102
{ACAD_XDICTIONARY
360
5D8
102
}
330
2A
100
AcDbVisualStyle
  2
GouraudWithEdges
 70
     3
 71
     2
 72
     2
 73
     1
 90
        2
 40
-0.6
 41
30.0
 62
     5
 63
     7
 74
     1
 91
        4
 64
     7
 65
   257
 75
     1
175
     1
 42
1.0
 92
        0
 66
   257
 43
1.0
 76
     1
 77
     6
 78
     2
 67
     7
 79
     5
170
     0
171
     0
290
     0
174
     0
 93
       13
 44
0.0
173
     0
291
     1
 45
0.0
1001
ACAD
1000
AcDbSavedByObjectVersion
1070
     0
  0
VISUALSTYLE
  5
38
102
{ACAD_REACTORS
330
2A
102
}
102
{ACAD_XDICTIONARY
360
5EC
102
}
330
2A
100
AcDbVisualStyle
  2
Linepattern
 70
    14
 71
     2
 72
     2
 73
     0
 90
        0
 40
-0.6
 41
-30.0
 62
     5
 63
     7
 74
     1
 91
        4
 64
     7
 65
   257
 75
     7
175
     7
 42
1.0
 92
        8
 66
     7
 43
1.0
 76
     1
 77
     6
 78
     2
 67
     7
 79
     5
170
     0
171
     0
290
     0
174
     0
 93
        1
 44
0.0
173
     0
291
     1
 45
0.0
1001
ACAD
1000
AcDbSavedByObjectVersion
1070
     0
  0
VISUALSTYLE
  5
33
102
{ACAD_REACTORS
330
2A
102
}
102
{ACAD_XDICTIONARY
360
5E2
102
}
330
2A
100
AcDbVisualStyle
  2
Realistic
 70
     8
 71
     2
 72
     2
 73
     0
 90
        0
 40
-0.6
 41
-30.0
 62
     5
 63
     7
 74
     1
 91
        0
 64
     7
 65
   257
 75
     1
175
     1
 42
1.0
 92
        8
 66
     8
 43
1.0
 76
     1
 77
     6
 78
     2
 67
     7
 79
     5
170
     0
171
     0
290
     0
174
     0
 93
       13
 44
0.0
173
     0
291
     0
 45
0.0
1001
ACAD
1000
AcDbSavedByObjectVersion
1070
     0
  0
VISUALSTYLE
  5
37
102
{ACAD_REACTORS
330
2A
102
}
102
{ACAD_XDICTIONARY
360
5EA
102
}
330
2A
100
AcDbVisualStyle
  2
Thicken
 70
    13
 71
     2
 72
     2
 73
     0
 90
        0
 40
-0.6
 41
-30.0
 62
     5
 63
     7
 74
     1
 91
        4
 64
     7
 65
   257
 75
     1
175
     1
 42
1.0
 92
       12
 66
     7
 43
1.0
 76
     1
 77
     6
 78
     2
 67
     7
 79
     5
170
     0
171
     0
290
     0
174
     0
 93
        1
 44
0.0
173
     0
291
     1
 45
0.0
1001
ACAD
1000
AcDbSavedByObjectVersion
1070
     0
  0
DICTIONARYVAR
  5
5CF
102
{ACAD_REACTORS
330
5CC
102
}
330
5CC
100
DictionaryVariables
280
     0
  1
1:1
  0
DICTIONARYVAR
  5
5D0
102
{ACAD_REACTORS
330
5CC
102
}
330
5CC
100
DictionaryVariables
280
     0
  1
2
  0
DICTIONARYVAR
  5
5D1
102
{ACAD_REACTORS
330
5CC
102
}
330
5CC
100
DictionaryVariables
280
     0
  1
1
  0
DICTIONARY
  5
5F4
330
3D
100
AcDbDictionary
280
     1
281
     1
  3
ACAD_XREC_ROUNDTRIP
360
5F5
  0
DICTIONARY
  5
5F2
330
3C
100
AcDbDictionary
280
     1
281
     1
  3
ACAD_XREC_ROUNDTRIP
360
5F3
  0
DICTIONARY
  5
5F6
330
3E
100
AcDbDictionary
280
     1
281
     1
  3
ACAD_XREC_ROUNDTRIP
360
5F7
  0
DICTIONARY
  5
5DA
330
2F
100
AcDbDictionary
280
     1
281
     1
  3
ACAD_XREC_ROUNDTRIP
360
5DB
  0
DICTIONARY
  5
5DE
330
31
100
AcDbDictionary
280
     1
281
     1
  3
ACAD_XREC_ROUNDTRIP
360
5DF
  0
DICTIONARY
  5
5DC
330
30
100
AcDbDictionary
280
     1
281
     1
  3
ACAD_XREC_ROUNDTRIP
360
5DD
  0
DICTIONARY
  5
5E0
330
32
100
AcDbDictionary
280
     1
281
     1
  3
ACAD_XREC_ROUNDTRIP
360
5E1
  0
DICTIONARY
  5
5E8
330
36
100
AcDbDictionary
280
     1
281
     1
  3
ACAD_XREC_ROUNDTRIP
360
5E9
  0
DICTIONARY
  5
5F0
330
3A
100
AcDbDictionary
280
     1
281
     1
  3
ACAD_XREC_ROUNDTRIP
360
5F1
  0
DICTIONARY
  5
5E4
330
34
100
AcDbDictionary
280
     1
281
     1
  3
ACAD_XREC_ROUNDTRIP
360
5E5
  0
DICTIONARY
  5
5E6
330
35
100
AcDbDictionary
280
     1
281
     1
  3
ACAD_XREC_ROUNDTRIP
360
5E7
  0
DICTIONARY
  5
5EE
330
39
100
AcDbDictionary
280
     1
281
     1
  3
ACAD_XREC_ROUNDTRIP
360
5EF
  0
DICTIONARY
  5
5D2
330
2B
100
AcDbDictionary
280
     1
281
     1
  3
ACAD_XREC_ROUNDTRIP
360
5D3
  0
DICTIONARY
  5
5D4
330
2C
100
AcDbDictionary
280
     1
281
     1
  3
ACAD_XREC_ROUNDTRIP
360
5D5
  0
DICTIONARY
  5
5D6
330
2D
100
AcDbDictionary
280
     1
281
     1
  3
ACAD_XREC_ROUNDTRIP
360
5D7
  0
DICTIONARY
  5
5D8
330
2E
100
AcDbDictionary
280
     1
281
     1
  3
ACAD_XREC_ROUNDTRIP
360
5D9
  0
DICTIONARY
  5
5EC
330
38
100
AcDbDictionary
280
     1
281
     1
  3
ACAD_XREC_ROUNDTRIP
360
5ED
  0
DICTIONARY
  5
5E2
330
33
100
AcDbDictionary
280
     1
281
     1
  3
ACAD_XREC_ROUNDTRIP
360
5E3
  0
DICTIONARY
  5
5EA
330
37
100
AcDbDictionary
280
     1
281
     1
  3
ACAD_XREC_ROUNDTRIP
360
5EB
  0
XRECORD
  5
5F5
102
{ACAD_REACTORS
330
5F4
102
}
330
5F4
100
AcDbXrecord
280
     1
102
MATERIAL
148
0.0
149
0.0
149
0.0
 93
        0
 94
      127
282
     0
 72
     1
 77
     1
171
     1
175
     1
179
     1
273
     0
  0
XRECORD
  5
5F3
102
{ACAD_REACTORS
330
5F2
102
}
330
5F2
100
AcDbXrecord
280
     1
102
MATERIAL
148
0.0
149
0.0
149
0.0
 93
        0
 94
      127
282
     0
 72
     1
 77
     1
171
     1
175
     1
179
     1
273
     0
  0
XRECORD
  5
5F7
102
{ACAD_REACTORS
330
5F6
102
}
330
5F6
100
AcDbXrecord
280
     1
102
MATERIAL
148
0.0
149
0.0
149
0.0
 93
        0
 94
      127
282
     0
 72
     1
 77
     1
171
     1
175
     1
179
     1
273
     0
  0
XRECORD
  5
5DB
102
{ACAD_REACTORS
330
5DA
102
}
330
5DA
100
AcDbXrecord
280
     1
102
RTVSPropertyOp0
 70
     1
102
RTVSPropertyOp1
 70
     1
102
RTVSPropertyOp2
 70
     1
102
RTVSPropertyOp3
 70
     1
102
RTVSPropertyOp4
 70
     1
102
RTVSPropertyOp5
 70
     1
102
RTVSPropertyOp6
 70
     1
102
RTVSPropertyOp7
 70
     1
102
RTVSPropertyOp8
 70
     1
102
RTVSPropertyOp9
 70
     1
102
RTVSPropertyOp10
 70
     1
102
RTVSPropertyOp11
 70
     1
102
RTVSPropertyOp12
 70
     1
102
RTVSPropertyOp13
 70
     1
102
RTVSPropertyOp14
 70
     1
102
RTVSPropertyOp15
 70
     1
102
RTVSPropertyOp16
 70
     1
102
RTVSPropertyOp17
 70
     1
102
RTVSPropertyOp18
 70
     1
102
RTVSPropertyOp19
 70
     1
102
RTVSPropertyOp20
 70
     1
102
RTVSPropertyOp21
 70
     1
102
RTVSPropertyOp22
 70
     1
102
RTVSPropertyOp23
 70
     1
102
RTVSPropertyOp24
 70
     1
102
RTVSPropertyOp25
 70
     1
102
RTVSPropertyOp26
 70
     1
102
RTVSPropertyOp27
 70
     1
  0
XRECORD
  5
5DF
102
{ACAD_REACTORS
330
5DE
102
}
330
5DE
100
AcDbXrecord
280
     1
102
RTVSPropertyOp0
 70
     1
102
RTVSPropertyOp1
 70
     1
102
RTVSPropertyOp2
 70
     1
102
RTVSPropertyOp3
 70
     1
102
RTVSPropertyOp4
 70
     1
102
RTVSPropertyOp5
 70
     1
102
RTVSPropertyOp6
 70
     1
102
RTVSPropertyOp7
 70
     1
102
RTVSPropertyOp8
 70
     1
102
RTVSPropertyOp9
 70
     1
102
RTVSPropertyOp10
 70
     1
102
RTVSPropertyOp11
 70
     1
102
RTVSPropertyOp12
 70
     1
102
RTVSPropertyOp13
 70
     1
102
RTVSPropertyOp14
 70
     1
102
RTVSPropertyOp15
 70
     1
102
RTVSPropertyOp16
 70
     1
102
RTVSPropertyOp17
 70
     1
102
RTVSPropertyOp18
 70
     1
102
RTVSPropertyOp19
 70
     1
102
RTVSPropertyOp20
 70
     1
102
RTVSPropertyOp21
 70
     1
102
RTVSPropertyOp22
 70
     1
102
RTVSPropertyOp23
 70
     1
102
RTVSPropertyOp24
 70
     1
102
RTVSPropertyOp25
 70
     1
102
RTVSPropertyOp26
 70
     1
102
RTVSPropertyOp27
 70
     1
  0
XRECORD
  5
5DD
102
{ACAD_REACTORS
330
5DC
102
}
330
5DC
100
AcDbXrecord
280
     1
102
RTVSPropertyOp0
 70
     1
102
RTVSPropertyOp1
 70
     1
102
RTVSPropertyOp2
 70
     1
102
RTVSPropertyOp3
 70
     1
102
RTVSPropertyOp4
 70
     1
102
RTVSPropertyOp5
 70
     1
102
RTVSPropertyOp6
 70
     1
102
RTVSPropertyOp7
 70
     1
102
RTVSPropertyOp8
 70
     1
102
RTVSPropertyOp9
 70
     1
102
RTVSPropertyOp10
 70
     1
102
RTVSPropertyOp11
 70
     1
102
RTVSPropertyOp12
 70
     1
102
RTVSPropertyOp13
 70
     1
102
RTVSPropertyOp14
 70
     1
102
RTVSPropertyOp15
 70
     1
102
RTVSPropertyOp16
 70
     1
102
RTVSPropertyOp17
 70
     1
102
RTVSPropertyOp18
 70
     1
102
RTVSPropertyOp19
 70
     1
102
RTVSPropertyOp20
 70
     1
102
RTVSPropertyOp21
 70
     1
102
RTVSPropertyOp22
 70
     1
102
RTVSPropertyOp23
 70
     1
102
RTVSPropertyOp24
 70
     1
102
RTVSPropertyOp25
 70
     1
102
RTVSPropertyOp26
 70
     1
102
RTVSPropertyOp27
 70
     1
  0
XRECORD
  5
5E1
102
{ACAD_REACTORS
330
5E0
102
}
330
5E0
100
AcDbXrecord
280
     1
102
RTVSPropertyOp0
 70
     1
102
RTVSPropertyOp1
 70
     1
102
RTVSPropertyOp2
 70
     1
102
RTVSPropertyOp3
 70
     1
102
RTVSPropertyOp4
 70
     1
102
RTVSPropertyOp5
 70
     1
102
RTVSPropertyOp6
 70
     1
102
RTVSPropertyOp7
 70
     1
102
RTVSPropertyOp8
 70
     1
102
RTVSPropertyOp9
 70
     1
102
RTVSPropertyOp10
 70
     1
102
RTVSPropertyOp11
 70
     1
102
RTVSPropertyOp12
 70
     1
102
RTVSPropertyOp13
 70
     1
102
RTVSPropertyOp14
 70
     1
102
RTVSPropertyOp15
 70
     1
102
RTVSPropertyOp16
 70
     1
102
RTVSPropertyOp17
 70
     1
102
RTVSPropertyOp18
 70
     1
102
RTVSPropertyOp19
 70
     1
102
RTVSPropertyOp20
 70
     1
102
RTVSPropertyOp21
 70
     1
102
RTVSPropertyOp22
 70
     1
102
RTVSPropertyOp23
 70
     1
102
RTVSPropertyOp24
 70
     1
102
RTVSPropertyOp25
 70
     1
102
RTVSPropertyOp26
 70
     1
102
RTVSPropertyOp27
 70
     1
  0
XRECORD
  5
5E9
102
{ACAD_REACTORS
330
5E8
102
}
330
5E8
100
AcDbXrecord
280
     1
102
RTVSPropertyOp0
 70
     1
102
RTVSPropertyOp1
 70
     1
102
RTVSPropertyOp2
 70
     1
102
RTVSPropertyOp3
 70
     1
102
RTVSPropertyOp4
 70
     1
102
RTVSPropertyOp5
 70
     1
102
RTVSPropertyOp6
 70
     1
102
RTVSPropertyOp7
 70
     1
102
RTVSPropertyOp8
 70
     1
102
RTVSPropertyOp9
 70
     1
102
RTVSPropertyOp10
 70
     1
102
RTVSPropertyOp11
 70
     1
102
RTVSPropertyOp12
 70
     1
102
RTVSPropertyOp13
 70
     1
102
RTVSPropertyOp14
 70
     1
102
RTVSPropertyOp15
 70
     1
102
RTVSPropertyOp16
 70
     1
102
RTVSPropertyOp17
 70
     1
102
RTVSPropertyOp18
 70
     1
102
RTVSPropertyOp19
 70
     1
102
RTVSPropertyOp20
 70
     1
102
RTVSPropertyOp21
 70
     1
102
RTVSPropertyOp22
 70
     1
102
RTVSPropertyOp23
 70
     1
102
RTVSPropertyOp24
 70
     1
102
RTVSPropertyOp25
 70
     1
102
RTVSPropertyOp26
 70
     1
102
RTVSPropertyOp27
 70
     1
  0
XRECORD
  5
5F1
102
{ACAD_REACTORS
330
5F0
102
}
330
5F0
100
AcDbXrecord
280
     1
102
RTVSPropertyOp0
 70
     1
102
RTVSPropertyOp1
 70
     1
102
RTVSPropertyOp2
 70
     1
102
RTVSPropertyOp3
 70
     1
102
RTVSPropertyOp4
 70
     1
102
RTVSPropertyOp5
 70
     1
102
RTVSPropertyOp6
 70
     1
102
RTVSPropertyOp7
 70
     1
102
RTVSPropertyOp8
 70
     1
102
RTVSPropertyOp9
 70
     1
102
RTVSPropertyOp10
 70
     1
102
RTVSPropertyOp11
 70
     1
102
RTVSPropertyOp12
 70
     1
102
RTVSPropertyOp13
 70
     1
102
RTVSPropertyOp14
 70
     1
102
RTVSPropertyOp15
 70
     1
102
RTVSPropertyOp16
 70
     1
102
RTVSPropertyOp17
 70
     1
102
RTVSPropertyOp18
 70
     1
102
RTVSPropertyOp19
 70
     1
102
RTVSPropertyOp20
 70
     1
102
RTVSPropertyOp21
 70
     1
102
RTVSPropertyOp22
 70
     1
102
RTVSPropertyOp23
 70
     1
102
RTVSPropertyOp24
 70
     1
102
RTVSPropertyOp25
 70
     1
102
RTVSPropertyOp26
 70
     1
102
RTVSPropertyOp27
 70
     1
  0
XRECORD
  5
5E5
102
{ACAD_REACTORS
330
5E4
102
}
330
5E4
100
AcDbXrecord
280
     1
102
RTVSPropertyOp0
 70
     1
102
RTVSPropertyOp1
 70
     1
102
RTVSPropertyOp2
 70
     1
102
RTVSPropertyOp3
 70
     1
102
RTVSPropertyOp4
 70
     1
102
RTVSPropertyOp5
 70
     1
102
RTVSPropertyOp6
 70
     1
102
RTVSPropertyOp7
 70
     1
102
RTVSPropertyOp8
 70
     1
102
RTVSPropertyOp9
 70
     1
102
RTVSPropertyOp10
 70
     1
102
RTVSPropertyOp11
 70
     1
102
RTVSPropertyOp12
 70
     1
102
RTVSPropertyOp13
 70
     1
102
RTVSPropertyOp14
 70
     1
102
RTVSPropertyOp15
 70
     1
102
RTVSPropertyOp16
 70
     1
102
RTVSPropertyOp17
 70
     1
102
RTVSPropertyOp18
 70
     1
102
RTVSPropertyOp19
 70
     1
102
RTVSPropertyOp20
 70
     1
102
RTVSPropertyOp21
 70
     1
102
RTVSPropertyOp22
 70
     1
102
RTVSPropertyOp23
 70
     1
102
RTVSPropertyOp24
 70
     1
102
RTVSPropertyOp25
 70
     1
102
RTVSPropertyOp26
 70
     1
102
RTVSPropertyOp27
 70
     1
  0
XRECORD
  5
5E7
102
{ACAD_REACTORS
330
5E6
102
}
330
5E6
100
AcDbXrecord
280
     1
102
RTVSPropertyOp0
 70
     1
102
RTVSPropertyOp1
 70
     1
102
RTVSPropertyOp2
 70
     1
102
RTVSPropertyOp3
 70
     1
102
RTVSPropertyOp4
 70
     1
102
RTVSPropertyOp5
 70
     1
102
RTVSPropertyOp6
 70
     1
102
RTVSPropertyOp7
 70
     1
102
RTVSPropertyOp8
 70
     1
102
RTVSPropertyOp9
 70
     1
102
RTVSPropertyOp10
 70
     1
102
RTVSPropertyOp11
 70
     1
102
RTVSPropertyOp12
 70
     1
102
RTVSPropertyOp13
 70
     1
102
RTVSPropertyOp14
 70
     1
102
RTVSPropertyOp15
 70
     1
102
RTVSPropertyOp16
 70
     1
102
RTVSPropertyOp17
 70
     1
102
RTVSPropertyOp18
 70
     1
102
RTVSPropertyOp19
 70
     1
102
RTVSPropertyOp20
 70
     1
102
RTVSPropertyOp21
 70
     1
102
RTVSPropertyOp22
 70
     1
102
RTVSPropertyOp23
 70
     1
102
RTVSPropertyOp24
 70
     1
102
RTVSPropertyOp25
 70
     1
102
RTVSPropertyOp26
 70
     1
102
RTVSPropertyOp27
 70
     1
  0
XRECORD
  5
5EF
102
{ACAD_REACTORS
330
5EE
102
}
330
5EE
100
AcDbXrecord
280
     1
102
RTVSPropertyOp0
 70
     1
102
RTVSPropertyOp1
 70
     1
102
RTVSPropertyOp2
 70
     1
102
RTVSPropertyOp3
 70
     1
102
RTVSPropertyOp4
 70
     1
102
RTVSPropertyOp5
 70
     1
102
RTVSPropertyOp6
 70
     1
102
RTVSPropertyOp7
 70
     1
102
RTVSPropertyOp8
 70
     1
102
RTVSPropertyOp9
 70
     1
102
RTVSPropertyOp10
 70
     1
102
RTVSPropertyOp11
 70
     1
102
RTVSPropertyOp12
 70
     1
102
RTVSPropertyOp13
 70
     1
102
RTVSPropertyOp14
 70
     1
102
RTVSPropertyOp15
 70
     1
102
RTVSPropertyOp16
 70
     1
102
RTVSPropertyOp17
 70
     1
102
RTVSPropertyOp18
 70
     1
102
RTVSPropertyOp19
 70
     1
102
RTVSPropertyOp20
 70
     1
102
RTVSPropertyOp21
 70
     1
102
RTVSPropertyOp22
 70
     1
102
RTVSPropertyOp23
 70
     1
102
RTVSPropertyOp24
 70
     1
102
RTVSPropertyOp25
 70
     1
102
RTVSPropertyOp26
 70
     1
102
RTVSPropertyOp27
 70
     1
  0
XRECORD
  5
5D3
102
{ACAD_REACTORS
330
5D2
102
}
330
5D2
100
AcDbXrecord
280
     1
102
RTVSPropertyOp0
 70
     1
102
RTVSPropertyOp1
 70
     1
102
RTVSPropertyOp2
 70
     1
102
RTVSPropertyOp3
 70
     1
102
RTVSPropertyOp4
 70
     1
102
RTVSPropertyOp5
 70
     1
102
RTVSPropertyOp6
 70
     1
102
RTVSPropertyOp7
 70
     1
102
RTVSPropertyOp8
 70
     1
102
RTVSPropertyOp9
 70
     1
102
RTVSPropertyOp10
 70
     1
102
RTVSPropertyOp11
 70
     1
102
RTVSPropertyOp12
 70
     1
102
RTVSPropertyOp13
 70
     1
102
RTVSPropertyOp14
 70
     1
102
RTVSPropertyOp15
 70
     1
102
RTVSPropertyOp16
 70
     1
102
RTVSPropertyOp17
 70
     1
102
RTVSPropertyOp18
 70
     1
102
RTVSPropertyOp19
 70
     1
102
RTVSPropertyOp20
 70
     1
102
RTVSPropertyOp21
 70
     1
102
RTVSPropertyOp22
 70
     1
102
RTVSPropertyOp23
 70
     1
102
RTVSPropertyOp24
 70
     1
102
RTVSPropertyOp25
 70
     1
102
RTVSPropertyOp26
 70
     1
102
RTVSPropertyOp27
 70
     1
  0
XRECORD
  5
5D5
102
{ACAD_REACTORS
330
5D4
102
}
330
5D4
100
AcDbXrecord
280
     1
102
RTVSPropertyOp0
 70
     1
102
RTVSPropertyOp1
 70
     1
102
RTVSPropertyOp2
 70
     1
102
RTVSPropertyOp3
 70
     1
102
RTVSPropertyOp4
 70
     1
102
RTVSPropertyOp5
 70
     1
102
RTVSPropertyOp6
 70
     1
102
RTVSPropertyOp7
 70
     1
102
RTVSPropertyOp8
 70
     1
102
RTVSPropertyOp9
 70
     1
102
RTVSPropertyOp10
 70
     1
102
RTVSPropertyOp11
 70
     1
102
RTVSPropertyOp12
 70
     1
102
RTVSPropertyOp13
 70
     1
102
RTVSPropertyOp14
 70
     1
102
RTVSPropertyOp15
 70
     1
102
RTVSPropertyOp16
 70
     1
102
RTVSPropertyOp17
 70
     1
102
RTVSPropertyOp18
 70
     1
102
RTVSPropertyOp19
 70
     1
102
RTVSPropertyOp20
 70
     1
102
RTVSPropertyOp21
 70
     1
102
RTVSPropertyOp22
 70
     1
102
RTVSPropertyOp23
 70
     1
102
RTVSPropertyOp24
 70
     1
102
RTVSPropertyOp25
 70
     1
102
RTVSPropertyOp26
 70
     1
102
RTVSPropertyOp27
 70
     1
  0
XRECORD
  5
5D7
102
{ACAD_REACTORS
330
5D6
102
}
330
5D6
100
AcDbXrecord
280
     1
102
RTVSPropertyOp0
 70
     1
102
RTVSPropertyOp1
 70
     1
102
RTVSPropertyOp2
 70
     1
102
RTVSPropertyOp3
 70
     1
102
RTVSPropertyOp4
 70
     1
102
RTVSPropertyOp5
 70
     1
102
RTVSPropertyOp6
 70
     1
102
RTVSPropertyOp7
 70
     1
102
RTVSPropertyOp8
 70
     1
102
RTVSPropertyOp9
 70
     1
102
RTVSPropertyOp10
 70
     1
102
RTVSPropertyOp11
 70
     1
102
RTVSPropertyOp12
 70
     1
102
RTVSPropertyOp13
 70
     1
102
RTVSPropertyOp14
 70
     1
102
RTVSPropertyOp15
 70
     1
102
RTVSPropertyOp16
 70
     1
102
RTVSPropertyOp17
 70
     1
102
RTVSPropertyOp18
 70
     1
102
RTVSPropertyOp19
 70
     1
102
RTVSPropertyOp20
 70
     1
102
RTVSPropertyOp21
 70
     1
102
RTVSPropertyOp22
 70
     1
102
RTVSPropertyOp23
 70
     1
102
RTVSPropertyOp24
 70
     1
102
RTVSPropertyOp25
 70
     1
102
RTVSPropertyOp26
 70
     1
102
RTVSPropertyOp27
 70
     1
  0
XRECORD
  5
5D9
102
{ACAD_REACTORS
330
5D8
102
}
330
5D8
100
AcDbXrecord
280
     1
102
RTVSPropertyOp0
 70
     1
102
RTVSPropertyOp1
 70
     1
102
RTVSPropertyOp2
 70
     1
102
RTVSPropertyOp3
 70
     1
102
RTVSPropertyOp4
 70
     1
102
RTVSPropertyOp5
 70
     1
102
RTVSPropertyOp6
 70
     1
102
RTVSPropertyOp7
 70
     1
102
RTVSPropertyOp8
 70
     1
102
RTVSPropertyOp9
 70
     1
102
RTVSPropertyOp10
 70
     1
102
RTVSPropertyOp11
 70
     1
102
RTVSPropertyOp12
 70
     1
102
RTVSPropertyOp13
 70
     1
102
RTVSPropertyOp14
 70
     1
102
RTVSPropertyOp15
 70
     1
102
RTVSPropertyOp16
 70
     1
102
RTVSPropertyOp17
 70
     1
102
RTVSPropertyOp18
 70
     1
102
RTVSPropertyOp19
 70
     1
102
RTVSPropertyOp20
 70
     1
102
RTVSPropertyOp21
 70
     1
102
RTVSPropertyOp22
 70
     1
102
RTVSPropertyOp23
 70
     1
102
RTVSPropertyOp24
 70
     1
102
RTVSPropertyOp25
 70
     1
102
RTVSPropertyOp26
 70
     1
102
RTVSPropertyOp27
 70
     1
  0
XRECORD
  5
5ED
102
{ACAD_REACTORS
330
5EC
102
}
330
5EC
100
AcDbXrecord
280
     1
102
RTVSPropertyOp0
 70
     1
102
RTVSPropertyOp1
 70
     1
102
RTVSPropertyOp2
 70
     1
102
RTVSPropertyOp3
 70
     1
102
RTVSPropertyOp4
 70
     1
102
RTVSPropertyOp5
 70
     1
102
RTVSPropertyOp6
 70
     1
102
RTVSPropertyOp7
 70
     1
102
RTVSPropertyOp8
 70
     1
102
RTVSPropertyOp9
 70
     1
102
RTVSPropertyOp10
 70
     1
102
RTVSPropertyOp11
 70
     1
102
RTVSPropertyOp12
 70
     1
102
RTVSPropertyOp13
 70
     1
102
RTVSPropertyOp14
 70
     1
102
RTVSPropertyOp15
 70
     1
102
RTVSPropertyOp16
 70
     1
102
RTVSPropertyOp17
 70
     1
102
RTVSPropertyOp18
 70
     1
102
RTVSPropertyOp19
 70
     1
102
RTVSPropertyOp20
 70
     1
102
RTVSPropertyOp21
 70
     1
102
RTVSPropertyOp22
 70
     1
102
RTVSPropertyOp23
 70
     1
102
RTVSPropertyOp24
 70
     1
102
RTVSPropertyOp25
 70
     1
102
RTVSPropertyOp26
 70
     1
102
RTVSPropertyOp27
 70
     1
  0
XRECORD
  5
5E3
102
{ACAD_REACTORS
330
5E2
102
}
330
5E2
100
AcDbXrecord
280
     1
102
RTVSPropertyOp0
 70
     1
102
RTVSPropertyOp1
 70
     1
102
RTVSPropertyOp2
 70
     1
102
RTVSPropertyOp3
 70
     1
102
RTVSPropertyOp4
 70
     1
102
RTVSPropertyOp5
 70
     1
102
RTVSPropertyOp6
 70
     1
102
RTVSPropertyOp7
 70
     1
102
RTVSPropertyOp8
 70
     1
102
RTVSPropertyOp9
 70
     1
102
RTVSPropertyOp10
 70
     1
102
RTVSPropertyOp11
 70
     1
102
RTVSPropertyOp12
 70
     1
102
RTVSPropertyOp13
 70
     1
102
RTVSPropertyOp14
 70
     1
102
RTVSPropertyOp15
 70
     1
102
RTVSPropertyOp16
 70
     1
102
RTVSPropertyOp17
 70
     1
102
RTVSPropertyOp18
 70
     1
102
RTVSPropertyOp19
 70
     1
102
RTVSPropertyOp20
 70
     1
102
RTVSPropertyOp21
 70
     1
102
RTVSPropertyOp22
 70
     1
102
RTVSPropertyOp23
 70
     1
102
RTVSPropertyOp24
 70
     1
102
RTVSPropertyOp25
 70
     1
102
RTVSPropertyOp26
 70
     1
102
RTVSPropertyOp27
 70
     1
  0
XRECORD
  5
5EB
102
{ACAD_REACTORS
330
5EA
102
}
330
5EA
100
AcDbXrecord
280
     1
102
RTVSPropertyOp0
 70
     1
102
RTVSPropertyOp1
 70
     1
102
RTVSPropertyOp2
 70
     1
102
RTVSPropertyOp3
 70
     1
102
RTVSPropertyOp4
 70
     1
102
RTVSPropertyOp5
 70
     1
102
RTVSPropertyOp6
 70
     1
102
RTVSPropertyOp7
 70
     1
102
RTVSPropertyOp8
 70
     1
102
RTVSPropertyOp9
 70
     1
102
RTVSPropertyOp10
 70
     1
102
RTVSPropertyOp11
 70
     1
102
RTVSPropertyOp12
 70
     1
102
RTVSPropertyOp13
 70
     1
102
RTVSPropertyOp14
 70
     1
102
RTVSPropertyOp15
 70
     1
102
RTVSPropertyOp16
 70
     1
102
RTVSPropertyOp17
 70
     1
102
RTVSPropertyOp18
 70
     1
102
RTVSPropertyOp19
 70
     1
102
RTVSPropertyOp20
 70
     1
102
RTVSPropertyOp21
 70
     1
102
RTVSPropertyOp22
 70
     1
102
RTVSPropertyOp23
 70
     1
102
RTVSPropertyOp24
 70
     1
102
RTVSPropertyOp25
 70
     1
102
RTVSPropertyOp26
 70
     1
102
RTVSPropertyOp27
 70
     1
  0
ENDSEC
  0
EOF
