  0
SECTION
  2
HEADER
  9
$ACADVER
  1
AC1015
  9
$ACADMAINTVER
 70
     6
  9
$DWGCODEPAGE
  3
ANSI_932
  9
$INSBASE
 10
0.0
 20
0.0
 30
0.0
  9
$EXTMIN
 10
-536.4000052809715
 20
-362.9000034928322
 30
0.0
  9
$EXTMAX
 10
526.800010561943
 20
340.3000069856644
 30
0.0
  9
$LIMMIN
 10
-182.0
 20
-128.5
  9
$LIMMAX
 10
182.0
 20
128.5
  9
$ORTHOMODE
 70
     0
  9
$REGENMODE
 70
     1
  9
$FILLMODE
 70
     1
  9
$QTEXTMODE
 70
     0
  9
$MIRRTEXT
 70
     1
  9
$LTSCALE
 40
0.25
  9
$ATTMODE
 70
     1
  9
$TEXTSIZE
 40
0.2
  9
$TRACEWID
 40
0.05
  9
$TEXTSTYLE
  7
Standard
  9
$CLAYER
  8
0
  9
$CELTYPE
  6
ByLayer
  9
$CECOLOR
 62
   256
  9
$CELTSCALE
 40
1.0
  9
$DISPSILH
 70
     0
  9
$DIMSCALE
 40
1.0
  9
$DIMASZ
 40
3.000001882570243
  9
$DIMEXO
 40
1.0
  9
$DIMDLI
 40
10.0
  9
$DIMRND
 40
0.0
  9
$DIMDLE
 40
0.0
  9
$DIMEXE
 40
1.0
  9
$DIMTP
 40
0.0
  9
$DIMTM
 40
0.0
  9
$DIMTXT
 40
3.0
  9
$DIMCEN
 40
0.0
  9
$DIMTSZ
 40
0.0
  9
$DIMTOL
 70
     0
  9
$DIMLIM
 70
     0
  9
$DIMTIH
 70
     0
  9
$DIMTOH
 70
     0
  9
$DIMSE1
 70
     0
  9
$DIMSE2
 70
     0
  9
$DIMTAD
 70
     1
  9
$DIMZIN
 70
     8
  9
$DIMBLK
  1

  9
$DIMASO
 70
     1
  9
$DIMSHO
 70
     1
  9
$DIMPOST
  1

  9
$DIMAPOST
  1

  9
$DIMALT
 70
     0
  9
$DIMALTD
 70
     2
  9
$DIMALTF
 40
25.4
  9
$DIMLFAC
 40
1.0
  9
$DIMTOFL
 70
     0
  9
$DIMTVP
 40
0.0
  9
$DIMTIX
 70
     0
  9
$DIMSOXD
 70
     0
  9
$DIMSAH
 70
     0
  9
$DIMBLK1
  1

  9
$DIMBLK2
  1

  9
$DIMSTYLE
  2
Standard
  9
$DIMCLRD
 70
     0
  9
$DIMCLRE
 70
     0
  9
$DIMCLRT
 70
     0
  9
$DIMTFAC
 40
0.65
  9
$DIMGAP
 40
0.09
  9
$DIMJUST
 70
     0
  9
$DIMSD1
 70
     0
  9
$DIMSD2
 70
     0
  9
$DIMTOLJ
 70
     0
  9
$DIMTZIN
 70
     0
  9
$DIMALTZ
 70
     0
  9
$DIMALTTZ
 70
     0
  9
$DIMUPT
 70
     0
  9
$DIMDEC
 70
     2
  9
$DIMTDEC
 70
     2
  9
$DIMALTU
 70
     2
  9
$DIMALTTD
 70
     2
  9
$DIMTXSTY
  7
Standard
  9
$DIMAUNIT
 70
     0
  9
$DIMADEC
 70
     2
  9
$DIMALTRND
 40
0.0
  9
$DIMAZIN
 70
     2
  9
$DIMDSEP
 70
    46
  9
$DIMATFIT
 70
     3
  9
$DIMFRAC
 70
     0
  9
$DIMLDRBLK
  1

  9
$DIMLUNIT
 70
     2
  9
$DIMLWD
 70
    -2
  9
$DIMLWE
 70
    -2
  9
$DIMTMOVE
 70
     0
  9
$LUNITS
 70
     2
  9
$LUPREC
 70
     4
  9
$SKETCHINC
 40
0.1
  9
$FILLETRAD
 40
0.5
  9
$AUNITS
 70
     0
  9
$AUPREC
 70
     0
  9
$MENU
  1
.
  9
$ELEVATION
 40
0.0
  9
$PELEVATION
 40
0.0
  9
$THICKNESS
 40
0.0
  9
$LIMCHECK
 70
     0
  9
$CHAMFERA
 40
0.5
  9
$CHAMFERB
 40
0.5
  9
$CHAMFERC
 40
1.0
  9
$CHAMFERD
 40
0.0
  9
$SKPOLY
 70
     0
  9
$TDCREATE
 40
2459607.016437766
  9
$TDUCREATE
 40
2459606.641437766
  9
$TDUPDATE
 40
2459607.016437778
  9
$TDUUPDATE
 40
2459606.641437778
  9
$TDINDWG
 40
0.0000000116
  9
$TDUSRTIMER
 40
0.0000000116
  9
$USRTIMER
 70
     1
  9
$ANGBASE
 50
0.0
  9
$ANGDIR
 70
     0
  9
$PDMODE
 70
     0
  9
$PDSIZE
 40
1.0
  9
$PLINEWID
 40
0.0
  9
$SPLFRAME
 70
     0
  9
$SPLINETYPE
 70
     6
  9
$SPLINESEGS
 70
     8
  9
$HANDSEED
  5
5D0
  9
$SURFTAB1
 70
     6
  9
$SURFTAB2
 70
     6
  9
$SURFTYPE
 70
     6
  9
$SURFU
 70
     6
  9
$SURFV
 70
     6
  9
$UCSBASE
  2

  9
$UCSNAME
  2

  9
$UCSORG
 10
0.0
 20
0.0
 30
0.0
  9
$UCSXDIR
 10
1.0
 20
0.0
 30
0.0
  9
$UCSYDIR
 10
0.0
 20
1.0
 30
0.0
  9
$UCSORTHOREF
  2

  9
$UCSORTHOVIEW
 70
     0
  9
$UCSORGTOP
 10
0.0
 20
0.0
 30
0.0
  9
$UCSORGBOTTOM
 10
0.0
 20
0.0
 30
0.0
  9
$UCSORGLEFT
 10
0.0
 20
0.0
 30
0.0
  9
$UCSORGRIGHT
 10
0.0
 20
0.0
 30
0.0
  9
$UCSORGFRONT
 10
0.0
 20
0.0
 30
0.0
  9
$UCSORGBACK
 10
0.0
 20
0.0
 30
0.0
  9
$PUCSBASE
  2

  9
$PUCSNAME
  2

  9
$PUCSORG
 10
0.0
 20
0.0
 30
0.0
  9
$PUCSXDIR
 10
1.0
 20
0.0
 30
0.0
  9
$PUCSYDIR
 10
0.0
 20
1.0
 30
0.0
  9
$PUCSORTHOREF
  2

  9
$PUCSORTHOVIEW
 70
     0
  9
$PUCSORGTOP
 10
0.0
 20
0.0
 30
0.0
  9
$PUCSORGBOTTOM
 10
0.0
 20
0.0
 30
0.0
  9
$PUCSORGLEFT
 10
0.0
 20
0.0
 30
0.0
  9
$PUCSORGRIGHT
 10
0.0
 20
0.0
 30
0.0
  9
$PUCSORGFRONT
 10
0.0
 20
0.0
 30
0.0
  9
$PUCSORGBACK
 10
0.0
 20
0.0
 30
0.0
  9
$USERI1
 70
     0
  9
$USERI2
 70
     0
  9
$USERI3
 70
     0
  9
$USERI4
 70
     0
  9
$USERI5
 70
     0
  9
$USERR1
 40
0.0
  9
$USERR2
 40
0.0
  9
$USERR3
 40
0.0
  9
$USERR4
 40
0.0
  9
$USERR5
 40
0.0
  9
$WORLDVIEW
 70
     1
  9
$SHADEDGE
 70
     3
  9
$SHADEDIF
 70
    70
  9
$TILEMODE
 70
     1
  9
$MAXACTVP
 70
    64
  9
$PINSBASE
 10
0.0
 20
0.0
 30
0.0
  9
$PLIMCHECK
 70
     0
  9
$PEXTMIN
 10
1.000000000000000E+20
 20
1.000000000000000E+20
 30
1.000000000000000E+20
  9
$PEXTMAX
 10
-1.000000000000000E+20
 20
-1.000000000000000E+20
 30
-1.000000000000000E+20
  9
$PLIMMIN
 10
0.0
 20
0.0
  9
$PLIMMAX
 10
12.0
 20
9.0
  9
$UNITMODE
 70
     0
  9
$VISRETAIN
 70
     0
  9
$PLINEGEN
 70
     1
  9
$PSLTSCALE
 70
     0
  9
$TREEDEPTH
 70
  3020
  9
$CMLSTYLE
  2
Standard
  9
$CMLJUST
 70
     0
  9
$CMLSCALE
 40
1.0
  9
$PROXYGRAPHICS
 70
     0
  9
$MEASUREMENT
 70
     1
  9
$CELWEIGHT
370
    -1
  9
$ENDCAPS
280
     0
  9
$JOINSTYLE
280
     0
  9
$LWDISPLAY
290
     1
  9
$INSUNITS
 70
     4
  9
$HYPERLINKBASE
  1

  9
$STYLESHEET
  1

  9
$XEDIT
290
     1
  9
$CEPSNTYPE
380
     0
  9
$PSTYLEMODE
290
     1
  9
$FINGERPRINTGUID
  2
{ED9FD6C2-8DB6-4881-862B-767C12610B54}
  9
$VERSIONGUID
  2
{FAEB1C32-E019-11D5-929B-00C0DF256EC4}
  9
$EXTNAMES
290
     1
  9
$PSVPSCALE
 40
0.0
  9
$OLESTARTUP
290
     0
  0
ENDSEC
  0
SECTION
  2
CLASSES
  0
CLASS
  1
ACDBDICTIONARYWDFLT
  2
AcDbDictionaryWithDefault
  3
ObjectDBX Classes
 90
        0
280
     0
281
     0
  0
CLASS
  1
VISUALSTYLE
  2
AcDbVisualStyle
  3
ObjectDBX Classes
 90
     4095
280
     0
281
     0
  0
CLASS
  1
MATERIAL
  2
AcDbMaterial
  3
ObjectDBX Classes
 90
     1153
280
     0
281
     0
  0
CLASS
  1
SCALE
  2
AcDbScale
  3
ObjectDBX Classes
 90
     1153
280
     0
281
     0
  0
CLASS
  1
DICTIONARYVAR
  2
AcDbDictionaryVar
  3
ObjectDBX Classes
 90
        0
280
     0
281
     0
  0
CLASS
  1
ACDBPLACEHOLDER
  2
AcDbPlaceHolder
  3
ObjectDBX Classes
 90
        0
280
     0
281
     0
  0
CLASS
  1
LAYOUT
  2
AcDbLayout
  3
ObjectDBX Classes
 90
        0
280
     0
281
     0
  0
ENDSEC
  0
SECTION
  2
TABLES
  0
TABLE
  2
VPORT
  5
8
330
0
100
AcDbSymbolTable
 70
     1
  0
VPORT
  5
29
330
8
100
AcDbSymbolTableRecord
100
AcDbViewportTableRecord
  2
*Active
 70
     0
 10
0.0
 20
0.0
 11
1.0
 21
1.0
 12
-4.79999735951424
 22
-11.29999825358391
 13
0.0
 23
0.0
 14
0.5
 24
0.5
 15
0.5
 25
0.5
 16
0.0
 26
0.0
 36
1.0
 17
0.0
 27
0.0
 37
0.0
 40
239.0880035626888
 41
1.511945392491467
 42
50.0
 43
0.0
 44
0.0
 50
0.0
 51
0.0
 71
     0
 72
  1000
 73
     1
 74
     1
 75
     0
 76
     0
 77
     0
 78
     0
281
     0
 65
     1
110
0.0
120
0.0
130
0.0
111
1.0
121
0.0
131
0.0
112
0.0
122
1.0
132
0.0
 79
     0
146
0.0
  0
ENDTAB
  0
TABLE
  2
LTYPE
  5
5
330
0
100
AcDbSymbolTable
 70
    53
  0
LTYPE
  5
14
330
5
100
AcDbSymbolTableRecord
100
AcDbLinetypeTableRecord
  2
ByBlock
 70
     0
  3

 72
    65
 73
     0
 40
0.0
  0
LTYPE
  5
15
330
5
100
AcDbSymbolTableRecord
100
AcDbLinetypeTableRecord
  2
ByLayer
 70
     0
  3

 72
    65
 73
     0
 40
0.0
  0
LTYPE
  5
16
330
5
100
AcDbSymbolTableRecord
100
AcDbLinetypeTableRecord
  2
Continuous
 70
     0
  3
Solid line
 72
    65
 73
     0
 40
0.0
  0
LTYPE
  5
40
330
5
100
AcDbSymbolTableRecord
100
AcDbLinetypeTableRecord
  2
HIDDENX2
 70
     0
  3
Hidden (2x) ____ ____ ____ ____ ____ ____ ____ 
 72
    65
 73
     2
 40
19.05
 49
12.7
 74
     0
 49
-6.35
 74
     0
  0
LTYPE
  5
41
330
5
100
AcDbSymbolTableRecord
100
AcDbLinetypeTableRecord
  2
HIDDEN
 70
     0
  3
Hidden __ __ __ __ __ __ __ __ __ __ __ __ __ __
 72
    65
 73
     2
 40
9.524999999999999
 49
6.35
 74
     0
 49
-3.175
 74
     0
  0
LTYPE
  5
42
330
5
100
AcDbSymbolTableRecord
100
AcDbLinetypeTableRecord
  2
HIDDEN2
 70
     0
  3
Hidden (.5x) _ _ _ _ _ _ _ _ _ _ _ _ _ _ _ _ _ 
 72
    65
 73
     2
 40
4.762499999999999
 49
3.175
 74
     0
 49
-1.5875
 74
     0
  0
LTYPE
  5
43
330
5
100
AcDbSymbolTableRecord
100
AcDbLinetypeTableRecord
  2
DASHED
 70
     0
  3
Dashed __ __ __ __ __ __ __ __ __ __ __ __ __ _
 72
    65
 73
     2
 40
19.05
 49
12.7
 74
     0
 49
-6.35
 74
     0
  0
LTYPE
  5
44
330
5
100
AcDbSymbolTableRecord
100
AcDbLinetypeTableRecord
  2
DASHED2
 70
     0
  3
Dashed (.5x) _ _ _ _ _ _ _ _ _ _ _ _ _ _ _ _ _ 
 72
    65
 73
     2
 40
9.524999999999999
 49
6.35
 74
     0
 49
-3.175
 74
     0
  0
LTYPE
  5
45
330
5
100
AcDbSymbolTableRecord
100
AcDbLinetypeTableRecord
  2
DASHEDX2
 70
     0
  3
Dashed (2x) ____  ____  ____  ____  ____  ___
 72
    65
 73
     2
 40
38.09999999999999
 49
25.4
 74
     0
 49
-12.7
 74
     0
  0
LTYPE
  5
46
330
5
100
AcDbSymbolTableRecord
100
AcDbLinetypeTableRecord
  2
DOTX2
 70
     0
  3
Dot (2x) .  .  .  .  .  .  .  .  .  .  .  .  .  .
 72
    65
 73
     2
 40
12.7
 49
0.0
 74
     0
 49
-12.7
 74
     0
  0
LTYPE
  5
47
330
5
100
AcDbSymbolTableRecord
100
AcDbLinetypeTableRecord
  2
DOT
 70
     0
  3
Dot . . . . . . . . . . . . . . . . . . . . . . . .
 72
    65
 73
     2
 40
6.35
 49
0.0
 74
     0
 49
-6.35
 74
     0
  0
LTYPE
  5
48
330
5
100
AcDbSymbolTableRecord
100
AcDbLinetypeTableRecord
  2
DOT2
 70
     0
  3
Dot (.5x) ........................................
 72
    65
 73
     2
 40
3.175
 49
0.0
 74
     0
 49
-3.175
 74
     0
  0
LTYPE
  5
49
330
5
100
AcDbSymbolTableRecord
100
AcDbLinetypeTableRecord
  2
CENTERX2
 70
     0
  3
Center (2x) ________  __  ________  __  _____
 72
    65
 73
     4
 40
101.6
 49
63.5
 74
     0
 49
-12.7
 74
     0
 49
12.7
 74
     0
 49
-12.7
 74
     0
  0
LTYPE
  5
4A
330
5
100
AcDbSymbolTableRecord
100
AcDbLinetypeTableRecord
  2
CENTER
 70
     0
  3
Center ____ _ ____ _ ____ _ ____ _ ____ _ ____
 72
    65
 73
     4
 40
50.8
 49
31.75
 74
     0
 49
-6.35
 74
     0
 49
6.35
 74
     0
 49
-6.35
 74
     0
  0
LTYPE
  5
4B
330
5
100
AcDbSymbolTableRecord
100
AcDbLinetypeTableRecord
  2
CENTER2
 70
     0
  3
Center (.5x) ___ _ ___ _ ___ _ ___ _ ___ _ ___
 72
    65
 73
     4
 40
28.575
 49
19.05
 74
     0
 49
-3.175
 74
     0
 49
3.175
 74
     0
 49
-3.175
 74
     0
  0
LTYPE
  5
4C
330
5
100
AcDbSymbolTableRecord
100
AcDbLinetypeTableRecord
  2
DASHDOTX2
 70
     0
  3
Dash dot (2x) ____  .  ____  .  ____  .  ___
 72
    65
 73
     4
 40
50.8
 49
25.4
 74
     0
 49
-12.7
 74
     0
 49
0.0
 74
     0
 49
-12.7
 74
     0
  0
LTYPE
  5
4D
330
5
100
AcDbSymbolTableRecord
100
AcDbLinetypeTableRecord
  2
DASHDOT
 70
     0
  3
Dash dot __ . __ . __ . __ . __ . __ . __ . __
 72
    65
 73
     4
 40
25.4
 49
12.7
 74
     0
 49
-6.35
 74
     0
 49
0.0
 74
     0
 49
-6.35
 74
     0
  0
LTYPE
  5
4E
330
5
100
AcDbSymbolTableRecord
100
AcDbLinetypeTableRecord
  2
DASHDOT2
 70
     0
  3
Dash dot (.5x) _._._._._._._._._._._._._._._.
 72
    65
 73
     4
 40
12.7
 49
6.35
 74
     0
 49
-3.175
 74
     0
 49
0.0
 74
     0
 49
-3.175
 74
     0
  0
LTYPE
  5
4F
330
5
100
AcDbSymbolTableRecord
100
AcDbLinetypeTableRecord
  2
DIVIDEX2
 70
     0
  3
Divide (2x) ________  .  .  ________  .  .  _
 72
    65
 73
     6
 40
63.5
 49
25.4
 74
     0
 49
-12.7
 74
     0
 49
0.0
 74
     0
 49
-12.7
 74
     0
 49
0.0
 74
     0
 49
-12.7
 74
     0
  0
LTYPE
  5
50
330
5
100
AcDbSymbolTableRecord
100
AcDbLinetypeTableRecord
  2
DIVIDE
 70
     0
  3
Divide ____ . . ____ . . ____ . . ____ . . ____
 72
    65
 73
     6
 40
31.75
 49
12.7
 74
     0
 49
-6.35
 74
     0
 49
0.0
 74
     0
 49
-6.35
 74
     0
 49
0.0
 74
     0
 49
-6.35
 74
     0
  0
LTYPE
  5
51
330
5
100
AcDbSymbolTableRecord
100
AcDbLinetypeTableRecord
  2
DIVIDE2
 70
     0
  3
Divide (.5x) __..__..__..__..__..__..__..__.._
 72
    65
 73
     6
 40
15.875
 49
6.35
 74
     0
 49
-3.175
 74
     0
 49
0.0
 74
     0
 49
-3.175
 74
     0
 49
0.0
 74
     0
 49
-3.175
 74
     0
  0
LTYPE
  5
52
330
5
100
AcDbSymbolTableRecord
100
AcDbLinetypeTableRecord
  2
BORDERX2
 70
     0
  3
Border (2x) ____  ____  .  ____  ____  .  ___
 72
    65
 73
     6
 40
88.89999999999999
 49
25.4
 74
     0
 49
-12.7
 74
     0
 49
25.4
 74
     0
 49
-12.7
 74
     0
 49
0.0
 74
     0
 49
-12.7
 74
     0
  0
LTYPE
  5
53
330
5
100
AcDbSymbolTableRecord
100
AcDbLinetypeTableRecord
  2
BORDER
 70
     0
  3
Border __ __ . __ __ . __ __ . __ __ . __ __ .
 72
    65
 73
     6
 40
44.45
 49
12.7
 74
     0
 49
-6.35
 74
     0
 49
12.7
 74
     0
 49
-6.35
 74
     0
 49
0.0
 74
     0
 49
-6.35
 74
     0
  0
LTYPE
  5
54
330
5
100
AcDbSymbolTableRecord
100
AcDbLinetypeTableRecord
  2
BORDER2
 70
     0
  3
Border (.5x) __.__.__.__.__.__.__.__.__.__.__.
 72
    65
 73
     6
 40
22.225
 49
6.35
 74
     0
 49
-3.175
 74
     0
 49
6.35
 74
     0
 49
-3.175
 74
     0
 49
0.0
 74
     0
 49
-3.175
 74
     0
  0
LTYPE
  5
55
330
5
100
AcDbSymbolTableRecord
100
AcDbLinetypeTableRecord
  2
PHANTOMX2
 70
     0
  3
Phantom (2x) ____________    ____    ____   _
 72
    65
 73
     6
 40
127.0
 49
63.5
 74
     0
 49
-12.7
 74
     0
 49
12.7
 74
     0
 49
-12.7
 74
     0
 49
12.7
 74
     0
 49
-12.7
 74
     0
  0
LTYPE
  5
56
330
5
100
AcDbSymbolTableRecord
100
AcDbLinetypeTableRecord
  2
PHANTOM
 70
     0
  3
Phantom ______  __  __  ______  __  __  ______ 
 72
    65
 73
     6
 40
63.5
 49
31.75
 74
     0
 49
-6.35
 74
     0
 49
6.35
 74
     0
 49
-6.35
 74
     0
 49
6.35
 74
     0
 49
-6.35
 74
     0
  0
LTYPE
  5
57
330
5
100
AcDbSymbolTableRecord
100
AcDbLinetypeTableRecord
  2
PHANTOM2
 70
     0
  3
Phantom (.5x) ___ _ _ ___ _ _ ___ _ _ ___ _ _
 72
    65
 73
     6
 40
31.75
 49
15.875
 74
     0
 49
-3.175
 74
     0
 49
3.175
 74
     0
 49
-3.175
 74
     0
 49
3.175
 74
     0
 49
-3.175
 74
     0
  0
LTYPE
  5
58
330
5
100
AcDbSymbolTableRecord
100
AcDbLinetypeTableRecord
  2
ACAD_ISO06W100
 70
     0
  3
ISO long-dash triple-dot ____ ... ____ ... ____
 72
    65
 73
     8
 40
36.0
 49
24.0
 74
     0
 49
-3.0
 74
     0
 49
0.0
 74
     0
 49
-3.0
 74
     0
 49
0.0
 74
     0
 49
-3.0
 74
     0
 49
0.0
 74
     0
 49
-3.0
 74
     0
  0
LTYPE
  5
59
330
5
100
AcDbSymbolTableRecord
100
AcDbLinetypeTableRecord
  2
ACAD_ISO13W100
 70
     0
  3
ISO double-dash double-dot __ __ . . __ __ . . _
 72
    65
 73
     8
 40
36.0
 49
12.0
 74
     0
 49
-3.0
 74
     0
 49
12.0
 74
     0
 49
-3.0
 74
     0
 49
0.0
 74
     0
 49
-3.0
 74
     0
 49
0.0
 74
     0
 49
-3.0
 74
     0
  0
LTYPE
  5
5A
330
5
100
AcDbSymbolTableRecord
100
AcDbLinetypeTableRecord
  2
ACAD_ISO14W100
 70
     0
  3
ISO dash triple-dot __ . . . __ . . . __ . . . _
 72
    65
 73
     8
 40
24.0
 49
12.0
 74
     0
 49
-3.0
 74
     0
 49
0.0
 74
     0
 49
-3.0
 74
     0
 49
0.0
 74
     0
 49
-3.0
 74
     0
 49
0.0
 74
     0
 49
-3.0
 74
     0
  0
LTYPE
  5
5B
330
5
100
AcDbSymbolTableRecord
100
AcDbLinetypeTableRecord
  2
ACAD_ISO02W100
 70
     0
  3
ISO dash __ __ __ __ __ __ __ __ __ __ __ __ __
 72
    65
 73
     2
 40
15.0
 49
12.0
 74
     0
 49
-3.0
 74
     0
  0
LTYPE
  5
5C
330
5
100
AcDbSymbolTableRecord
100
AcDbLinetypeTableRecord
  2
ACAD_ISO03W100
 70
     0
  3
ISO dash space __    __    __    __    __    __
 72
    65
 73
     2
 40
30.0
 49
12.0
 74
     0
 49
-18.0
 74
     0
  0
LTYPE
  5
5D
330
5
100
AcDbSymbolTableRecord
100
AcDbLinetypeTableRecord
  2
ACAD_ISO04W100
 70
     0
  3
ISO long-dash dot ____ . ____ . ____ . ____ . _
 72
    65
 73
     4
 40
30.0
 49
24.0
 74
     0
 49
-3.0
 74
     0
 49
0.0
 74
     0
 49
-3.0
 74
     0
  0
LTYPE
  5
5E
330
5
100
AcDbSymbolTableRecord
100
AcDbLinetypeTableRecord
  2
ACAD_ISO05W100
 70
     0
  3
ISO long-dash double-dot ____ .. ____ .. ____ . 
 72
    65
 73
     6
 40
33.0
 49
24.0
 74
     0
 49
-3.0
 74
     0
 49
0.0
 74
     0
 49
-3.0
 74
     0
 49
0.0
 74
     0
 49
-3.0
 74
     0
  0
LTYPE
  5
5F
330
5
100
AcDbSymbolTableRecord
100
AcDbLinetypeTableRecord
  2
ACAD_ISO07W100
 70
     0
  3
ISO dot . . . . . . . . . . . . . . . . . . . . 
 72
    65
 73
     2
 40
3.0
 49
0.0
 74
     0
 49
-3.0
 74
     0
  0
LTYPE
  5
60
330
5
100
AcDbSymbolTableRecord
100
AcDbLinetypeTableRecord
  2
ACAD_ISO08W100
 70
     0
  3
ISO long-dash short-dash ____ __ ____ __ ____ _
 72
    65
 73
     4
 40
36.0
 49
24.0
 74
     0
 49
-3.0
 74
     0
 49
6.0
 74
     0
 49
-3.0
 74
     0
  0
LTYPE
  5
61
330
5
100
AcDbSymbolTableRecord
100
AcDbLinetypeTableRecord
  2
ACAD_ISO09W100
 70
     0
  3
ISO long-dash double-short-dash ____ __ __ ____
 72
    65
 73
     6
 40
45.0
 49
24.0
 74
     0
 49
-3.0
 74
     0
 49
6.0
 74
     0
 49
-3.0
 74
     0
 49
6.0
 74
     0
 49
-3.0
 74
     0
  0
LTYPE
  5
62
330
5
100
AcDbSymbolTableRecord
100
AcDbLinetypeTableRecord
  2
ACAD_ISO10W100
 70
     0
  3
ISO dash dot __ . __ . __ . __ . __ . __ . __ . 
 72
    65
 73
     4
 40
18.0
 49
12.0
 74
     0
 49
-3.0
 74
     0
 49
0.0
 74
     0
 49
-3.0
 74
     0
  0
LTYPE
  5
63
330
5
100
AcDbSymbolTableRecord
100
AcDbLinetypeTableRecord
  2
ACAD_ISO11W100
 70
     0
  3
ISO double-dash dot __ __ . __ __ . __ __ . __ _
 72
    65
 73
     6
 40
33.0
 49
12.0
 74
     0
 49
-3.0
 74
     0
 49
12.0
 74
     0
 49
-3.0
 74
     0
 49
0.0
 74
     0
 49
-3.0
 74
     0
  0
LTYPE
  5
64
330
5
100
AcDbSymbolTableRecord
100
AcDbLinetypeTableRecord
  2
ACAD_ISO12W100
 70
     0
  3
ISO dash double-dot __ . . __ . . __ . . __ . . 
 72
    65
 73
     6
 40
21.0
 49
12.0
 74
     0
 49
-3.0
 74
     0
 49
0.0
 74
     0
 49
-3.0
 74
     0
 49
0.0
 74
     0
 49
-3.0
 74
     0
  0
LTYPE
  5
65
330
5
100
AcDbSymbolTableRecord
100
AcDbLinetypeTableRecord
  2
ACAD_ISO15W100
 70
     0
  3
ISO double-dash triple-dot __ __ . . . __ __ . .
 72
    65
 73
    10
 40
39.0
 49
12.0
 74
     0
 49
-3.0
 74
     0
 49
12.0
 74
     0
 49
-3.0
 74
     0
 49
0.0
 74
     0
 49
-3.0
 74
     0
 49
0.0
 74
     0
 49
-3.0
 74
     0
 49
0.0
 74
     0
 49
-3.0
 74
     0
  0
LTYPE
  5
66
330
5
100
AcDbSymbolTableRecord
100
AcDbLinetypeTableRecord
  2
JIS_02_0.7
 70
     0
  3
HIDDEN0.75 _ _ _ _ _ _ _ _ _ _ _ _ _ _ _ _ _ 
 72
    65
 73
     2
 40
1.35
 49
0.75
 74
     0
 49
-0.6
 74
     0
  0
LTYPE
  5
67
330
5
100
AcDbSymbolTableRecord
100
AcDbLinetypeTableRecord
  2
JIS_02_1.0
 70
     0
  3
HIDDEN01 _ _ _ _ _ _ _ _ _ _ _ _ _ _ _ _ _ 
 72
    65
 73
     2
 40
2.0
 49
1.0
 74
     0
 49
-1.0
 74
     0
  0
LTYPE
  5
68
330
5
100
AcDbSymbolTableRecord
100
AcDbLinetypeTableRecord
  2
JIS_02_1.2
 70
     0
  3
HIDDEN01.25  _ _ _ _ _ _ _ _ _ _ _ _ _ _ _ _ _ 
 72
    65
 73
     2
 40
2.5
 49
1.25
 74
     0
 49
-1.25
 74
     0
  0
LTYPE
  5
69
330
5
100
AcDbSymbolTableRecord
100
AcDbLinetypeTableRecord
  2
JIS_02_2.0
 70
     0
  3
HIDDEN02 __ __ __ __ __ __ __ __ __ __ __ 
 72
    65
 73
     2
 40
3.0
 49
2.0
 74
     0
 49
-1.0
 74
     0
  0
LTYPE
  5
6A
330
5
100
AcDbSymbolTableRecord
100
AcDbLinetypeTableRecord
  2
JIS_02_4.0
 70
     0
  3
HIDDEN04 ____ ____ ____ ____ ____ ____ ____ 
 72
    65
 73
     2
 40
5.5
 49
4.0
 74
     0
 49
-1.5
 74
     0
  0
LTYPE
  5
6B
330
5
100
AcDbSymbolTableRecord
100
AcDbLinetypeTableRecord
  2
JIS_08_11
 70
     0
  3
1SASEN11 ___ _ ___ _ ___ _ ___ _ ___ _ ___
 72
    65
 73
     4
 40
12.8
 49
11.0
 74
     0
 49
-0.6
 74
     0
 49
0.6
 74
     0
 49
-0.6
 74
     0
  0
LTYPE
  5
6C
330
5
100
AcDbSymbolTableRecord
100
AcDbLinetypeTableRecord
  2
JIS_08_15
 70
     0
  3
1SASEN15 ____ _ ____ _ ____ _ ____ _ ____ 
 72
    65
 73
     4
 40
17.25
 49
15.0
 74
     0
 49
-0.75
 74
     0
 49
0.75
 74
     0
 49
-0.75
 74
     0
  0
LTYPE
  5
6D
330
5
100
AcDbSymbolTableRecord
100
AcDbLinetypeTableRecord
  2
JIS_08_25
 70
     0
  3
1SASEN25 ________  __  ________  __  _____
 72
    65
 73
     4
 40
28.0
 49
25.0
 74
     0
 49
-1.125
 74
     0
 49
0.75
 74
     0
 49
-1.125
 74
     0
  0
LTYPE
  5
6E
330
5
100
AcDbSymbolTableRecord
100
AcDbLinetypeTableRecord
  2
JIS_08_37
 70
     0
  3
1SASEN37 ________  __  ________  __  _____
 72
    65
 73
     4
 40
40.5
 49
37.5
 74
     0
 49
-1.125
 74
     0
 49
0.75
 74
     0
 49
-1.125
 74
     0
  0
LTYPE
  5
6F
330
5
100
AcDbSymbolTableRecord
100
AcDbLinetypeTableRecord
  2
JIS_08_50
 70
     0
  3
1SASEN50 _______________  __  ____________
 72
    65
 73
     4
 40
53.0
 49
50.0
 74
     0
 49
-1.125
 74
     0
 49
0.75
 74
     0
 49
-1.125
 74
     0
  0
LTYPE
  5
70
330
5
100
AcDbSymbolTableRecord
100
AcDbLinetypeTableRecord
  2
JIS_09_08
 70
     0
  3
2SASEN8 __ _ _ __ _ _ __ _ _ __ _ _ __ _ _ 
 72
    65
 73
     6
 40
10.75
 49
8.0
 74
     0
 49
-0.55
 74
     0
 49
0.55
 74
     0
 49
-0.55
 74
     0
 49
0.55
 74
     0
 49
-0.55
 74
     0
  0
LTYPE
  5
71
330
5
100
AcDbSymbolTableRecord
100
AcDbLinetypeTableRecord
  2
JIS_09_15
 70
     0
  3
2SASEN15 ___ _ _ ___ _ _ ___ _ _ ___ _ _ ___ 
 72
    65
 73
     6
 40
18.9
 49
15.0
 74
     0
 49
-0.9
 74
     0
 49
0.6
 74
     0
 49
-0.9
 74
     0
 49
0.6
 74
     0
 49
-0.9
 74
     0
  0
LTYPE
  5
72
330
5
100
AcDbSymbolTableRecord
100
AcDbLinetypeTableRecord
  2
JIS_09_29
 70
     0
  3
2SASEN29 ______　__  __  ______　__  __  ___
 72
    65
 73
     6
 40
34.0
 49
29.0
 74
     0
 49
-1.2
 74
     0
 49
0.7
 74
     0
 49
-1.2
 74
     0
 49
0.7
 74
     0
 49
-1.2
 74
     0
  0
LTYPE
  5
73
330
5
100
AcDbSymbolTableRecord
100
AcDbLinetypeTableRecord
  2
JIS_09_50
 70
     0
  3
2SASEN50 ____________　__  __  _____________
 72
    65
 73
     6
 40
55.0
 49
50.0
 74
     0
 49
-1.2
 74
     0
 49
0.7
 74
     0
 49
-1.2
 74
     0
 49
0.7
 74
     0
 49
-1.2
 74
     0
  0
ENDTAB
  0
TABLE
  2
LAYER
  5
2
330
0
100
AcDbSymbolTable
 70
     5
  0
LAYER
  5
10
330
2
100
AcDbSymbolTableRecord
100
AcDbLayerTableRecord
  2
0
 70
     0
 62
     7
  6
Continuous
370
    -3
390
F
  0
LAYER
  5
74
330
2
100
AcDbSymbolTableRecord
100
AcDbLayerTableRecord
  2
16
 70
     0
 62
     7
  6
Continuous
370
    -3
390
F
  0
LAYER
  5
75
330
2
100
AcDbSymbolTableRecord
100
AcDbLayerTableRecord
  2
19
 70
     0
 62
     7
  6
Continuous
370
    -3
390
F
  0
LAYER
  5
76
330
2
100
AcDbSymbolTableRecord
100
AcDbLayerTableRecord
  2
22
 70
     0
 62
     7
  6
Continuous
370
    -3
390
F
  0
LAYER
  5
77
330
2
100
AcDbSymbolTableRecord
100
AcDbLayerTableRecord
  2
32
 70
     0
 62
     7
  6
Continuous
370
    -3
390
F
  0
ENDTAB
  0
TABLE
  2
STYLE
  5
3
330
0
100
AcDbSymbolTable
 70
     2
  0
STYLE
  5
11
330
3
100
AcDbSymbolTableRecord
100
AcDbTextStyleTableRecord
  2
Standard
 70
     0
 40
0.0
 41
1.0
 50
0.0
 71
     0
 42
0.2
  3
txt.shx
  4
bigfont.shx
  0
STYLE
  5
9B
330
3
100
AcDbSymbolTableRecord
100
AcDbTextStyleTableRecord
  2
dcStyle0
 70
     0
 40
0.0
 41
0.8333333354938274
 50
0.0
 71
     0
 42
0.2
  3
txt.shx
  4
bigfont
  0
ENDTAB
  0
TABLE
  2
VIEW
  5
6
330
0
100
AcDbSymbolTable
 70
     0
  0
ENDTAB
  0
TABLE
  2
UCS
  5
7
330
0
100
AcDbSymbolTable
 70
     0
  0
ENDTAB
  0
TABLE
  2
APPID
  5
9
330
0
100
AcDbSymbolTable
 70
     2
  0
APPID
  5
12
330
9
100
AcDbSymbolTableRecord
100
AcDbRegAppTableRecord
  2
ACAD
 70
     0
  0
APPID
  5
3F
330
9
100
AcDbSymbolTableRecord
100
AcDbRegAppTableRecord
  2
DaFusionOut
 70
     0
  0
ENDTAB
  0
TABLE
  2
DIMSTYLE
  5
A
330
0
100
AcDbSymbolTable
 70
     1
100
AcDbDimStyleTable
  0
DIMSTYLE
105
27
330
A
100
AcDbSymbolTableRecord
100
AcDbDimStyleTableRecord
  2
Standard
 70
     0
178
     0
340
11
  0
ENDTAB
  0
TABLE
  2
BLOCK_RECORD
  5
1
330
0
100
AcDbSymbolTable
 70
     1
  0
BLOCK_RECORD
  5
1F
330
1
100
AcDbSymbolTableRecord
100
AcDbBlockTableRecord
  2
*Model_Space
340
22
  0
BLOCK_RECORD
  5
1B
330
1
100
AcDbSymbolTableRecord
100
AcDbBlockTableRecord
  2
*Paper_Space
340
1E
  0
BLOCK_RECORD
  5
23
330
1
100
AcDbSymbolTableRecord
100
AcDbBlockTableRecord
  2
*Paper_Space0
340
26
  0
ENDTAB
  0
ENDSEC
  0
SECTION
  2
BLOCKS
  0
BLOCK
  5
20
330
1F
100
AcDbEntity
  8
0
100
AcDbBlockBegin
  2
*Model_Space
 70
     0
 10
0.0
 20
0.0
 30
0.0
  3
*Model_Space
  1

  0
ENDBLK
  5
21
330
1F
100
AcDbEntity
  8
0
100
AcDbBlockEnd
  0
BLOCK
  5
1C
330
1B
100
AcDbEntity
 67
     1
  8
0
100
AcDbBlockBegin
  2
*Paper_Space
 70
     0
 10
0.0
 20
0.0
 30
0.0
  3
*Paper_Space
  1

  0
ENDBLK
  5
1D
330
1B
100
AcDbEntity
 67
     1
  8
0
100
AcDbBlockEnd
  0
BLOCK
  5
24
330
23
100
AcDbEntity
  8
0
100
AcDbBlockBegin
  2
*Paper_Space0
 70
     0
 10
0.0
 20
0.0
 30
0.0
  3
*Paper_Space0
  1

  0
ENDBLK
  5
25
330
23
100
AcDbEntity
  8
0
100
AcDbBlockEnd
  0
ENDSEC
  0
SECTION
  2
ENTITIES
  0
LINE
  5
79
330
1F
100
AcDbEntity
  8
0
  6
Continuous
 62
   150
370
    25
100
AcDbLine
 10
-173.5999998748302
 20
-114.0999997854233
 30
0.0
 11
-173.5999998748302
 21
105.9000034928322
 31
0.0
  0
LINE
  5
7A
330
1F
100
AcDbEntity
  8
0
  6
Continuous
 62
   150
370
    25
100
AcDbLine
 10
-173.5999998748302
 20
105.9000034928322
 30
0.0
 11
172.4000052809715
 21
105.9000034928322
 31
0.0
  0
LINE
  5
7B
330
1F
100
AcDbEntity
  8
0
  6
Continuous
 62
   150
370
    25
100
AcDbLine
 10
172.4000052809715
 20
105.9000034928322
 30
0.0
 11
172.4000052809715
 21
-114.0999997854233
 31
0.0
  0
LINE
  5
7C
330
1F
100
AcDbEntity
  8
0
  6
Continuous
 62
   150
370
    25
100
AcDbLine
 10
172.4000052809715
 20
-114.0999997854233
 30
0.0
 11
-173.5999998748302
 21
-114.0999997854233
 31
0.0
  0
LINE
  5
7D
330
1F
100
AcDbEntity
  8
0
  6
Continuous
 62
   150
370
    25
100
AcDbLine
 10
172.4000052809715
 20
-84.09999933838844
 30
0.0
 11
10.40000286698341
 21
-84.09999933838844
 31
0.0
  0
LINE
  5
7E
330
1F
100
AcDbEntity
  8
0
  6
Continuous
 62
   150
370
    25
100
AcDbLine
 10
10.40000286698341
 20
-84.09999933838844
 30
0.0
 11
10.40000286698341
 21
-114.0999997854233
 31
0.0
  0
LINE
  5
7F
330
1F
100
AcDbEntity
  8
0
  6
Continuous
 62
   150
370
    25
100
AcDbLine
 10
10.40000286698341
 20
-97.09999953210354
 30
0.0
 11
96.40000414848328
 21
-97.09999953210354
 31
0.0
  0
LINE
  5
80
330
1F
100
AcDbEntity
  8
0
  6
Continuous
 62
   150
370
    25
100
AcDbLine
 10
96.40000414848328
 20
-88.59999940544367
 30
0.0
 11
10.40000286698341
 21
-88.59999940544367
 31
0.0
  0
LINE
  5
81
330
1F
100
AcDbEntity
  8
0
  6
Continuous
 62
   150
370
    25
100
AcDbLine
 10
23.40000306069851
 20
-84.09999933838844
 30
0.0
 11
23.40000306069851
 21
-97.09999953210354
 31
0.0
  0
LINE
  5
82
330
1F
100
AcDbEntity
  8
0
  6
Continuous
 62
   150
370
    25
100
AcDbLine
 10
36.4000032544136
 20
-97.09999953210354
 30
0.0
 11
36.4000032544136
 21
-84.09999933838844
 31
0.0
  0
LINE
  5
83
330
1F
100
AcDbEntity
  8
0
  6
Continuous
 62
   150
370
    25
100
AcDbLine
 10
49.4000034481287
 20
-84.09999933838844
 30
0.0
 11
49.4000034481287
 21
-97.09999953210354
 31
0.0
  0
LINE
  5
84
330
1F
100
AcDbEntity
  8
0
  6
Continuous
 62
   150
370
    25
100
AcDbLine
 10
75.40000383555889
 20
-97.09999953210354
 30
0.0
 11
75.40000383555889
 21
-84.09999933838844
 31
0.0
  0
LINE
  5
85
330
1F
100
AcDbEntity
  8
0
  6
Continuous
 62
   150
370
    25
100
AcDbLine
 10
96.40000414848328
 20
-84.09999933838844
 30
0.0
 11
96.40000414848328
 21
-114.0999997854233
 31
0.0
  0
LINE
  5
86
330
1F
100
AcDbEntity
  8
0
  6
Continuous
 62
   150
370
    25
100
AcDbLine
 10
101.4000042229891
 20
-114.0999997854233
 30
0.0
 11
101.4000042229891
 21
-100.5999995842576
 31
0.0
  0
LINE
  5
87
330
1F
100
AcDbEntity
  8
0
  6
Continuous
 62
   150
370
    25
100
AcDbLine
 10
96.40000414848328
 20
-100.5999995842576
 30
0.0
 11
172.4000052809715
 21
-100.5999995842576
 31
0.0
  0
LINE
  5
88
330
1F
100
AcDbEntity
  8
0
  6
Continuous
 62
   150
370
    25
100
AcDbLine
 10
168.4000052213669
 20
-94.59999949485064
 30
0.0
 11
100.4000042080879
 21
-94.59999949485064
 31
0.0
  0
LINE
  5
89
330
1F
100
AcDbEntity
  8
0
  6
Continuous
 62
   150
370
    25
100
AcDbLine
 10
19.40000300109386
 20
-109.1999997124076
 30
0.0
 11
23.90000306814909
 21
-106.6999996751547
 31
0.0
  0
LINE
  5
8A
330
1F
100
AcDbEntity
  8
0
  6
Continuous
 62
   150
370
    25
100
AcDbLine
 10
23.90000306814909
 20
-106.6999996751547
 30
0.0
 11
28.40000313520432
 21
-109.1999997124076
 31
0.0
  0
LINE
  5
8B
330
1F
100
AcDbEntity
  8
0
  6
Continuous
 62
   150
370
    25
100
AcDbLine
 10
28.40000313520432
 20
-109.1999997124076
 30
0.0
 11
23.90000306814909
 21
-111.6999997496605
 31
0.0
  0
LINE
  5
8C
330
1F
100
AcDbEntity
  8
0
  6
Continuous
 62
   150
370
    25
100
AcDbLine
 10
23.90000306814909
 20
-111.6999997496605
 30
0.0
 11
19.40000300109386
 21
-109.1999997124076
 31
0.0
  0
LINE
  5
8D
330
1F
100
AcDbEntity
  8
0
  6
Continuous
 62
   150
370
    25
100
AcDbLine
 10
23.40000306069851
 20
-107.6999996900558
 30
0.0
 11
24.40000307559967
 21
-107.6999996900558
 31
0.0
  0
LINE
  5
8E
330
1F
100
AcDbEntity
  8
0
  6
Continuous
 62
   150
370
    25
100
AcDbLine
 10
24.40000307559967
 20
-107.6999996900558
 30
0.0
 11
24.40000307559967
 21
-110.6999997347593
 31
0.0
  0
LINE
  5
8F
330
1F
100
AcDbEntity
  8
0
  6
Continuous
 62
   150
370
    25
100
AcDbLine
 10
24.40000307559967
 20
-110.6999997347593
 30
0.0
 11
23.40000306069851
 21
-110.6999997347593
 31
0.0
  0
LINE
  5
90
330
1F
100
AcDbEntity
  8
0
  6
Continuous
 62
   150
370
    25
100
AcDbLine
 10
23.40000306069851
 20
-110.6999997347593
 30
0.0
 11
23.40000306069851
 21
-107.6999996900558
 31
0.0
  0
LINE
  5
91
330
1F
100
AcDbEntity
  8
0
  6
Continuous
 62
   150
370
    25
100
AcDbLine
 10
23.40000306069851
 20
-107.6999996900558
 30
0.0
 11
23.60000306367874
 21
-107.6999996900558
 31
0.0
  0
LINE
  5
92
330
1F
100
AcDbEntity
  8
0
  6
Continuous
 62
   150
370
    25
100
AcDbLine
 10
23.60000306367874
 20
-107.6999996900558
 30
0.0
 11
23.60000306367874
 21
-110.6999997347593
 31
0.0
  0
LINE
  5
93
330
1F
100
AcDbEntity
  8
0
  6
Continuous
 62
   150
370
    25
100
AcDbLine
 10
23.60000306367874
 20
-110.6999997347593
 30
0.0
 11
23.80000306665897
 21
-110.6999997347593
 31
0.0
  0
LINE
  5
94
330
1F
100
AcDbEntity
  8
0
  6
Continuous
 62
   150
370
    25
100
AcDbLine
 10
23.80000306665897
 20
-110.6999997347593
 30
0.0
 11
23.80000306665897
 21
-107.6999996900558
 31
0.0
  0
LINE
  5
95
330
1F
100
AcDbEntity
  8
0
  6
Continuous
 62
   150
370
    25
100
AcDbLine
 10
23.80000306665897
 20
-107.6999996900558
 30
0.0
 11
24.00000306963921
 21
-107.6999996900558
 31
0.0
  0
LINE
  5
96
330
1F
100
AcDbEntity
  8
0
  6
Continuous
 62
   150
370
    25
100
AcDbLine
 10
24.00000306963921
 20
-107.6999996900558
 30
0.0
 11
24.00000306963921
 21
-110.6999997347593
 31
0.0
  0
LINE
  5
97
330
1F
100
AcDbEntity
  8
0
  6
Continuous
 62
   150
370
    25
100
AcDbLine
 10
24.00000306963921
 20
-110.6999997347593
 30
0.0
 11
24.20000307261944
 21
-110.6999997347593
 31
0.0
  0
LINE
  5
98
330
1F
100
AcDbEntity
  8
0
  6
Continuous
 62
   150
370
    25
100
AcDbLine
 10
24.20000307261944
 20
-110.6999997347593
 30
0.0
 11
24.20000307261944
 21
-107.6999996900558
 31
0.0
  0
LINE
  5
99
330
1F
100
AcDbEntity
  8
0
  6
Continuous
 62
   150
370
    25
100
AcDbLine
 10
24.20000307261944
 20
-107.6999996900558
 30
0.0
 11
24.40000307559967
 21
-107.6999996900558
 31
0.0
  0
LINE
  5
9A
330
1F
100
AcDbEntity
  8
0
  6
Continuous
 62
   150
370
    25
100
AcDbLine
 10
24.40000307559967
 20
-107.6999996900558
 30
0.0
 11
24.40000307559967
 21
-110.6999997347593
 31
0.0
  0
TEXT
  5
9C
330
1F
100
AcDbEntity
  8
0
 62
   150
100
AcDbText
 10
12.4000029
 20
-87.8999994
 30
0.0
 40
3.0
  1
担　当
 41
0.8333333354938274
  7
dcStyle0
 72
     5
 11
21.40000304
 21
-87.8999994
 31
0.0
100
AcDbText
  0
TEXT
  5
9D
330
1F
100
AcDbEntity
  8
0
 62
   150
100
AcDbText
 10
25.40000309
 20
-87.8999994
 30
0.0
 40
3.0
  1
製　図
 41
0.833333335493827
  7
dcStyle0
 72
     5
 11
34.40000323
 21
-87.8999994
 31
0.0
100
AcDbText
  0
TEXT
  5
9E
330
1F
100
AcDbEntity
  8
0
 62
   150
100
AcDbText
 10
38.40000328
 20
-87.8999994
 30
0.0
 40
3.0
  1
検　図
 41
0.833333335493827
  7
dcStyle0
 72
     5
 11
47.40000342
 21
-87.8999994
 31
0.0
100
AcDbText
  0
TEXT
  5
9F
330
1F
100
AcDbEntity
  8
0
 62
   150
100
AcDbText
 10
56.40000355
 20
-87.8999994
 30
0.0
 40
3.0
  1
尺　　度
 41
0.8333333354166672
  7
dcStyle0
 72
     5
 11
68.40000373000001
 21
-87.8999994
 31
0.0
100
AcDbText
  0
TEXT
  5
A0
330
1F
100
AcDbEntity
  8
0
 62
   150
100
AcDbText
 10
79.9000039
 20
-87.8999994
 30
0.0
 40
3.0
  1
作　　図
 41
0.8333333354166668
  7
dcStyle0
 72
     5
 11
91.90000408
 21
-87.8999994
 31
0.0
100
AcDbText
  0
TEXT
  5
A1
330
1F
100
AcDbEntity
  8
0
 62
   150
100
AcDbText
 10
97.40000416
 20
-87.8999994
 30
0.0
 40
3.0
  1
工事名
 41
0.833333335493827
  7
dcStyle0
 72
     5
 11
106.4000043
 21
-87.8999994
 31
0.0
100
AcDbText
  0
TEXT
  5
A2
330
1F
100
AcDbEntity
  8
0
 62
   150
100
AcDbText
 10
97.40000416
 20
-99.39999957
 30
0.0
 40
2.5
  1
図面番号
 41
0.8333333354166671
  7
dcStyle0
 72
     5
 11
107.40000431
 21
-99.39999957
 31
0.0
100
AcDbText
  0
TEXT
  5
A3
330
1F
100
AcDbEntity
  8
0
 62
   150
100
AcDbText
 10
97.40000416
 20
-104.09999964
 30
0.0
 40
2.5
  1
図
 41
0.8333333333333334
  7
dcStyle0
 72
     5
 11
99.90000416
 21
-104.09999964
 31
0.0
100
AcDbText
  0
TEXT
  5
A4
330
1F
100
AcDbEntity
  8
0
 62
   150
100
AcDbText
 10
97.40000416
 20
-107.09999968
 30
0.0
 40
2.5
  1
面
 41
0.8333333333333334
  7
dcStyle0
 72
     5
 11
99.90000416
 21
-107.09999968
 31
0.0
100
AcDbText
  0
TEXT
  5
A5
330
1F
100
AcDbEntity
  8
0
 62
   150
100
AcDbText
 10
97.40000416
 20
-110.09999973
 30
0.0
 40
2.5
  1
名
 41
0.8333333333333334
  7
dcStyle0
 72
     5
 11
99.90000416
 21
-110.09999973
 31
0.0
100
AcDbText
  0
TEXT
  5
A6
330
1F
100
AcDbEntity
  8
0
 62
   150
100
AcDbText
 10
97.40000416
 20
-113.09999977
 30
0.0
 40
2.5
  1
称
 41
0.8333333333333334
  7
dcStyle0
 72
     5
 11
99.90000416
 21
-113.09999977
 31
0.0
100
AcDbText
  0
TEXT
  5
A7
330
1F
100
AcDbEntity
  8
0
 62
   150
100
AcDbText
 10
80.60000391
 20
-94.09999949
 30
0.0
 40
2.5
  1
年
 41
0.8333333333333334
  7
dcStyle0
 72
     5
 11
83.10000391
 21
-94.09999949
 31
0.0
100
AcDbText
  0
TEXT
  5
A8
330
1F
100
AcDbEntity
  8
0
 62
   150
100
AcDbText
 10
87.10000401
 20
-94.09999949
 30
0.0
 40
2.5
  1
月
 41
0.8333333333333334
  7
dcStyle0
 72
     5
 11
89.60000401
 21
-94.09999949
 31
0.0
100
AcDbText
  0
TEXT
  5
A9
330
1F
100
AcDbEntity
  8
0
 62
   150
100
AcDbText
 10
93.60000411
 20
-94.09999949
 30
0.0
 40
2.5
  1
日
 41
0.8333333333333334
  7
dcStyle0
 72
     5
 11
96.10000411
 21
-94.09999949
 31
0.0
100
AcDbText
  0
TEXT
  5
AA
330
1F
100
AcDbEntity
  8
0
 62
   222
100
AcDbText
 10
24.90000308
 20
-103.89999963
 30
0.0
 40
4.0
  1
タイヘイグレーチング
 41
1.041666666041667
  7
dcStyle0
 72
     5
 11
74.90000380000001
 21
-103.89999963
 31
0.0
100
AcDbText
  0
TEXT
  5
AB
330
1F
100
AcDbEntity
  8
0
 62
   222
100
AcDbText
 10
30.15000316
 20
-111.39999975
 30
0.0
 40
5.0
  1
石田鉄工株式会社
 41
0.8461538481952661
  7
dcStyle0
 72
     5
 11
74.15000384999999
 21
-111.39999975
 31
0.0
100
AcDbText
  0
LINE
  5
AC
330
1F
100
AcDbEntity
  8
22
  6
Continuous
 62
     2
370
    25
100
AcDbLine
 10
-182.0
 20
-128.5
 30
0.0
 11
-178.9999999552965
 21
-128.5
 31
0.0
  0
LINE
  5
AD
330
1F
100
AcDbEntity
  8
22
  6
Continuous
 62
     2
370
    25
100
AcDbLine
 10
-178.9999999552965
 20
-128.5
 30
0.0
 11
-178.9999999552965
 21
-125.4999999552965
 31
0.0
  0
LINE
  5
AE
330
1F
100
AcDbEntity
  8
22
  6
Continuous
 62
     2
370
    25
100
AcDbLine
 10
-178.9999999552965
 20
-125.4999999552965
 30
0.0
 11
-182.0
 21
-125.4999999552965
 31
0.0
  0
LINE
  5
AF
330
1F
100
AcDbEntity
  8
22
  6
Continuous
 62
     2
370
    25
100
AcDbLine
 10
-182.0
 20
-125.4999999552965
 30
0.0
 11
-182.0
 21
-128.5
 31
0.0
  0
LINE
  5
B0
330
1F
100
AcDbEntity
  8
22
  6
Continuous
 62
     2
370
    25
100
AcDbLine
 10
-182.0
 20
-128.5
 30
0.0
 11
-178.9999999552965
 21
-128.5
 31
0.0
  0
LINE
  5
B1
330
1F
100
AcDbEntity
  8
22
  6
Continuous
 62
     2
370
    25
100
AcDbLine
 10
-178.9999999552965
 20
-128.5
 30
0.0
 11
-178.9999999552965
 21
-125.4999999552965
 31
0.0
  0
LINE
  5
B2
330
1F
100
AcDbEntity
  8
22
  6
Continuous
 62
     2
370
    25
100
AcDbLine
 10
-178.9999999552965
 20
-125.4999999552965
 30
0.0
 11
-182.0
 21
-125.4999999552965
 31
0.0
  0
LINE
  5
B3
330
1F
100
AcDbEntity
  8
22
  6
Continuous
 62
     2
370
    25
100
AcDbLine
 10
-182.0
 20
-125.4999999552965
 30
0.0
 11
-182.0
 21
-128.5
 31
0.0
  0
LINE
  5
B4
330
1F
100
AcDbEntity
  8
22
  6
Continuous
 62
     2
370
    25
100
AcDbLine
 10
-182.0
 20
-128.5
 30
0.0
 11
-178.9999999552965
 21
-128.5
 31
0.0
  0
LINE
  5
B5
330
1F
100
AcDbEntity
  8
22
  6
Continuous
 62
     2
370
    25
100
AcDbLine
 10
-178.9999999552965
 20
-128.5
 30
0.0
 11
-178.9999999552965
 21
-125.4999999552965
 31
0.0
  0
LINE
  5
B6
330
1F
100
AcDbEntity
  8
22
  6
Continuous
 62
     2
370
    25
100
AcDbLine
 10
-178.9999999552965
 20
-125.4999999552965
 30
0.0
 11
-182.0
 21
-125.4999999552965
 31
0.0
  0
LINE
  5
B7
330
1F
100
AcDbEntity
  8
22
  6
Continuous
 62
     2
370
    25
100
AcDbLine
 10
-182.0
 20
-125.4999999552965
 30
0.0
 11
-182.0
 21
-128.5
 31
0.0
  0
TEXT
  5
B8
330
1F
100
AcDbEntity
  8
22
 62
     2
100
AcDbText
 10
102.40000424
 20
-104.6666663266667
 30
0.0
 40
3.2
  1
TYLHC
 41
0.9375000009375004
  7
dcStyle0
 72
     5
 11
117.40000448
 21
-104.6666663266667
 31
0.0
100
AcDbText
  0
TEXT
  5
B9
330
1F
100
AcDbEntity
  8
22
 62
     2
100
AcDbText
 10
117.40000446
 20
-104.6666663266667
 30
0.0
 40
3.2
  1
 500 
 41
0.7812500027343752
  7
dcStyle0
 72
     5
 11
129.90000466
 21
-104.6666663266667
 31
0.0
100
AcDbText
  0
TEXT
  5
BA
330
1F
100
AcDbEntity
  8
22
 62
     2
100
AcDbText
 10
127.40000461
 20
-104.6666663266667
 30
0.0
 40
3.0
  1
×
 41
0.6944444444444445
  7
dcStyle0
 72
     5
 11
129.90000461
 21
-104.6666663266667
 31
0.0
100
AcDbText
  0
TEXT
  5
BB
330
1F
100
AcDbEntity
  8
22
 62
     2
100
AcDbText
 10
128.90000463
 20
-104.6666663266667
 30
0.0
 40
3.0
  1
 382 
 41
0.8333333355555547
  7
dcStyle0
 72
     5
 11
141.40000483
 21
-104.6666663266667
 31
0.0
100
AcDbText
  0
TEXT
  5
BC
330
1F
100
AcDbEntity
  8
22
 62
     2
100
AcDbText
 10
138.90000478
 20
-104.6666663266667
 30
0.0
 40
3.0
  1
×
 41
0.6944444444444445
  7
dcStyle0
 72
     5
 11
141.40000478
 21
-104.6666663266667
 31
0.0
100
AcDbText
  0
TEXT
  5
BD
330
1F
100
AcDbEntity
  8
22
 62
     2
100
AcDbText
 10
140.4000048
 20
-104.6666663266667
 30
0.0
 40
3.0
  1
 32 
 41
0.8333333354166671
  7
dcStyle0
 72
     5
 11
150.40000495
 21
-104.6666663266667
 31
0.0
100
AcDbText
  0
TEXT
  5
BE
330
1F
100
AcDbEntity
  8
22
 62
     2
100
AcDbText
 10
102.30000424
 20
-113.1666664466667
 30
0.0
 40
3.0
  1
2L
  7
dcStyle0
 72
     5
 11
108.70000434
 21
-113.1666664466667
 31
0.0
100
AcDbText
  0
TEXT
  5
BF
330
1F
100
AcDbEntity
  8
22
 62
     2
100
AcDbText
 10
108.60000433
 20
-113.1666664466667
 30
0.0
 40
3.0
  1
枠
 41
0.8333333333333334
  7
dcStyle0
 72
     5
 11
111.60000433
 21
-113.1666664466667
 31
0.0
100
AcDbText
  0
TEXT
  5
C0
330
1F
100
AcDbEntity
  8
22
 62
     2
100
AcDbText
 10
113.80000441
 20
-113.1666664466667
 30
0.0
 40
2.5
  1
脱着
 41
0.6666666700000008
  7
dcStyle0
 72
     5
 11
117.80000447
 21
-113.1666664466667
 31
0.0
100
AcDbText
  0
TEXT
  5
C1
330
1F
100
AcDbEntity
  8
22
 62
     2
100
AcDbText
 10
117.80000447
 20
-113.1666664466667
 30
0.0
 40
2.5
  1
ピン付
 41
0.6666666696296304
  7
dcStyle0
 72
     5
 11
123.80000455
 21
-113.1666664466667
 31
0.0
100
AcDbText
  0
TEXT
  5
C2
330
1F
100
AcDbEntity
  8
22
 62
     2
100
AcDbText
 10
123.80000456
 20
-113.1666664466667
 30
0.0
 40
2.5
  1
　１１０度開閉
 41
0.6666666695238095
  7
dcStyle0
 72
     5
 11
137.80000474
 21
-113.1666664466667
 31
0.0
100
AcDbText
  0
TEXT
  5
C3
330
1F
100
AcDbEntity
  8
22
 62
     2
100
AcDbText
 10
25.65000309
 20
-94.59999948999999
 30
0.0
 40
3.0
  1
岡本　
 41
0.8536585384889945
  7
dcStyle0
 72
     5
 11
36.15000325
 21
-94.59999948999999
 31
0.0
100
AcDbText
  0
TEXT
  5
C4
330
1F
100
AcDbEntity
  8
22
 62
     2
100
AcDbText
 10
56.70000356
 20
-94.09999948999999
 30
0.0
 40
3.0
  1
1/
  7
dcStyle0
 72
     5
 11
62.70000365
 21
-94.09999948999999
 31
0.0
100
AcDbText
  0
TEXT
  5
C5
330
1F
100
AcDbEntity
  8
22
 62
     2
100
AcDbText
 10
59.7000036
 20
-94.09999948999999
 30
0.0
 40
3.0
  1
 6 
 41
0.9999999999999998
  7
dcStyle0
 72
     5
 11
68.70000374
 21
-94.09999948999999
 31
0.0
100
AcDbText
  0
TEXT
  5
C6
330
1F
100
AcDbEntity
  8
22
 62
     2
100
AcDbText
 10
112.00000438
 20
-99.76666624666666
 30
0.0
 40
3.0
  1
TYLHC32-44 T-2
 41
0.8333333353968257
  7
dcStyle0
 72
     5
 11
147.0000049
 21
-99.76666624666666
 31
0.0
100
AcDbText
  0
TEXT
  5
C7
330
1F
100
AcDbEntity
  8
22
 62
     2
100
AcDbText
 10
73.95000381
 20
-70.46666586666666
 30
0.0
 40
3.5
  1
＜表面処理＞
 41
0.7446808537799908
  7
dcStyle0
 72
     5
 11
94.95000411
 21
-70.46666586666666
 31
0.0
100
AcDbText
  0
TEXT
  5
C8
330
1F
100
AcDbEntity
  8
22
 62
     2
100
AcDbText
 10
78.95000389
 20
-75.46666594666667
 30
0.0
 40
3.5
  1
本体：溶融亜鉛メッキ
 41
0.7446808537256675
  7
dcStyle0
 72
     5
 11
113.95000438
 21
-75.46666594666667
 31
0.0
100
AcDbText
  0
TEXT
  5
C9
330
1F
100
AcDbEntity
  8
22
 62
     2
100
AcDbText
 10
114.5333380033333
 20
-75.46666594666667
 30
0.0
 40
3.5
  1
（セラミック充填）
 41
0.7446808539610683
  7
dcStyle0
 72
     5
 11
146.0333384833333
 21
-75.46666594666667
 31
0.0
100
AcDbText
  0
TEXT
  5
CA
330
1F
100
AcDbEntity
  8
22
 62
     2
100
AcDbText
 10
78.95000389
 20
-79.46666600666666
 30
0.0
 40
3.5
  1
受枠：黒ペイント塗装
 41
0.7446808537256675
  7
dcStyle0
 72
     5
 11
113.95000438
 21
-79.46666600666666
 31
0.0
100
AcDbText
  0
TEXT
  5
CB
330
1F
100
AcDbEntity
  8
22
 62
     2
100
AcDbText
 10
93.2000041
 20
93.70000324999998
 30
0.0
 40
4.0
  1
◇　荷　重　計　算　◇
 41
0.833333335542929
  7
dcStyle0
 72
     5
 11
137.2000048
 21
93.70000324999998
 31
0.0
100
AcDbText
  0
TEXT
  5
CC
330
1F
100
AcDbEntity
  8
22
 62
     2
100
AcDbText
 10
63.85000366000001
 20
83.70000311
 30
0.0
 40
3.299999999999999
  1
設計条件
 41
0.8583691004600374
  7
dcStyle0
 72
     5
 11
79.85000389
 21
83.70000311
 31
0.0
100
AcDbText
  0
TEXT
  5
CD
330
1F
100
AcDbEntity
  8
22
 62
     2
100
AcDbText
 10
69.10000373999998
 20
77.70000302
 30
0.0
 40
3.299999999999999
  1
荷　　重：　
 41
0.841346155753051
  7
dcStyle0
 72
     5
 11
90.10000403999997
 21
77.70000302
 31
0.0
100
AcDbText
  0
TEXT
  5
CE
330
1F
100
AcDbEntity
  8
22
 62
     2
100
AcDbText
 10
90.10000405
 20
77.70000302
 30
0.0
 40
3.0
  1
T-
  7
dcStyle0
 72
     5
 11
96.10000414
 21
77.70000302
 31
0.0
100
AcDbText
  0
TEXT
  5
CF
330
1F
100
AcDbEntity
  8
22
 62
     2
100
AcDbText
 10
94.10000411
 20
77.70000302
 30
0.0
 40
3.0
  1
 2 
 41
0.8333333355555551
  7
dcStyle0
 72
     5
 11
101.60000423
 21
77.70000302
 31
0.0
100
AcDbText
  0
TEXT
  5
D0
330
1F
100
AcDbEntity
  8
22
 62
     2
100
AcDbText
 10
101.50000422
 20
77.70000302
 30
0.0
 40
3.299999999999999
  1
（後輪一輪荷重：
 41
0.841346155896068
  7
dcStyle0
 72
     5
 11
129.50000465
 21
77.70000302
 31
0.0
100
AcDbText
  0
TEXT
  5
D1
330
1F
100
AcDbEntity
  8
22
 62
     2
100
AcDbText
 10
129.50000464
 20
77.70000302
 30
0.0
 40
3.0
  1
 800
 41
0.8333333354166671
  7
dcStyle0
 72
     5
 11
139.50000479
 21
77.70000302
 31
0.0
100
AcDbText
  0
TEXT
  5
D2
330
1F
100
AcDbEntity
  8
22
 62
     2
100
AcDbText
 10
139.50000479
 20
77.70000302
 30
0.0
 40
3.0
  1
Kg
 41
0.5000000033333338
  7
dcStyle0
 72
     5
 11
142.50000483
 21
77.70000302
 31
0.0
100
AcDbText
  0
TEXT
  5
D3
330
1F
100
AcDbEntity
  8
22
 62
     2
100
AcDbText
 10
142.50000484
 20
77.70000302
 30
0.0
 40
3.299999999999999
  1
）
 41
0.8333333333333364
  7
dcStyle0
 72
     5
 11
145.80000484
 21
77.70000302
 31
0.0
100
AcDbText
  0
TEXT
  5
D4
330
1F
100
AcDbEntity
  8
22
 62
     2
100
AcDbText
 10
69.10000373999998
 20
72.70000293999999
 30
0.0
 40
3.299999999999999
  1
載荷寸法：　
 41
0.841346155753051
  7
dcStyle0
 72
     5
 11
90.10000403999997
 21
72.70000293999999
 31
0.0
100
AcDbText
  0
TEXT
  5
D5
330
1F
100
AcDbEntity
  8
22
 62
     2
100
AcDbText
 10
90.10000405
 20
72.70000293999999
 30
0.0
 40
3.0
  1
160
 41
0.8333333355555551
  7
dcStyle0
 72
     5
 11
97.60000416999999
 21
72.70000293999999
 31
0.0
100
AcDbText
  0
TEXT
  5
D6
330
1F
100
AcDbEntity
  8
22
 62
     2
100
AcDbText
 10
97.60000416999999
 20
72.70000293999999
 30
0.0
 40
3.0
  1
mm
 41
0.6666666700000008
  7
dcStyle0
 72
     5
 11
101.60000423
 21
72.70000293999999
 31
0.0
100
AcDbText
  0
TEXT
  5
D7
330
1F
100
AcDbEntity
  8
22
 62
     2
100
AcDbText
 10
101.50000422
 20
72.70000293999999
 30
0.0
 40
3.299999999999999
  1
×
 41
0.8333333333333328
  7
dcStyle0
 72
     5
 11
104.80000422
 21
72.70000293999999
 31
0.0
100
AcDbText
  0
TEXT
  5
D8
330
1F
100
AcDbEntity
  8
22
 62
     2
100
AcDbText
 10
105.00000428
 20
72.70000293999999
 30
0.0
 40
3.0
  1
200
 41
0.8333333355555551
  7
dcStyle0
 72
     5
 11
112.5000044
 21
72.70000293999999
 31
0.0
100
AcDbText
  0
TEXT
  5
D9
330
1F
100
AcDbEntity
  8
22
 62
     2
100
AcDbText
 10
112.50000439
 20
72.70000293999999
 30
0.0
 40
3.0
  1
mm
 41
0.6666666700000008
  7
dcStyle0
 72
     5
 11
116.50000445
 21
72.70000293999999
 31
0.0
100
AcDbText
  0
TEXT
  5
DA
330
1F
100
AcDbEntity
  8
22
 62
     2
100
AcDbText
 10
116.40000445
 20
72.70000293999999
 30
0.0
 40
3.299999999999999
  1
　（等分布負載）
 41
0.8413461558960684
  7
dcStyle0
 72
     5
 11
144.40000488
 21
72.70000293999999
 31
0.0
100
AcDbText
  0
TEXT
  5
DB
330
1F
100
AcDbEntity
  8
22
 62
     2
100
AcDbText
 10
69.10000373999998
 20
67.70000286999999
 30
0.0
 40
3.299999999999999
  1
許容応力：　
 41
0.841346155753051
  7
dcStyle0
 72
     5
 11
90.10000403999997
 21
67.70000286999999
 31
0.0
100
AcDbText
  0
TEXT
  5
DC
330
1F
100
AcDbEntity
  8
22
 62
     2
100
AcDbText
 10
90.10000405
 20
67.70000286999999
 30
0.0
 40
3.299999999999999
  1
σｂ＝
 41
0.6313131350372408
  7
dcStyle0
 72
     5
 11
97.60000416999999
 21
67.70000286999999
 31
0.0
100
AcDbText
  0
TEXT
  5
DD
330
1F
100
AcDbEntity
  8
22
 62
     2
100
AcDbText
 10
97.60000416999999
 20
67.70000286999999
 30
0.0
 40
3.0
  1
 
 41
0.8333333333333334
  7
dcStyle0
 72
     5
 11
100.10000417
 21
67.70000286999999
 31
0.0
100
AcDbText
  0
TEXT
  5
DE
330
1F
100
AcDbEntity
  8
22
 62
     2
100
AcDbText
 10
98.10000416999999
 20
67.70000286999999
 30
0.0
 40
3.0
  1
 18.0
 41
0.8333333355555557
  7
dcStyle0
 72
     5
 11
110.60000437
 21
67.70000286999999
 31
0.0
100
AcDbText
  0
TEXT
  5
DF
330
1F
100
AcDbEntity
  8
22
 62
     2
100
AcDbText
 10
110.70000436
 20
67.70000286999999
 30
0.0
 40
3.0
  1
Kg
 41
0.6666666700000008
  7
dcStyle0
 72
     5
 11
114.70000442
 21
67.70000286999999
 31
0.0
100
AcDbText
  0
TEXT
  5
E0
330
1F
100
AcDbEntity
  8
22
 62
     2
100
AcDbText
 10
114.45000442
 20
67.70000286999999
 30
0.0
 40
3.0
  1
／
 41
0.8333333333333334
  7
dcStyle0
 72
     5
 11
117.45000442
 21
67.70000286999999
 31
0.0
100
AcDbText
  0
TEXT
  5
E1
330
1F
100
AcDbEntity
  8
22
 62
     2
100
AcDbText
 10
117.95000447
 20
67.70000286999999
 30
0.0
 40
3.0
  1
mm
 41
0.6666666700000008
  7
dcStyle0
 72
     5
 11
121.95000453
 21
67.70000286999999
 31
0.0
100
AcDbText
  0
TEXT
  5
E2
330
1F
100
AcDbEntity
  8
22
 62
     2
100
AcDbText
 10
121.95000453
 20
69.70000289999999
 30
0.0
 40
1.8
  1
2
 41
0.8333333333333333
  7
dcStyle0
 72
     5
 11
123.45000453
 21
69.70000289999999
 31
0.0
100
AcDbText
  0
TEXT
  5
E3
330
1F
100
AcDbEntity
  8
22
 62
     2
100
AcDbText
 10
124.45000457
 20
67.70000286999999
 30
0.0
 40
3.299999999999999
  1
（ＳＳ４００使用）
 41
0.7575757602965683
  7
dcStyle0
 72
     5
 11
151.45000497
 21
67.70000286999999
 31
0.0
100
AcDbText
  0
TEXT
  5
E4
330
1F
100
AcDbEntity
  8
22
 62
     2
100
AcDbText
 10
69.10000373999998
 20
57.70000272000001
 30
0.0
 40
3.299999999999999
  1
スパン　：　
 41
0.841346155753051
  7
dcStyle0
 72
     5
 11
90.10000403999997
 21
57.70000272000001
 31
0.0
100
AcDbText
  0
TEXT
  5
E5
330
1F
100
AcDbEntity
  8
22
 62
     2
100
AcDbText
 10
90.10000405
 20
57.70000272
 30
0.0
 40
3.0
  1
L = 
 41
0.8333333354166671
  7
dcStyle0
 72
     5
 11
100.1000042
 21
57.70000272
 31
0.0
100
AcDbText
  0
TEXT
  5
E6
330
1F
100
AcDbEntity
  8
22
 62
     2
100
AcDbText
 10
98.10000416999999
 20
57.70000272
 30
0.0
 40
3.0
  1
 400 
 41
0.8333333355555557
  7
dcStyle0
 72
     5
 11
110.60000437
 21
57.70000272
 31
0.0
100
AcDbText
  0
TEXT
  5
E7
330
1F
100
AcDbEntity
  8
22
 62
     2
100
AcDbText
 10
110.60000436
 20
57.70000272
 30
0.0
 40
3.0
  1
mm
 41
0.6666666700000008
  7
dcStyle0
 72
     5
 11
114.60000442
 21
57.70000272
 31
0.0
100
AcDbText
  0
TEXT
  5
E8
330
1F
100
AcDbEntity
  8
22
 62
     2
100
AcDbText
 10
79.10000388999998
 20
49.7000026
 30
0.0
 40
3.299999999999999
  1
　Ｗ　：主部材が支える最大後輪一輪荷重
 41
0.8413461559738497
  7
dcStyle0
 72
     5
 11
145.60000495
 21
49.7000026
 31
0.0
100
AcDbText
  0
TEXT
  5
E9
330
1F
100
AcDbEntity
  8
22
 62
     2
100
AcDbText
 10
145.60000488
 20
49.7000026
 30
0.0
 40
3.0
  1
(Kg)
 41
0.6666666700000008
  7
dcStyle0
 72
     5
 11
153.600005
 21
49.7000026
 31
0.0
100
AcDbText
  0
TEXT
  5
EA
330
1F
100
AcDbEntity
  8
22
 62
     2
100
AcDbText
 10
79.10000388999998
 20
45.70000254
 30
0.0
 40
3.299999999999999
  1
　Ｎ　：荷重を受ける主部材本数
 41
0.8413461558293269
  7
dcStyle0
 72
     5
 11
131.60000467
 21
45.70000254
 31
0.0
100
AcDbText
  0
TEXT
  5
EB
330
1F
100
AcDbEntity
  8
22
 62
     2
100
AcDbText
 10
79.10000388999998
 20
41.70000248
 30
0.0
 40
3.299999999999999
  1
〔Ｚ〕：主部材断面係数
 41
0.8413461559264053
  7
dcStyle0
 72
     5
 11
117.60000449
 21
41.70000248
 31
0.0
100
AcDbText
  0
TEXT
  5
EC
330
1F
100
AcDbEntity
  8
22
 62
     2
100
AcDbText
 10
79.10000388999998
 20
37.70000242
 30
0.0
 40
3.299999999999999
  1
　Ｓ　：溝幅方向載荷寸法
 41
0.8413461560073042
  7
dcStyle0
 72
     5
 11
121.10000457
 21
37.70000242
 31
0.0
100
AcDbText
  0
TEXT
  5
ED
330
1F
100
AcDbEntity
  8
22
 62
     2
100
AcDbText
 10
63.85000366000001
 20
32.70000235
 30
0.0
 40
3.299999999999999
  1
荷重計算
 41
0.8583691004600374
  7
dcStyle0
 72
     5
 11
79.85000389
 21
32.70000235
 31
0.0
100
AcDbText
  0
TEXT
  5
EE
330
1F
100
AcDbEntity
  8
22
 62
     2
100
AcDbText
 10
69.10000373999998
 20
25.70000224
 30
0.0
 40
3.299999999999999
  1
横断溝
 41
0.8413461558801776
  7
dcStyle0
 72
     5
 11
79.60000389999998
 21
25.70000224
 31
0.0
100
AcDbText
  0
TEXT
  5
EF
330
1F
100
AcDbEntity
  8
22
 62
     2
100
AcDbText
 10
79.5000039
 20
25.70000224
 30
0.0
 40
3.299999999999999
  1
　（溝幅＞載荷寸法Ｓの場合）
 41
0.8413461557802926
  7
dcStyle0
 72
     5
 11
128.50000461
 21
25.70000224
 31
0.0
100
AcDbText
  0
TEXT
  5
F0
330
1F
100
AcDbEntity
  8
22
 62
     2
100
AcDbText
 10
69.20000374
 20
15.70000209
 30
0.0
 40
3.299999999999999
  1
Ｗ　＝
 41
0.6313131350372408
  7
dcStyle0
 72
     5
 11
76.70000386
 21
15.70000209
 31
0.0
100
AcDbText
  0
TEXT
  5
F1
330
1F
100
AcDbEntity
  8
22
 62
     2
100
AcDbText
 10
80.20000390999999
 20
18.20000213
 30
0.0
 40
3.0
  1
8
  7
dcStyle0
 72
     5
 11
83.20000390999999
 21
18.20000213
 31
0.0
100
AcDbText
  0
TEXT
  5
F2
330
1F
100
AcDbEntity
  8
22
 62
     2
100
AcDbText
 10
83.20000395
 20
18.20000213
 30
0.0
 40
0.8
  1
 
 41
0.9999999999999964
  7
dcStyle0
 72
     5
 11
84.00000394999999
 21
18.20000213
 31
0.0
100
AcDbText
  0
TEXT
  5
F3
330
1F
100
AcDbEntity
  8
22
 62
     2
100
AcDbText
 10
84.00000395999999
 20
18.20000213
 30
0.0
 40
3.299999999999999
  1
σｂ
 41
0.6313131345717273
  7
dcStyle0
 72
     5
 11
89.00000402999999
 21
18.20000213
 31
0.0
100
AcDbText
  0
TEXT
  5
F4
330
1F
100
AcDbEntity
  8
22
 62
     2
100
AcDbText
 10
89.00000404
 20
18.20000213
 30
0.0
 40
0.8
  1
 
 41
0.9999999999999964
  7
dcStyle0
 72
     5
 11
89.80000403999999
 21
18.20000213
 31
0.0
100
AcDbText
  0
TEXT
  5
F5
330
1F
100
AcDbEntity
  8
22
 62
     2
100
AcDbText
 10
89.80000405
 20
18.20000213
 30
0.0
 40
3.299999999999999
  1
Ｚ
 41
0.7575757575757578
  7
dcStyle0
 72
     5
 11
92.80000405
 21
18.20000213
 31
0.0
100
AcDbText
  0
TEXT
  5
F6
330
1F
100
AcDbEntity
  8
22
 62
     2
100
AcDbText
 10
80.20000390999999
 20
13.20000205
 30
0.0
 40
3.0
  1
2
 41
0.8333333333333334
  7
dcStyle0
 72
     5
 11
82.70000390999999
 21
13.20000205
 31
0.0
100
AcDbText
  0
TEXT
  5
F7
330
1F
100
AcDbEntity
  8
22
 62
     2
100
AcDbText
 10
82.70000393999999
 20
13.20000205
 30
0.0
 40
3.299999999999999
  1
Ｌ－Ｓ
 41
0.8333333352974192
  7
dcStyle0
 72
     5
 11
92.60000407999999
 21
13.20000205
 31
0.0
100
AcDbText
  0
TEXT
  5
F8
330
1F
100
AcDbEntity
  8
22
 62
     2
100
AcDbText
 10
94.20000411999999
 20
15.70000209
 30
0.0
 40
3.299999999999999
  1
＝
 41
0.7575757575757578
  7
dcStyle0
 72
     5
 11
97.20000411999999
 21
15.70000209
 31
0.0
100
AcDbText
  0
TEXT
  5
F9
330
1F
100
AcDbEntity
  8
22
 62
     2
100
AcDbText
 10
99.7000042
 20
18.20000213
 30
0.0
 40
3.0
  1
8
 41
0.8333333333333334
  7
dcStyle0
 72
     5
 11
102.2000042
 21
18.20000213
 31
0.0
100
AcDbText
  0
TEXT
  5
FA
330
1F
100
AcDbEntity
  8
22
 62
     2
100
AcDbText
 10
102.10000423
 20
18.20000213
 30
0.0
 40
3.299999999999999
  1
×
 41
0.8333333333333328
  7
dcStyle0
 72
     5
 11
105.40000423
 21
18.20000213
 31
0.0
100
AcDbText
  0
TEXT
  5
FB
330
1F
100
AcDbEntity
  8
22
 62
     2
100
AcDbText
 10
105.60000429
 20
18.20000213
 30
0.0
 40
3.0
  1
 18 
 41
0.8333333354166671
  7
dcStyle0
 72
     5
 11
115.60000444
 21
18.20000213
 31
0.0
100
AcDbText
  0
TEXT
  5
FC
330
1F
100
AcDbEntity
  8
22
 62
     2
100
AcDbText
 10
114.25000441
 20
18.20000213
 30
0.0
 40
3.299999999999999
  1
×Ｚ
 41
0.8583691005360199
  7
dcStyle0
 72
     5
 11
122.25000453
 21
18.20000213
 31
0.0
100
AcDbText
  0
TEXT
  5
FD
330
1F
100
AcDbEntity
  8
22
 62
     2
100
AcDbText
 10
99.7000042
 20
13.20000205
 30
0.0
 40
3.0
  1
2
 41
0.8333333333333334
  7
dcStyle0
 72
     5
 11
102.2000042
 21
13.20000205
 31
0.0
100
AcDbText
  0
TEXT
  5
FE
330
1F
100
AcDbEntity
  8
22
 62
     2
100
AcDbText
 10
102.10000423
 20
13.20000205
 30
0.0
 40
3.299999999999999
  1
×
 41
0.8333333333333328
  7
dcStyle0
 72
     5
 11
105.40000423
 21
13.20000205
 31
0.0
100
AcDbText
  0
TEXT
  5
FF
330
1F
100
AcDbEntity
  8
22
 62
     2
100
AcDbText
 10
103.60000426
 20
13.20000205
 30
0.0
 40
3.0
  1
 400 
 41
0.8333333355555557
  7
dcStyle0
 72
     5
 11
116.10000446
 21
13.20000205
 31
0.0
100
AcDbText
  0
TEXT
  5
100
330
1F
100
AcDbEntity
  8
22
 62
     2
100
AcDbText
 10
114.10000441
 20
13.20000205
 30
0.0
 40
3.299999999999999
  1
－
 41
0.6313131313131315
  7
dcStyle0
 72
     5
 11
116.60000441
 21
13.20000205
 31
0.0
100
AcDbText
  0
TEXT
  5
101
330
1F
100
AcDbEntity
  8
22
 62
     2
100
AcDbText
 10
115.60000443
 20
13.20000205
 30
0.0
 40
3.0
  1
 200 
 41
0.8333333355555547
  7
dcStyle0
 72
     5
 11
128.10000463
 21
13.20000205
 31
0.0
100
AcDbText
  0
TEXT
  5
102
330
1F
100
AcDbEntity
  8
22
 62
     2
100
AcDbText
 10
128.70000463
 20
15.70000209
 30
0.0
 40
3.299999999999999
  1
＝
 41
0.7575757575757578
  7
dcStyle0
 72
     5
 11
131.70000463
 21
15.70000209
 31
0.0
100
AcDbText
  0
TEXT
  5
103
330
1F
100
AcDbEntity
  8
22
 62
     2
100
AcDbText
 10
133.7000047
 20
15.70000209
 30
0.0
 40
3.0
  1
0.240
 41
0.8333333355555547
  7
dcStyle0
 72
     5
 11
146.2000049
 21
15.70000209
 31
0.0
100
AcDbText
  0
TEXT
  5
104
330
1F
100
AcDbEntity
  8
22
 62
     2
100
AcDbText
 10
145.85000489
 20
15.70000209
 30
0.0
 40
3.299999999999999
  1
×Ｚ
 41
0.8583691005360214
  7
dcStyle0
 72
     5
 11
153.85000501
 21
15.70000209
 31
0.0
100
AcDbText
  0
TEXT
  5
105
330
1F
100
AcDbEntity
  8
22
 62
     2
100
AcDbText
 10
69.20000374
 20
5.700001940000001
 30
0.0
 40
3.299999999999999
  1
Ｚ　＝　Ｎ　〔Ｚ〕　＝
 41
0.631313134698686
  7
dcStyle0
 72
     5
 11
96.70000414
 21
5.700001940000001
 31
0.0
100
AcDbText
  0
TEXT
  5
106
330
1F
100
AcDbEntity
  8
22
 62
     2
100
AcDbText
 10
96.70000415
 20
5.70000194
 30
0.0
 40
3.0
  1
 6 
 41
0.8333333355555551
  7
dcStyle0
 72
     5
 11
104.20000427
 21
5.70000194
 31
0.0
100
AcDbText
  0
TEXT
  5
107
330
1F
100
AcDbEntity
  8
22
 62
     2
100
AcDbText
 10
102.20000423
 20
5.700001940000001
 30
0.0
 40
3.299999999999999
  1
×
 41
0.7575757575757578
  7
dcStyle0
 72
     5
 11
105.20000423
 21
5.700001940000001
 31
0.0
100
AcDbText
  0
TEXT
  5
108
330
1F
100
AcDbEntity
  8
22
 62
     2
100
AcDbText
 10
105.20000428
 20
5.70000194
 30
0.0
 40
3.0
  1
  1.189
 41
0.8333333352380955
  7
dcStyle0
 72
     5
 11
122.70000452
 21
5.70000194
 31
0.0
100
AcDbText
  0
TEXT
  5
109
330
1F
100
AcDbEntity
  8
22
 62
     2
100
AcDbText
 10
122.60000454
 20
5.700001940000001
 30
0.0
 40
3.299999999999999
  1
×
 41
0.8333333333333328
  7
dcStyle0
 72
     5
 11
125.90000454
 21
5.700001940000001
 31
0.0
100
AcDbText
  0
TEXT
  5
10A
330
1F
100
AcDbEntity
  8
22
 62
     2
100
AcDbText
 10
126.10000459
 20
5.70000194
 30
0.0
 40
3.0
  1
10
 41
0.83333333527778
  7
dcStyle0
 72
     5
 11
131.10000466
 21
5.70000194
 31
0.0
100
AcDbText
  0
TEXT
  5
10B
330
1F
100
AcDbEntity
  8
22
 62
     2
100
AcDbText
 10
131.10000467
 20
7.700001970000001
 30
0.0
 40
1.8
  1
3
 41
0.8333333333333333
  7
dcStyle0
 72
     5
 11
132.60000467
 21
7.700001970000001
 31
0.0
100
AcDbText
  0
TEXT
  5
10C
330
1F
100
AcDbEntity
  8
22
 62
     2
100
AcDbText
 10
133.6000047
 20
5.70000194
 30
0.0
 40
3.0
  1
=
  7
dcStyle0
 72
     5
 11
136.6000047
 21
5.70000194
 31
0.0
100
AcDbText
  0
TEXT
  5
10D
330
1F
100
AcDbEntity
  8
22
 62
     2
100
AcDbText
 10
136.60000475
 20
5.70000194
 30
0.0
 40
3.0
  1
  7.13
 41
0.8333333351851846
  7
dcStyle0
 72
     5
 11
151.60000495
 21
5.70000194
 31
0.0
100
AcDbText
  0
TEXT
  5
10E
330
1F
100
AcDbEntity
  8
22
 62
     2
100
AcDbText
 10
151.50000497
 20
5.700001940000001
 30
0.0
 40
3.299999999999999
  1
×
 41
0.8333333333333364
  7
dcStyle0
 72
     5
 11
154.80000497
 21
5.700001940000001
 31
0.0
100
AcDbText
  0
TEXT
  5
10F
330
1F
100
AcDbEntity
  8
22
 62
     2
100
AcDbText
 10
155.00000502
 20
5.70000194
 30
0.0
 40
3.0
  1
10
 41
0.8333333352777776
  7
dcStyle0
 72
     5
 11
160.00000509
 21
5.70000194
 31
0.0
100
AcDbText
  0
TEXT
  5
110
330
1F
100
AcDbEntity
  8
22
 62
     2
100
AcDbText
 10
160.0000051
 20
7.700001970000001
 30
0.0
 40
1.8
  1
3
 41
0.8333333333333333
  7
dcStyle0
 72
     5
 11
161.5000051
 21
7.700001970000001
 31
0.0
100
AcDbText
  0
TEXT
  5
111
330
1F
100
AcDbEntity
  8
22
 62
     2
100
AcDbText
 10
64.20000367
 20
-2.299998179999998
 30
0.0
 40
3.299999999999999
  1
∴　Ｗ　＝
 41
0.6313131350372414
  7
dcStyle0
 72
     5
 11
76.70000387
 21
-2.299998179999998
 31
0.0
100
AcDbText
  0
TEXT
  5
112
330
1F
100
AcDbEntity
  8
22
 62
     2
100
AcDbText
 10
76.70000385
 20
-2.299998179999999
 30
0.0
 40
3.0
  1
 0.240
 41
0.8333333351851854
  7
dcStyle0
 72
     5
 11
91.70000405
 21
-2.299998179999999
 31
0.0
100
AcDbText
  0
TEXT
  5
113
330
1F
100
AcDbEntity
  8
22
 62
     2
100
AcDbText
 10
91.60000407999999
 20
-2.299998179999998
 30
0.0
 40
3.299999999999999
  1
×
 41
0.8333333333333328
  7
dcStyle0
 72
     5
 11
94.90000407999999
 21
-2.299998179999998
 31
0.0
100
AcDbText
  0
TEXT
  5
114
330
1F
100
AcDbEntity
  8
22
 62
     2
100
AcDbText
 10
95.10000413
 20
-2.299998179999999
 30
0.0
 40
3.0
  1
  7.13
 41
0.8333333351851854
  7
dcStyle0
 72
     5
 11
110.10000433
 21
-2.299998179999999
 31
0.0
100
AcDbText
  0
TEXT
  5
115
330
1F
100
AcDbEntity
  8
22
 62
     2
100
AcDbText
 10
110.00000435
 20
-2.299998179999998
 30
0.0
 40
3.299999999999999
  1
×
 41
0.8333333333333328
  7
dcStyle0
 72
     5
 11
113.30000435
 21
-2.299998179999998
 31
0.0
100
AcDbText
  0
TEXT
  5
116
330
1F
100
AcDbEntity
  8
22
 62
     2
100
AcDbText
 10
113.5000044
 20
-2.299998179999999
 30
0.0
 40
3.0
  1
10
 41
0.8333333352777776
  7
dcStyle0
 72
     5
 11
118.50000447
 21
-2.299998179999999
 31
0.0
100
AcDbText
  0
TEXT
  5
117
330
1F
100
AcDbEntity
  8
22
 62
     2
100
AcDbText
 10
118.50000448
 20
-0.2999981499999983
 30
0.0
 40
1.8
  1
3
 41
0.8333333333333333
  7
dcStyle0
 72
     5
 11
120.00000448
 21
-0.2999981499999983
 31
0.0
100
AcDbText
  0
TEXT
  5
118
330
1F
100
AcDbEntity
  8
22
 62
     2
100
AcDbText
 10
121.00000452
 20
-2.299998179999999
 30
0.0
 40
3.0
  1
=
  7
dcStyle0
 72
     5
 11
124.00000452
 21
-2.299998179999999
 31
0.0
100
AcDbText
  0
TEXT
  5
119
330
1F
100
AcDbEntity
  8
22
 62
     2
100
AcDbText
 10
124.00000456
 20
-2.299998179999999
 30
0.0
 40
3.0
  1
  1.71
 41
0.8333333351851846
  7
dcStyle0
 72
     5
 11
139.00000476
 21
-2.299998179999999
 31
0.0
100
AcDbText
  0
TEXT
  5
11A
330
1F
100
AcDbEntity
  8
22
 62
     2
100
AcDbText
 10
138.90000478
 20
-2.299998179999998
 30
0.0
 40
3.299999999999999
  1
×
 41
0.8333333333333364
  7
dcStyle0
 72
     5
 11
142.20000478
 21
-2.299998179999998
 31
0.0
100
AcDbText
  0
TEXT
  5
11B
330
1F
100
AcDbEntity
  8
22
 62
     2
100
AcDbText
 10
142.40000483
 20
-2.299998179999999
 30
0.0
 40
3.0
  1
10
 41
0.8333333352777776
  7
dcStyle0
 72
     5
 11
147.4000049
 21
-2.299998179999999
 31
0.0
100
AcDbText
  0
TEXT
  5
11C
330
1F
100
AcDbEntity
  8
22
 62
     2
100
AcDbText
 10
147.40000491
 20
-0.2999981499999983
 30
0.0
 40
1.8
  1
3
 41
0.8333333333333333
  7
dcStyle0
 72
     5
 11
148.90000491
 21
-0.2999981499999983
 31
0.0
100
AcDbText
  0
TEXT
  5
11D
330
1F
100
AcDbEntity
  8
22
 62
     2
100
AcDbText
 10
149.90000495
 20
-2.299998179999999
 30
0.0
 40
3.0
  1
(Kg)
 41
0.8333333354166671
  7
dcStyle0
 72
     5
 11
159.9000051
 21
-2.299998179999999
 31
0.0
100
AcDbText
  0
TEXT
  5
11E
330
1F
100
AcDbEntity
  8
22
 62
     2
100
AcDbText
 10
69.20000374
 20
-10.2999983
 30
0.0
 40
3.299999999999999
  1
Ｔ
 41
0.6313131313131315
  7
dcStyle0
 72
     5
 11
71.70000374
 21
-10.2999983
 31
0.0
100
AcDbText
  0
TEXT
  5
11F
330
1F
100
AcDbEntity
  8
22
 62
     2
100
AcDbText
 10
71.70000378
 20
-10.2999983
 30
0.0
 40
3.0
  1
 = 0.4
 41
0.8333333351851854
  7
dcStyle0
 72
     5
 11
86.70000398
 21
-10.2999983
 31
0.0
100
AcDbText
  0
TEXT
  5
120
330
1F
100
AcDbEntity
  8
22
 62
     2
100
AcDbText
 10
86.70000399999999
 20
-8.299998269999998
 30
0.0
 40
1.8
  1
-1
 41
0.833333335185186
  7
dcStyle0
 72
     5
 11
89.70000404
 21
-8.299998269999998
 31
0.0
100
AcDbText
  0
TEXT
  5
121
330
1F
100
AcDbEntity
  8
22
 62
     2
100
AcDbText
 10
90.60000405999999
 20
-10.2999983
 30
0.0
 40
3.299999999999999
  1
×
 41
0.8333333333333328
  7
dcStyle0
 72
     5
 11
93.90000405999999
 21
-10.2999983
 31
0.0
100
AcDbText
  0
TEXT
  5
122
330
1F
100
AcDbEntity
  8
22
 62
     2
100
AcDbText
 10
94.10000411
 20
-10.2999983
 30
0.0
 40
3.0
  1
10
 41
0.8333333352777776
  7
dcStyle0
 72
     5
 11
99.10000418
 21
-10.2999983
 31
0.0
100
AcDbText
  0
TEXT
  5
123
330
1F
100
AcDbEntity
  8
22
 62
     2
100
AcDbText
 10
99.10000419
 20
-8.299998269999998
 30
0.0
 40
1.8
  1
-3
 41
0.833333335185186
  7
dcStyle0
 72
     5
 11
102.10000423
 21
-8.299998269999998
 31
0.0
100
AcDbText
  0
TEXT
  5
124
330
1F
100
AcDbEntity
  8
22
 62
     2
100
AcDbText
 10
103.00000425
 20
-10.2999983
 30
0.0
 40
3.299999999999999
  1
×Ｗ
 41
0.8413461557530505
  7
dcStyle0
 72
     5
 11
110.00000435
 21
-10.2999983
 31
0.0
100
AcDbText
  0
TEXT
  5
125
330
1F
100
AcDbEntity
  8
22
 62
     2
100
AcDbText
 10
69.20000374
 20
-15.29999837
 30
0.0
 40
3.0
  1
  = 0.4
 41
0.8333333352380948
  7
dcStyle0
 72
     5
 11
86.70000397999999
 21
-15.29999837
 31
0.0
100
AcDbText
  0
TEXT
  5
126
330
1F
100
AcDbEntity
  8
22
 62
     2
100
AcDbText
 10
86.70000399999999
 20
-13.29999834
 30
0.0
 40
1.8
  1
-1
 41
0.833333335185186
  7
dcStyle0
 72
     5
 11
89.70000404
 21
-13.29999834
 31
0.0
100
AcDbText
  0
TEXT
  5
127
330
1F
100
AcDbEntity
  8
22
 62
     2
100
AcDbText
 10
90.60000405999999
 20
-15.29999837
 30
0.0
 40
3.299999999999999
  1
×
 41
0.8333333333333328
  7
dcStyle0
 72
     5
 11
93.90000405999999
 21
-15.29999837
 31
0.0
100
AcDbText
  0
TEXT
  5
128
330
1F
100
AcDbEntity
  8
22
 62
     2
100
AcDbText
 10
94.10000411
 20
-15.29999837
 30
0.0
 40
3.0
  1
10
 41
0.8333333352777776
  7
dcStyle0
 72
     5
 11
99.10000418
 21
-15.29999837
 31
0.0
100
AcDbText
  0
TEXT
  5
129
330
1F
100
AcDbEntity
  8
22
 62
     2
100
AcDbText
 10
99.10000419
 20
-13.29999834
 30
0.0
 40
1.8
  1
-3
 41
0.833333335185186
  7
dcStyle0
 72
     5
 11
102.10000423
 21
-13.29999834
 31
0.0
100
AcDbText
  0
TEXT
  5
12A
330
1F
100
AcDbEntity
  8
22
 62
     2
100
AcDbText
 10
103.00000425
 20
-15.29999837
 30
0.0
 40
3.299999999999999
  1
×
 41
0.8333333333333328
  7
dcStyle0
 72
     5
 11
106.30000425
 21
-15.29999837
 31
0.0
100
AcDbText
  0
TEXT
  5
12B
330
1F
100
AcDbEntity
  8
22
 62
     2
100
AcDbText
 10
106.5000043
 20
-15.29999837
 30
0.0
 40
3.0
  1
  1.71
 41
0.8333333351851854
  7
dcStyle0
 72
     5
 11
121.5000045
 21
-15.29999837
 31
0.0
100
AcDbText
  0
TEXT
  5
12C
330
1F
100
AcDbEntity
  8
22
 62
     2
100
AcDbText
 10
121.40000452
 20
-15.29999837
 30
0.0
 40
3.299999999999999
  1
×
 41
0.8333333333333328
  7
dcStyle0
 72
     5
 11
124.70000452
 21
-15.29999837
 31
0.0
100
AcDbText
  0
TEXT
  5
12D
330
1F
100
AcDbEntity
  8
22
 62
     2
100
AcDbText
 10
124.90000457
 20
-15.29999837
 30
0.0
 40
3.0
  1
10
 41
0.8333333352777776
  7
dcStyle0
 72
     5
 11
129.90000464
 21
-15.29999837
 31
0.0
100
AcDbText
  0
TEXT
  5
12E
330
1F
100
AcDbEntity
  8
22
 62
     2
100
AcDbText
 10
129.90000465
 20
-13.29999834
 30
0.0
 40
1.8
  1
3
 41
0.8333333333333333
  7
dcStyle0
 72
     5
 11
131.40000465
 21
-13.29999834
 31
0.0
100
AcDbText
  0
TEXT
  5
12F
330
1F
100
AcDbEntity
  8
22
 62
     2
100
AcDbText
 10
69.20000374
 20
-20.29999844
 30
0.0
 40
3.0
  1
  =
 41
0.8333333355555551
  7
dcStyle0
 72
     5
 11
76.70000386
 21
-20.29999844
 31
0.0
100
AcDbText
  0
TEXT
  5
130
330
1F
100
AcDbEntity
  8
22
 62
     2
100
AcDbText
 10
76.70000385
 20
-20.29999844
 30
0.0
 40
3.0
  1
  4.3
 41
0.8333333355555557
  7
dcStyle0
 72
     5
 11
89.20000405
 21
-20.29999844
 31
0.0
100
AcDbText
  0
TEXT
  5
131
330
1F
100
AcDbEntity
  8
22
 62
     2
100
AcDbText
 10
89.95000404999999
 20
-20.29999844
 30
0.0
 40
3.0
  1
>
  7
dcStyle0
 72
     5
 11
92.95000404999999
 21
-20.29999844
 31
0.0
100
AcDbText
  0
TEXT
  5
132
330
1F
100
AcDbEntity
  8
22
 62
     2
100
AcDbText
 10
93.4500041
 20
-20.29999844
 30
0.0
 40
3.0
  1
 2 
 41
0.8333333355555551
  7
dcStyle0
 72
     5
 11
100.95000422
 21
-20.29999844
 31
0.0
100
AcDbText
  0
TEXT
  5
133
330
1F
100
AcDbEntity
  8
22
 62
     2
100
AcDbText
 10
84.10000396999999
 20
-58.29999900999999
 30
0.0
 40
3.299999999999999
  1
以上より　
 41
0.8413461559818788
  7
dcStyle0
 72
     5
 11
101.60000425
 21
-58.29999900999999
 31
0.0
100
AcDbText
  0
TEXT
  5
134
330
1F
100
AcDbEntity
  8
22
 62
     2
100
AcDbText
 10
101.60000423
 20
-58.29999900999999
 30
0.0
 40
3.5
  1
Ｔ－
 41
0.8333333353174596
  7
dcStyle0
 72
     5
 11
108.60000433
 21
-58.29999900999999
 31
0.0
100
AcDbText
  0
TEXT
  5
135
330
1F
100
AcDbEntity
  8
22
 62
     2
100
AcDbText
 10
108.60000433
 20
-58.29999900999999
 30
0.0
 40
3.0
  1
 2 
 41
0.8333333355555551
  7
dcStyle0
 72
     5
 11
116.10000445
 21
-58.29999900999999
 31
0.0
100
AcDbText
  0
TEXT
  5
136
330
1F
100
AcDbEntity
  8
22
 62
     2
100
AcDbText
 10
116.00000444
 20
-58.29999900999999
 30
0.0
 40
3.299999999999999
  1
となる
 41
0.8413461558801765
  7
dcStyle0
 72
     5
 11
126.5000046
 21
-58.29999900999999
 31
0.0
100
AcDbText
  0
TEXT
  5
137
330
1F
100
AcDbEntity
  8
22
 62
     2
100
AcDbText
 10
-94.0082995704308
 20
86.38330231
 30
0.0
 40
2.5
  1
ベアリングバー：
 41
0.8333333352777776
  7
dcStyle0
 72
     5
 11
-74.0082992904308
 21
86.38330231
 31
0.0
100
AcDbText
  0
TEXT
  5
138
330
1F
100
AcDbEntity
  8
22
 62
     2
100
AcDbText
 10
-74.00829927043081
 20
86.38330231
 30
0.0
 40
2.5
  1
Y-
 41
0.9999999999999998
  7
dcStyle0
 72
     5
 11
-69.00829920043081
 21
86.38330231
 31
0.0
100
AcDbText
  0
TEXT
  5
139
330
1F
100
AcDbEntity
  8
22
 62
     2
100
AcDbText
 10
-71.00829923043082
 20
86.38330231
 30
0.0
 40
2.5
  1
 32 
 41
0.9999999999999998
  7
dcStyle0
 72
     5
 11
-61.00829908043082
 21
86.38330231
 31
0.0
100
AcDbText
  0
TEXT
  5
13A
330
1F
100
AcDbEntity
  8
22
 62
     2
100
AcDbText
 10
-63.50829912043082
 20
86.38330231
 30
0.0
 40
2.5
  1
×
 41
0.8333333333333334
  7
dcStyle0
 72
     5
 11
-61.00829912043082
 21
86.38330231
 31
0.0
100
AcDbText
  0
TEXT
  5
13B
330
1F
100
AcDbEntity
  8
22
 62
     2
100
AcDbText
 10
-61.00829908043082
 20
86.38330231
 30
0.0
 40
2.5
  1
20
 41
0.9999999999999998
  7
dcStyle0
 72
     5
 11
-56.00829901043082
 21
86.38330231
 31
0.0
100
AcDbText
  0
TEXT
  5
13C
330
1F
100
AcDbEntity
  8
22
 62
     2
100
AcDbText
 10
-56.00829901043082
 20
86.38330231
 30
0.0
 40
2.5
  1
×
 41
0.8333333333333334
  7
dcStyle0
 72
     5
 11
-53.50829901043082
 21
86.38330231
 31
0.0
100
AcDbText
  0
TEXT
  5
13D
330
1F
100
AcDbEntity
  8
22
 62
     2
100
AcDbText
 10
-55.50829900043082
 20
86.38330231
 30
0.0
 40
2.5
  1
 4.5 
 41
0.8000000025599998
  7
dcStyle0
 72
     5
 11
-45.50829884043082
 21
86.38330231
 31
0.0
100
AcDbText
  0
TEXT
  5
13E
330
1F
100
AcDbEntity
  8
22
 62
     2
100
AcDbText
 10
-90.29996451043081
 20
82.21663571
 30
0.0
 40
2.5
  1
ツイストバー：
 41
0.8333333352380948
  7
dcStyle0
 72
     5
 11
-72.79996427043082
 21
82.21663571
 31
0.0
100
AcDbText
  0
TEXT
  5
13F
330
1F
100
AcDbEntity
  8
22
 62
     2
100
AcDbText
 10
-72.79996425043082
 20
82.21663571
 30
0.0
 40
2.5
  1
φ
 41
0.8333333333333334
  7
dcStyle0
 72
     5
 11
-70.29996425043082
 21
82.21663571
 31
0.0
100
AcDbText
  0
TEXT
  5
140
330
1F
100
AcDbEntity
  8
22
 62
     2
100
AcDbText
 10
-72.29996424043081
 20
82.21663571
 30
0.0
 40
2.5
  1
 10 
 41
0.9999999999999998
  7
dcStyle0
 72
     5
 11
-62.29996409043081
 21
82.21663571
 31
0.0
100
AcDbText
  0
TEXT
  5
141
330
1F
100
AcDbEntity
  8
22
 62
     2
100
AcDbText
 10
-62.29996409043082
 20
82.21663571
 30
0.0
 40
2.5
  1
絞りパイプ
 41
0.8333333355555557
  7
dcStyle0
 72
     5
 11
-49.79996389043082
 21
82.21663571
 31
0.0
100
AcDbText
  0
TEXT
  5
142
330
1F
100
AcDbEntity
  8
22
 62
     2
100
AcDbText
 10
-86.7666629604308
 20
77.46666843
 30
0.0
 40
2.5
  1
エンドプレート：
 41
0.8333333352777776
  7
dcStyle0
 72
     5
 11
-66.76666268043081
 21
77.46666843
 31
0.0
100
AcDbText
  0
TEXT
  5
143
330
1F
100
AcDbEntity
  8
22
 62
     2
100
AcDbText
 10
-66.76666266043081
 20
77.46666843
 30
0.0
 40
2.5
  1
FB
 41
0.9999999999999998
  7
dcStyle0
 72
     5
 11
-61.76666259043081
 21
77.46666843
 31
0.0
100
AcDbText
  0
TEXT
  5
144
330
1F
100
AcDbEntity
  8
22
 62
     2
100
AcDbText
 10
-63.76666262043082
 20
77.46666843
 30
0.0
 40
2.5
  1
 4.5 
 41
0.8000000025599998
  7
dcStyle0
 72
     5
 11
-53.76666246043082
 21
77.46666843
 31
0.0
100
AcDbText
  0
TEXT
  5
145
330
1F
100
AcDbEntity
  8
22
 62
     2
100
AcDbText
 10
-56.26666250043082
 20
77.46666843
 30
0.0
 40
2.5
  1
×
 41
0.8333333333333334
  7
dcStyle0
 72
     5
 11
-53.76666250043082
 21
77.46666843
 31
0.0
100
AcDbText
  0
TEXT
  5
146
330
1F
100
AcDbEntity
  8
22
 62
     2
100
AcDbText
 10
-55.76666250043082
 20
77.46666843
 30
0.0
 40
2.5
  1
 32 
 41
0.9999999999999998
  7
dcStyle0
 72
     5
 11
-45.76666235043082
 21
77.46666843
 31
0.0
100
AcDbText
  0
TEXT
  5
147
330
1F
100
AcDbEntity
  8
22
 62
     2
100
AcDbText
 10
-136.6333328504308
 20
71.43333504
 30
0.0
 40
2.5
  1
 38 
 41
1.0
  7
dcStyle0
 72
     5
 11
-126.6333327004308
 21
71.43333504
 31
0.0
100
AcDbText
  0
TEXT
  5
148
330
1F
100
AcDbEntity
  8
22
 62
     2
100
AcDbText
 10
-121.7583360704308
 20
82.93336936
 30
0.0
 40
2.5
  1
脱着ピン
 41
0.8333333354166671
  7
dcStyle0
 72
     5
 11
-111.7583359204308
 21
82.93336936
 31
0.0
100
AcDbText
  0
TEXT
  5
149
330
1F
100
AcDbEntity
  8
22
 62
     2
100
AcDbText
 10
-136.6333328504308
 20
-57.56666371999999
 30
0.0
 40
3.0
  1
 18 
 41
0.8333333354166671
  7
dcStyle0
 72
     5
 11
-126.6333327004308
 21
-57.56666371999999
 31
0.0
100
AcDbText
  0
TEXT
  5
14A
330
1F
100
AcDbEntity
  8
22
 62
     2
100
AcDbText
 10
-99.05003299043081
 20
-57.56666371999999
 30
0.0
 40
3.0
  1
 382 
 41
0.8333333355555557
  7
dcStyle0
 72
     5
 11
-86.5500327904308
 21
-57.56666371999999
 31
0.0
100
AcDbText
  0
TEXT
  5
14B
330
1F
100
AcDbEntity
  8
22
 62
     2
100
AcDbText
 10
-58.96665895043081
 20
-57.56666371999999
 30
0.0
 40
3.0
  1
 18 
 41
0.8333333354166665
  7
dcStyle0
 72
     5
 11
-48.96665880043081
 21
-57.56666371999999
 31
0.0
100
AcDbText
  0
TEXT
  5
14C
330
1F
100
AcDbEntity
  8
22
 62
     2
100
AcDbText
 10
-99.05003151043081
 20
-50.56666362
 30
0.0
 40
3.0
  1
 418 
 41
0.8333333355555557
  7
dcStyle0
 72
     5
 11
-86.55003131043081
 21
-50.56666362
 31
0.0
100
AcDbText
  0
TEXT
  5
14D
330
1F
100
AcDbEntity
  8
22
 62
     2
100
AcDbText
 10
-132.8666657104308
 20
-45.06666353999999
 30
0.0
 40
2.7
  1
セラミック充填
 41
0.8474576289654043
  7
dcStyle0
 72
     5
 11
-111.8666654104308
 21
-45.06666353999999
 31
0.0
100
AcDbText
  0
TEXT
  5
14E
330
1F
100
AcDbEntity
  8
22
 62
     2
100
AcDbText
 10
-21.46665772642445
 20
42.93336866480766
 30
0.0
 40
3.0
  1
 100 
 50
90.0000001836389
 41
0.8333333355555552
  7
dcStyle0
 72
     5
 11
-21.46665776648824
 21
55.43336886480765
 31
0.0
100
AcDbText
  0
TEXT
  5
14F
330
1F
100
AcDbEntity
  8
22
 62
     2
100
AcDbText
 10
-21.46665772642445
 20
26.26670150480765
 30
0.0
 40
3.0
  1
 100 
 50
90.0000001836389
 41
0.8333333355555559
  7
dcStyle0
 72
     5
 11
-21.46665776648824
 21
38.76670170480766
 31
0.0
100
AcDbText
  0
TEXT
  5
150
330
1F
100
AcDbEntity
  8
22
 62
     2
100
AcDbText
 10
-28.46665782642444
 20
58.18333484480766
 30
0.0
 40
3.0
  1
 10 
 50
90.0000001836389
 41
0.8333333354166659
  7
dcStyle0
 72
     5
 11
-28.46665785847548
 21
68.18333499480765
 31
0.0
100
AcDbText
  0
TEXT
  5
151
330
1F
100
AcDbEntity
  8
22
 62
     2
100
AcDbText
 10
-28.46665782642444
 20
9.599968204807654
 30
0.0
 40
3.0
  1
 500 
 50
90.0000001836389
 41
0.8333333355555556
  7
dcStyle0
 72
     5
 11
-28.46665786648823
 21
22.09996840480765
 31
0.0
100
AcDbText
  0
TEXT
  5
152
330
1F
100
AcDbEntity
  8
22
 62
     2
100
AcDbText
 10
-28.46665782642444
 20
-36.48336781519234
 30
0.0
 40
3.0
  1
 10 
 50
90.0000001836389
 41
0.8333333354166659
  7
dcStyle0
 72
     5
 11
-28.46665785847548
 21
-26.48336766519235
 31
0.0
100
AcDbText
  0
TEXT
  5
153
330
1F
100
AcDbEntity
  8
22
 62
     2
100
AcDbText
 10
-35.46665793642444
 20
9.600033334807653
 30
0.0
 40
3.0
  1
 520 
 50
90.0000001836389
 41
0.8333333355555558
  7
dcStyle0
 72
     5
 11
-35.46665797648824
 21
22.10003353480766
 31
0.0
100
AcDbText
  0
TEXT
  5
154
330
1F
100
AcDbEntity
  8
22
 62
     2
100
AcDbText
 10
12.06667622357556
 20
49.18333470480766
 30
0.0
 40
3.0
  1
 60 
 50
90.0000001836389
 41
0.8333333354166665
  7
dcStyle0
 72
     5
 11
12.06667619152452
 21
59.18333485480766
 31
0.0
100
AcDbText
  0
TEXT
  5
155
330
1F
100
AcDbEntity
  8
22
 62
     2
100
AcDbText
 10
12.06667622357556
 20
9.600033184807655
 30
0.0
 40
3.0
  1
 400 
 50
90.0000001836389
 41
0.8333333355555553
  7
dcStyle0
 72
     5
 11
12.06667618351176
 21
22.10003338480765
 31
0.0
100
AcDbText
  0
TEXT
  5
156
330
1F
100
AcDbEntity
  8
22
 62
     2
100
AcDbText
 10
12.06667622357556
 20
-27.48333424519235
 30
0.0
 40
3.0
  1
 60 
 50
90.0000001836389
 41
0.8333333354166671
  7
dcStyle0
 72
     5
 11
12.06667619152452
 21
-17.48333409519234
 31
0.0
100
AcDbText
  0
TEXT
  5
157
330
1F
100
AcDbEntity
  8
22
 62
     2
100
AcDbText
 10
-3.13332059043082
 20
79.68330197999998
 30
0.0
 40
2.5
  1
φ
 41
0.6666666666666666
  7
dcStyle0
 72
     5
 11
-1.13332059043082
 21
79.68330197999998
 31
0.0
100
AcDbText
  0
TEXT
  5
158
330
1F
100
AcDbEntity
  8
22
 62
     2
100
AcDbText
 10
-3.13332059043082
 20
79.68330197999998
 30
0.0
 40
2.5
  1
 13 
 41
0.8000000023999999
  7
dcStyle0
 72
     5
 11
4.866679529569179
 21
79.68330197999998
 31
0.0
100
AcDbText
  0
TEXT
  5
159
330
1F
100
AcDbEntity
  8
22
 62
     2
100
AcDbText
 10
2.86667949956918
 20
79.68330197999998
 30
0.0
 40
2.5
  1
ｱﾝｶｰ
 41
0.8000000023999999
  7
dcStyle0
 72
     5
 11
10.86667961956918
 21
79.68330197999998
 31
0.0
100
AcDbText
  0
TEXT
  5
15A
330
1F
100
AcDbEntity
  8
22
 62
     2
100
AcDbText
 10
-24.96665777043082
 20
-41.98333462
 30
0.0
 40
3.0
  1
 32 
 41
0.8333333354166667
  7
dcStyle0
 72
     5
 11
-14.96665762043082
 21
-41.98333462
 31
0.0
100
AcDbText
  0
TEXT
  5
15B
330
1F
100
AcDbEntity
  8
22
 62
     2
100
AcDbText
 10
-24.96665777043082
 20
-48.98333473
 30
0.0
 40
3.0
  1
 38 
 41
0.8333333354166667
  7
dcStyle0
 72
     5
 11
-14.96665762043082
 21
-48.98333473
 31
0.0
100
AcDbText
  0
TEXT
  5
15C
330
1F
100
AcDbEntity
  8
22
 62
     2
100
AcDbText
 10
-24.96665777043082
 20
70.68333503
 30
0.0
 40
3.0
  1
 12 
 41
0.8333333354166667
  7
dcStyle0
 72
     5
 11
-14.96665762043082
 21
70.68333503
 31
0.0
100
AcDbText
  0
TEXT
  5
15D
330
1F
100
AcDbEntity
  8
22
 62
     2
100
AcDbText
 10
-50.46665815043082
 20
-41.98333462
 30
0.0
 40
2.5
  1
L-
 41
0.8000000023999996
  7
dcStyle0
 72
     5
 11
-46.46665809043082
 21
-41.98333462
 31
0.0
100
AcDbText
  0
TEXT
  5
15E
330
1F
100
AcDbEntity
  8
22
 62
     2
100
AcDbText
 10
-47.96665812043082
 20
-41.98333462
 30
0.0
 40
2.5
  1
 6 
 41
0.8000000021333332
  7
dcStyle0
 72
     5
 11
-41.96665804043082
 21
-41.98333462
 31
0.0
100
AcDbText
  0
TEXT
  5
15F
330
1F
100
AcDbEntity
  8
22
 62
     2
100
AcDbText
 10
-43.96665806043082
 20
-41.98333462
 30
0.0
 40
2.5
  1
×
 41
0.6666666666666666
  7
dcStyle0
 72
     5
 11
-41.96665806043082
 21
-41.98333462
 31
0.0
100
AcDbText
  0
TEXT
  5
160
330
1F
100
AcDbEntity
  8
22
 62
     2
100
AcDbText
 10
-43.96665806043082
 20
-41.98333462
 30
0.0
 40
2.5
  1
 38 
 41
0.8000000023999996
  7
dcStyle0
 72
     5
 11
-35.96665794043082
 21
-41.98333462
 31
0.0
100
AcDbText
  0
TEXT
  5
161
330
1F
100
AcDbEntity
  8
22
 62
     2
100
AcDbText
 10
-37.96665797043082
 20
-41.98333462
 30
0.0
 40
2.5
  1
×
 41
0.6666666666666666
  7
dcStyle0
 72
     5
 11
-35.96665797043082
 21
-41.98333462
 31
0.0
100
AcDbText
  0
TEXT
  5
162
330
1F
100
AcDbEntity
  8
22
 62
     2
100
AcDbText
 10
-37.46665796043082
 20
-41.98333462
 30
0.0
 40
2.5
  1
 60 
 41
0.8000000023999999
  7
dcStyle0
 72
     5
 11
-29.46665784043082
 21
-41.98333462
 31
0.0
100
AcDbText
  0
TEXT
  5
163
330
1F
100
AcDbEntity
  8
22
 62
     2
100
AcDbText
 10
-91.41666605043082
 20
-64.56666383
 30
0.0
 40
3.0
  1
 27.9 
 41
0.8333333351851854
  7
dcStyle0
 72
     5
 11
-76.41666585043082
 21
-64.56666383
 31
0.0
100
AcDbText
  0
TEXT
  5
164
330
1F
100
AcDbEntity
  8
22
 62
     2
100
AcDbText
 10
-53.46665882043082
 20
-62.56666379999999
 30
0.0
 40
2.5
  1
FB
 41
0.8000000023999996
  7
dcStyle0
 72
     5
 11
-49.46665876043082
 21
-62.56666379999999
 31
0.0
100
AcDbText
  0
TEXT
  5
165
330
1F
100
AcDbEntity
  8
22
 62
     2
100
AcDbText
 10
-50.96665879043082
 20
-62.56666379999999
 30
0.0
 40
2.5
  1
 9 
 41
0.8000000021333332
  7
dcStyle0
 72
     5
 11
-44.96665871043082
 21
-62.56666379999999
 31
0.0
100
AcDbText
  0
TEXT
  5
166
330
1F
100
AcDbEntity
  8
22
 62
     2
100
AcDbText
 10
-46.76665872043081
 20
-62.56666379999999
 30
0.0
 40
2.5
  1
×
 41
0.6666666666666666
  7
dcStyle0
 72
     5
 11
-44.76665872043081
 21
-62.56666379999999
 31
0.0
100
AcDbText
  0
TEXT
  5
167
330
1F
100
AcDbEntity
  8
22
 62
     2
100
AcDbText
 10
-46.76665872043081
 20
-62.56666379999999
 30
0.0
 40
2.5
  1
 32 
 41
0.8000000023999996
  7
dcStyle0
 72
     5
 11
-38.76665860043082
 21
-62.56666379999999
 31
0.0
100
AcDbText
  0
TEXT
  5
168
330
1F
100
AcDbEntity
  8
22
 62
     2
100
AcDbText
 10
24.20000306956918
 20
-78.24999925
 30
0.0
 40
3.0
  1
本体重量：
 41
0.6944444478395061
  7
dcStyle0
 72
     5
 11
36.70000326956918
 21
-78.24999925
 31
0.0
100
AcDbText
  0
TEXT
  5
169
330
1F
100
AcDbEntity
  8
22
 62
     2
100
AcDbText
 10
36.70000325956918
 20
-78.24999925
 30
0.0
 40
3.0
  1
 11.3
 41
0.666666670222222
  7
dcStyle0
 72
     5
 11
46.70000341956918
 21
-78.24999925
 31
0.0
100
AcDbText
  0
TEXT
  5
16A
330
1F
100
AcDbEntity
  8
22
 62
     2
100
AcDbText
 10
46.70000340956918
 20
-78.24999925
 30
0.0
 40
3.0
  1
Kg
 41
0.6666666699999997
  7
dcStyle0
 72
     5
 11
50.70000346956918
 21
-78.24999925
 31
0.0
100
AcDbText
  0
TEXT
  5
16B
330
1F
100
AcDbEntity
  8
22
 62
     2
100
AcDbText
 10
24.20000306956918
 20
-82.24999930999999
 30
0.0
 40
3.0
  1
受枠重量：
 41
0.6944444478395061
  7
dcStyle0
 72
     5
 11
36.70000326956918
 21
-82.24999930999999
 31
0.0
100
AcDbText
  0
TEXT
  5
16C
330
1F
100
AcDbEntity
  8
22
 62
     2
100
AcDbText
 10
36.70000325956918
 20
-82.24999930999999
 30
0.0
 40
3.0
  1
  6.5
 41
0.666666670222222
  7
dcStyle0
 72
     5
 11
46.70000341956918
 21
-82.24999930999999
 31
0.0
100
AcDbText
  0
TEXT
  5
16D
330
1F
100
AcDbEntity
  8
22
 62
     2
100
AcDbText
 10
46.70000340956918
 20
-82.24999930999999
 30
0.0
 40
3.0
  1
Kg
 41
0.6666666699999997
  7
dcStyle0
 72
     5
 11
50.70000346956918
 21
-82.24999930999999
 31
0.0
100
AcDbText
  0
TEXT
  5
16E
330
1F
100
AcDbEntity
  8
22
 62
     2
100
AcDbText
 10
38.15000327956918
 20
-94.64999949999999
 30
0.0
 40
3.0
  1
戸田　
 41
0.8536585384889945
  7
dcStyle0
 72
     5
 11
48.65000343956918
 21
-94.64999949999999
 31
0.0
100
AcDbText
  0
TEXT
  5
16F
330
1F
100
AcDbEntity
  8
22
 62
     2
100
AcDbText
 10
-124.4397357021067
 20
78.43336933341689
 30
0.0
 40
2.5
  1
（φ１０）
 41
0.8333333355555557
  7
dcStyle0
 72
     5
 11
-111.9397355021067
 21
78.43336933341689
 31
0.0
100
AcDbText
  0
LINE
  5
170
330
1F
100
AcDbEntity
  8
32
  6
Continuous
 62
     4
370
    25
100
AcDbLine
 10
-10.7999974489212
 20
-87.49999938905239
 30
0.0
 11
-10.7999974489212
 21
-88.16666607558727
 31
0.0
  0
LINE
  5
171
330
1F
100
AcDbEntity
  8
32
  6
Continuous
 62
     4
370
    25
100
AcDbLine
 10
-10.7999974489212
 20
-88.16666607558727
 30
0.0
 11
-9.799997419118881
 21
-88.16666607558727
 31
0.0
  0
LINE
  5
172
330
1F
100
AcDbEntity
  8
32
  6
Continuous
 62
     4
370
    25
100
AcDbLine
 10
-9.799997419118881
 20
-88.16666607558727
 30
0.0
 11
-8.466664046049118
 21
-90.49999947845936
 31
0.0
  0
LINE
  5
173
330
1F
100
AcDbEntity
  8
32
  6
Continuous
 62
     4
370
    25
100
AcDbLine
 10
-8.466664046049118
 20
-90.49999947845936
 30
0.0
 11
-8.466664046049118
 21
-91.49999950826168
 31
0.0
  0
LINE
  5
174
330
1F
100
AcDbEntity
  8
32
  6
Continuous
 62
     4
370
    25
100
AcDbLine
 10
-8.466664046049118
 20
-91.49999950826168
 30
0.0
 11
-8.133330702781677
 21
-91.83333285152912
 31
0.0
  0
LINE
  5
175
330
1F
100
AcDbEntity
  8
32
  6
Continuous
 62
     4
370
    25
100
AcDbLine
 10
-8.133330702781677
 20
-91.83333285152912
 30
0.0
 11
-8.133330702781677
 21
-98.1666663736105
 31
0.0
  0
LINE
  5
176
330
1F
100
AcDbEntity
  8
32
  6
Continuous
 62
     4
370
    25
100
AcDbLine
 10
-8.133330702781677
 20
-98.1666663736105
 30
0.0
 11
-6.799997329711914
 21
-98.1666663736105
 31
0.0
  0
LINE
  5
177
330
1F
100
AcDbEntity
  8
32
  6
Continuous
 62
     4
370
    25
100
AcDbLine
 10
-6.799997329711914
 20
-98.1666663736105
 30
0.0
 11
-6.799997329711914
 21
-91.83333285152912
 31
0.0
  0
LINE
  5
178
330
1F
100
AcDbEntity
  8
32
  6
Continuous
 62
     4
370
    25
100
AcDbLine
 10
-6.799997329711914
 20
-91.83333285152912
 30
0.0
 11
-6.466663986444473
 21
-91.49999950826168
 31
0.0
  0
LINE
  5
179
330
1F
100
AcDbEntity
  8
32
  6
Continuous
 62
     4
370
    25
100
AcDbLine
 10
-6.466663986444473
 20
-91.49999950826168
 30
0.0
 11
-6.466663986444473
 21
-90.49999947845936
 31
0.0
  0
LINE
  5
17A
330
1F
100
AcDbEntity
  8
32
  6
Continuous
 62
     4
370
    25
100
AcDbLine
 10
-6.466663986444473
 20
-90.49999947845936
 30
0.0
 11
-5.13333061337471
 21
-88.16666607558727
 31
0.0
  0
LINE
  5
17B
330
1F
100
AcDbEntity
  8
32
  6
Continuous
 62
     4
370
    25
100
AcDbLine
 10
-5.13333061337471
 20
-88.16666607558727
 30
0.0
 11
-4.133330583572388
 21
-88.16666607558727
 31
0.0
  0
LINE
  5
17C
330
1F
100
AcDbEntity
  8
32
  6
Continuous
 62
     4
370
    25
100
AcDbLine
 10
-4.133330583572388
 20
-88.16666607558727
 30
0.0
 11
-4.133330583572388
 21
-87.49999938905239
 31
0.0
  0
LINE
  5
17D
330
1F
100
AcDbEntity
  8
32
  6
Continuous
 62
     4
370
    25
100
AcDbLine
 10
-4.133330583572388
 20
-87.49999938905239
 30
0.0
 11
-5.466663956642151
 21
-87.49999938905239
 31
0.0
  0
LINE
  5
17E
330
1F
100
AcDbEntity
  8
32
  6
Continuous
 62
     4
370
    25
100
AcDbLine
 10
-5.466663956642151
 20
-87.49999938905239
 30
0.0
 11
-7.466664016246796
 21
-89.49999944865704
 31
0.0
  0
LINE
  5
17F
330
1F
100
AcDbEntity
  8
32
  6
Continuous
 62
     4
370
    25
100
AcDbLine
 10
-7.466664016246796
 20
-89.49999944865704
 30
0.0
 11
-9.46666407585144
 21
-87.49999938905239
 31
0.0
  0
LINE
  5
180
330
1F
100
AcDbEntity
  8
32
  6
Continuous
 62
     4
370
    25
100
AcDbLine
 10
-9.46666407585144
 20
-87.49999938905239
 30
0.0
 11
-10.7999974489212
 21
-87.49999938905239
 31
0.0
  0
CIRCLE
  5
181
330
1F
100
AcDbEntity
  8
32
  6
Continuous
 62
     4
370
    25
100
AcDbCircle
 10
-7.466664016246796
 20
-88.49999941885471
 30
0.0
 40
0.6666666865348816
  0
ARC
  5
182
330
1F
100
AcDbEntity
  8
32
  6
Continuous
 62
     4
370
    25
100
AcDbCircle
 10
-7.500348327283586
 20
-92.06772632602278
 30
0.0
 40
5.000000149011612
100
AcDbArc
 50
66.00000000000014
 51
113.0000000000003
  0
LINE
  5
183
330
1F
100
AcDbEntity
  8
32
  6
Continuous
 62
     4
370
    25
100
AcDbLine
 10
-9.466667465368957
 20
-86.99999938160181
 30
0.0
 11
-9.466667465368957
 21
-82.99999932199717
 31
0.0
  0
LINE
  5
184
330
1F
100
AcDbEntity
  8
32
  6
Continuous
 62
     4
370
    25
100
AcDbLine
 10
-9.466667465368957
 20
-83.99999933689833
 30
0.0
 11
-11.46666749517128
 21
-83.69999933242798
 31
0.0
  0
LINE
  5
185
330
1F
100
AcDbEntity
  8
32
  6
Continuous
 62
     4
370
    25
100
AcDbLine
 10
-11.46666749517128
 20
-83.69999933242798
 30
0.0
 11
-11.46666749517128
 21
-84.29999934136868
 31
0.0
  0
LINE
  5
186
330
1F
100
AcDbEntity
  8
32
  6
Continuous
 62
     4
370
    25
100
AcDbLine
 10
-11.46666749517128
 20
-84.29999934136868
 30
0.0
 11
-9.466667465368957
 21
-83.99999933689833
 31
0.0
  0
LINE
  5
187
330
1F
100
AcDbEntity
  8
32
  6
Continuous
 62
     4
370
    25
100
AcDbLine
 10
-9.466667465368957
 20
-83.99999933689833
 30
0.0
 11
-12.46666751007244
 21
-83.99999933689833
 31
0.0
  0
LINE
  5
188
330
1F
100
AcDbEntity
  8
32
  6
Continuous
 62
     4
370
    25
100
AcDbLine
 10
-9.466667465368957
 20
-83.99999933689833
 30
0.0
 11
-5.466667405764312
 21
-83.99999933689833
 31
0.0
  0
LINE
  5
189
330
1F
100
AcDbEntity
  8
32
  6
Continuous
 62
     4
370
    25
100
AcDbLine
 10
-5.466667405764312
 20
-83.99999933689833
 30
0.0
 11
-3.46666737596199
 21
-83.69999933242798
 31
0.0
  0
LINE
  5
18A
330
1F
100
AcDbEntity
  8
32
  6
Continuous
 62
     4
370
    25
100
AcDbLine
 10
-3.46666737596199
 20
-83.69999933242798
 30
0.0
 11
-3.46666737596199
 21
-84.29999934136868
 31
0.0
  0
LINE
  5
18B
330
1F
100
AcDbEntity
  8
32
  6
Continuous
 62
     4
370
    25
100
AcDbLine
 10
-3.46666737596199
 20
-84.29999934136868
 30
0.0
 11
-5.466667405764312
 21
-83.99999933689833
 31
0.0
  0
LINE
  5
18C
330
1F
100
AcDbEntity
  8
32
  6
Continuous
 62
     4
370
    25
100
AcDbLine
 10
-5.466667405764312
 20
-83.99999933689833
 30
0.0
 11
-2.466667361060828
 21
-83.99999933689833
 31
0.0
  0
LINE
  5
18D
330
1F
100
AcDbEntity
  8
32
  6
Continuous
 62
     4
370
    25
100
AcDbLine
 10
-5.466667405764312
 20
-82.99999932199717
 30
0.0
 11
-5.466667405764312
 21
-86.99999938160181
 31
0.0
  0
LINE
  5
18E
330
1F
100
AcDbEntity
  8
32
  6
Continuous
 62
     4
370
    25
100
AcDbLine
 10
-7.799997404217716
 20
-86.99999938160181
 30
0.0
 11
-8.166664418081446
 21
-85.43332932194069
 31
0.0
  0
LINE
  5
18F
330
1F
100
AcDbEntity
  8
32
  6
Continuous
 62
     4
370
    25
100
AcDbLine
 10
-7.799997404217716
 20
-86.99999938160181
 30
0.0
 11
-8.966667457918373
 21
-84.99999935179949
 31
0.0
  0
LINE
  5
190
330
1F
100
AcDbEntity
  8
32
  6
Continuous
 62
     4
370
    25
100
AcDbLine
 10
-11.73333753546089
 20
-80.29999928176403
 30
0.0
 11
-12.90000758916154
 21
-78.29999925196171
 31
0.0
  0
LINE
  5
191
330
1F
100
AcDbEntity
  8
32
  6
Continuous
 62
     4
370
    25
100
AcDbLine
 10
-21.23333748628705
 20
-78.29999925196171
 30
0.0
 11
-12.90000758916154
 21
-78.29999925196171
 31
0.0
  0
LINE
  5
192
330
1F
100
AcDbEntity
  8
32
  6
Continuous
 62
     4
370
    25
100
AcDbLine
 10
-7.132992999747326
 20
-87.83330017526896
 30
0.0
 11
-6.899660004670359
 21
-86.2333001514271
 31
0.0
  0
LINE
  5
193
330
1F
100
AcDbEntity
  8
32
  6
Continuous
 62
     4
370
    25
100
AcDbLine
 10
-7.132992999747326
 20
-87.83330017526896
 30
0.0
 11
-5.999663019175312
 21
-85.83330014546664
 31
0.0
  0
LINE
  5
194
330
1F
100
AcDbEntity
  8
32
  6
Continuous
 62
     4
370
    25
100
AcDbLine
 10
-3.532992946103146
 20
-82.16663024524794
 30
0.0
 11
-1.099662946159622
 21
-77.96663018266307
 31
0.0
  0
LINE
  5
195
330
1F
100
AcDbEntity
  8
32
  6
Continuous
 62
     4
370
    25
100
AcDbLine
 10
-1.099662946159622
 20
-77.96663018266307
 30
0.0
 11
6.233666936064726
 21
-77.96663018266307
 31
0.0
  0
LINE
  5
196
330
1F
100
AcDbEntity
  8
32
  6
Continuous
 62
     4
370
    25
100
AcDbLine
 10
-10.7999974489212
 20
-86.99999938160181
 30
0.0
 11
-10.7999974489212
 21
-84.79999934881926
 31
0.0
  0
LINE
  5
197
330
1F
100
AcDbEntity
  8
32
  6
Continuous
 62
     4
370
    25
100
AcDbLine
 10
-10.7999974489212
 20
-83.1999993249774
 30
0.0
 11
-10.7999974489212
 21
-76.9999992325902
 31
0.0
  0
LINE
  5
198
330
1F
100
AcDbEntity
  8
32
  6
Continuous
 62
     4
370
    25
100
AcDbLine
 10
-10.7999974489212
 20
-77.99999924749136
 30
0.0
 11
-8.799997419118881
 21
-77.69999924302101
 31
0.0
  0
LINE
  5
199
330
1F
100
AcDbEntity
  8
32
  6
Continuous
 62
     4
370
    25
100
AcDbLine
 10
-8.799997419118881
 20
-78.29999925196171
 30
0.0
 11
-8.799997419118881
 21
-77.69999924302101
 31
0.0
  0
LINE
  5
19A
330
1F
100
AcDbEntity
  8
32
  6
Continuous
 62
     4
370
    25
100
AcDbLine
 10
-8.799997419118881
 20
-78.29999925196171
 30
0.0
 11
-10.7999974489212
 21
-77.99999924749136
 31
0.0
  0
LINE
  5
19B
330
1F
100
AcDbEntity
  8
32
  6
Continuous
 62
     4
370
    25
100
AcDbLine
 10
-10.7999974489212
 20
-77.99999924749136
 30
0.0
 11
-4.133327122529295
 21
-77.99999924749136
 31
0.0
  0
LINE
  5
19C
330
1F
100
AcDbEntity
  8
32
  6
Continuous
 62
     4
370
    25
100
AcDbLine
 10
-4.133327122529295
 20
-77.99999924749136
 30
0.0
 11
-6.133327152331617
 21
-77.69999924302101
 31
0.0
  0
LINE
  5
19D
330
1F
100
AcDbEntity
  8
32
  6
Continuous
 62
     4
370
    25
100
AcDbLine
 10
-6.133327152331617
 20
-78.29999925196171
 30
0.0
 11
-6.133327152331617
 21
-77.69999924302101
 31
0.0
  0
LINE
  5
19E
330
1F
100
AcDbEntity
  8
32
  6
Continuous
 62
     4
370
    25
100
AcDbLine
 10
-6.133327152331617
 20
-78.29999925196171
 30
0.0
 11
-4.133327122529295
 21
-77.99999924749136
 31
0.0
  0
LINE
  5
19F
330
1F
100
AcDbEntity
  8
32
  6
Continuous
 62
     4
370
    25
100
AcDbLine
 10
-4.133327122529295
 20
-86.99999938160181
 30
0.0
 11
-4.133327122529295
 21
-84.79999934881926
 31
0.0
  0
LINE
  5
1A0
330
1F
100
AcDbEntity
  8
32
  6
Continuous
 62
     4
370
    25
100
AcDbLine
 10
-4.133327122529295
 20
-83.1999993249774
 30
0.0
 11
-4.133327122529295
 21
-76.9999992325902
 31
0.0
  0
LINE
  5
1A1
330
1F
100
AcDbEntity
  8
32
  6
Continuous
 62
     4
370
    25
100
AcDbLine
 10
-15.29999751597643
 20
-87.49999938905239
 30
0.0
 11
-11.29999745637178
 21
-87.49999938905239
 31
0.0
  0
LINE
  5
1A2
330
1F
100
AcDbEntity
  8
32
  6
Continuous
 62
     4
370
    25
100
AcDbLine
 10
-14.29999750107527
 20
-87.49999938905239
 30
0.0
 11
-14.59999750554562
 21
-85.49999935925007
 31
0.0
  0
LINE
  5
1A3
330
1F
100
AcDbEntity
  8
32
  6
Continuous
 62
     4
370
    25
100
AcDbLine
 10
-14.59999750554562
 20
-85.49999935925007
 30
0.0
 11
-13.99999749660492
 21
-85.49999935925007
 31
0.0
  0
LINE
  5
1A4
330
1F
100
AcDbEntity
  8
32
  6
Continuous
 62
     4
370
    25
100
AcDbLine
 10
-13.99999749660492
 20
-85.49999935925007
 30
0.0
 11
-14.29999750107527
 21
-87.49999938905239
 31
0.0
  0
LINE
  5
1A5
330
1F
100
AcDbEntity
  8
32
  6
Continuous
 62
     4
370
    25
100
AcDbLine
 10
-14.29999750107527
 20
-87.49999938905239
 30
0.0
 11
-14.29999750107527
 21
-84.49999934434891
 31
0.0
  0
LINE
  5
1A6
330
1F
100
AcDbEntity
  8
32
  6
Continuous
 62
     4
370
    25
100
AcDbLine
 10
-14.29999750107527
 20
-89.49999941885471
 30
0.0
 11
-14.29999750107527
 21
-87.49999938905239
 31
0.0
  0
LINE
  5
1A7
330
1F
100
AcDbEntity
  8
32
  6
Continuous
 62
     4
370
    25
100
AcDbLine
 10
-14.59999750554562
 20
-91.49999944865704
 30
0.0
 11
-14.29999750107527
 21
-89.49999941885471
 31
0.0
  0
LINE
  5
1A8
330
1F
100
AcDbEntity
  8
32
  6
Continuous
 62
     4
370
    25
100
AcDbLine
 10
-14.59999750554562
 20
-91.49999944865704
 30
0.0
 11
-13.99999749660492
 21
-91.49999944865704
 31
0.0
  0
LINE
  5
1A9
330
1F
100
AcDbEntity
  8
32
  6
Continuous
 62
     4
370
    25
100
AcDbLine
 10
-13.99999749660492
 20
-91.49999944865704
 30
0.0
 11
-14.29999750107527
 21
-89.49999941885471
 31
0.0
  0
LINE
  5
1AA
330
1F
100
AcDbEntity
  8
32
  6
Continuous
 62
     4
370
    25
100
AcDbLine
 10
-14.29999750107527
 20
-92.4999994635582
 30
0.0
 11
-14.29999750107527
 21
-89.49999941885471
 31
0.0
  0
LINE
  5
1AB
330
1F
100
AcDbEntity
  8
32
  6
Continuous
 62
     4
370
    25
100
AcDbLine
 10
-15.29999751597643
 20
-89.49999941885471
 30
0.0
 11
-9.799997434020042
 21
-89.49999941885471
 31
0.0
  0
LINE
  5
1AC
330
1F
100
AcDbEntity
  8
32
  6
Continuous
 62
     4
370
    25
100
AcDbLine
 10
-3.633327115078714
 20
-87.49999938905239
 30
0.0
 11
2.366672974328253
 21
-87.49999938905239
 31
0.0
  0
LINE
  5
1AD
330
1F
100
AcDbEntity
  8
32
  6
Continuous
 62
     4
370
    25
100
AcDbLine
 10
1.066672954956744
 20
-89.49999941885471
 30
0.0
 11
1.366672959427092
 21
-87.49999938905239
 31
0.0
  0
LINE
  5
1AE
330
1F
100
AcDbEntity
  8
32
  6
Continuous
 62
     4
370
    25
100
AcDbLine
 10
1.066672954956744
 20
-89.49999941885471
 30
0.0
 11
1.66667296389744
 21
-89.49999941885471
 31
0.0
  0
LINE
  5
1AF
330
1F
100
AcDbEntity
  8
32
  6
Continuous
 62
     4
370
    25
100
AcDbLine
 10
1.66667296389744
 20
-89.49999941885471
 30
0.0
 11
1.366672959427092
 21
-87.49999938905239
 31
0.0
  0
LINE
  5
1B0
330
1F
100
AcDbEntity
  8
32
  6
Continuous
 62
     4
370
    25
100
AcDbLine
 10
1.366672959427092
 20
-98.16669952968806
 30
0.0
 11
1.366672959427092
 21
-87.49999938905239
 31
0.0
  0
LINE
  5
1B1
330
1F
100
AcDbEntity
  8
32
  6
Continuous
 62
     4
370
    25
100
AcDbLine
 10
1.366672959427092
 20
-98.16669952968806
 30
0.0
 11
1.066672954956744
 21
-96.16669949988574
 31
0.0
  0
LINE
  5
1B2
330
1F
100
AcDbEntity
  8
32
  6
Continuous
 62
     4
370
    25
100
AcDbLine
 10
1.066672954956744
 20
-96.16669949988574
 30
0.0
 11
1.66667296389744
 21
-96.16669949988574
 31
0.0
  0
LINE
  5
1B3
330
1F
100
AcDbEntity
  8
32
  6
Continuous
 62
     4
370
    25
100
AcDbLine
 10
1.66667296389744
 20
-96.16669949988574
 30
0.0
 11
1.366672959427092
 21
-98.16669952968806
 31
0.0
  0
LINE
  5
1B4
330
1F
100
AcDbEntity
  8
32
  6
Continuous
 62
     4
370
    25
100
AcDbLine
 10
-5.633327144881036
 20
-98.16669952968806
 30
0.0
 11
2.366672974328253
 21
-98.16669952968806
 31
0.0
  0
LINE
  5
1B5
330
1F
100
AcDbEntity
  8
32
  6
Continuous
 62
     4
370
    25
100
AcDbLine
 10
-8.133327372868806
 20
-103.6666996116444
 30
0.0
 11
-8.133327372868806
 21
-98.66669953713864
 31
0.0
  0
LINE
  5
1B6
330
1F
100
AcDbEntity
  8
32
  6
Continuous
 62
     4
370
    25
100
AcDbLine
 10
-8.133327372868806
 20
-102.6666995967433
 30
0.0
 11
-10.13332740267113
 21
-102.3666995922729
 31
0.0
  0
LINE
  5
1B7
330
1F
100
AcDbEntity
  8
32
  6
Continuous
 62
     4
370
    25
100
AcDbLine
 10
-10.13332740267113
 20
-102.9666996012136
 30
0.0
 11
-10.13332740267113
 21
-102.3666995922729
 31
0.0
  0
LINE
  5
1B8
330
1F
100
AcDbEntity
  8
32
  6
Continuous
 62
     4
370
    25
100
AcDbLine
 10
-10.13332740267113
 20
-102.9666996012136
 30
0.0
 11
-8.133327372868806
 21
-102.6666995967433
 31
0.0
  0
LINE
  5
1B9
330
1F
100
AcDbEntity
  8
32
  6
Continuous
 62
     4
370
    25
100
AcDbLine
 10
-11.13332741757229
 20
-102.6666995967433
 30
0.0
 11
-8.133327372868806
 21
-102.6666995967433
 31
0.0
  0
LINE
  5
1BA
330
1F
100
AcDbEntity
  8
32
  6
Continuous
 62
     4
370
    25
100
AcDbLine
 10
-8.133327372868806
 20
-102.6666995967433
 30
0.0
 11
-6.799997389316559
 21
-102.6666995967433
 31
0.0
  0
LINE
  5
1BB
330
1F
100
AcDbEntity
  8
32
  6
Continuous
 62
     4
370
    25
100
AcDbLine
 10
-6.799997389316559
 20
-102.6666995967433
 30
0.0
 11
-4.799997359514236
 21
-102.3666995922729
 31
0.0
  0
LINE
  5
1BC
330
1F
100
AcDbEntity
  8
32
  6
Continuous
 62
     4
370
    25
100
AcDbLine
 10
-4.799997359514236
 20
-102.9666996012136
 30
0.0
 11
-4.799997359514236
 21
-102.3666995922729
 31
0.0
  0
LINE
  5
1BD
330
1F
100
AcDbEntity
  8
32
  6
Continuous
 62
     4
370
    25
100
AcDbLine
 10
-4.799997359514236
 20
-102.9666996012136
 30
0.0
 11
-6.799997389316559
 21
-102.6666995967433
 31
0.0
  0
LINE
  5
1BE
330
1F
100
AcDbEntity
  8
32
  6
Continuous
 62
     4
370
    25
100
AcDbLine
 10
-6.799997389316559
 20
-102.6666995967433
 30
0.0
 11
-3.799997344613075
 21
-102.6666995967433
 31
0.0
  0
LINE
  5
1BF
330
1F
100
AcDbEntity
  8
32
  6
Continuous
 62
     4
370
    25
100
AcDbLine
 10
-6.799997389316559
 20
-103.6666996116444
 30
0.0
 11
-6.799997389316559
 21
-98.66669953713864
 31
0.0
  0
TEXT
  5
1C0
330
1F
100
AcDbEntity
  8
32
 62
     2
100
AcDbText
 10
-10.46666748
 20
-82.69999932
 30
0.0
 40
2.0
  1
12.5
 41
0.7500000028125
  7
dcStyle0
 72
     5
 11
-4.46666739
 21
-82.69999932
 31
0.0
100
AcDbText
  0
TEXT
  5
1C1
330
1F
100
AcDbEntity
  8
32
 62
     2
100
AcDbText
 10
-20.73333748
 20
-77.99999925
 30
0.0
 40
2.0
  1
ｾﾗﾐｯｸ
 41
0.7500000029999999
  7
dcStyle0
 72
     5
 11
-13.23333736
 21
-77.99999925
 31
0.0
100
AcDbText
  0
TEXT
  5
1C2
330
1F
100
AcDbEntity
  8
32
 62
     2
100
AcDbText
 10
-0.59966294
 20
-77.66663018
 30
0.0
 40
2.0
  1
剥離防止
 41
0.625000003515625
  7
dcStyle0
 72
     5
 11
5.40033715
 21
-77.66663018
 31
0.0
100
AcDbText
  0
TEXT
  5
1C3
330
1F
100
AcDbEntity
  8
32
 62
     2
100
AcDbText
 10
-0.7663327900000008
 20
-80.16663022
 30
0.0
 40
2.0
  1
スプリング
 41
0.5416666697222222
  7
dcStyle0
 72
     5
 11
5.73366729
 21
-80.16663022
 31
0.0
100
AcDbText
  0
TEXT
  5
1C4
330
1F
100
AcDbEntity
  8
32
 62
     2
100
AcDbText
 10
-8.96665735
 20
-76.99999923
 30
0.0
 40
2.0
  1
20
 41
0.7500000025
  7
dcStyle0
 72
     5
 11
-5.96665731
 21
-76.99999923
 31
0.0
100
AcDbText
  0
TEXT
  5
1C5
330
1F
100
AcDbEntity
  8
32
 62
     2
100
AcDbText
 10
-15.59999751759617
 20
-90.4999994267949
 30
0.0
 40
2.0
  1
6.5
 50
90.0000001836389
 41
0.7500000025000009
  7
dcStyle0
 72
     5
 11
-15.59999753201914
 21
-85.9999993667949
 31
0.0
100
AcDbText
  0
TEXT
  5
1C6
330
1F
100
AcDbEntity
  8
32
 62
     2
100
AcDbText
 10
0.8666729524038275
 20
-95.8333695267949
 30
0.0
 40
2.0
  1
 32 
 50
90.0000001836389
 41
0.7500000028125
  7
dcStyle0
 72
     5
 11
0.8666729331732065
 21
-89.8333694367949
 31
0.0
100
AcDbText
  0
TEXT
  5
1C7
330
1F
100
AcDbEntity
  8
32
 62
     2
100
AcDbText
 10
-6.79999739
 20
-101.96669959
 30
0.0
 40
2.0
  1
 4.5 
 41
0.750000003
  7
dcStyle0
 72
     5
 11
0.7000027300000005
 21
-101.96669959
 31
0.0
100
AcDbText
  0
LINE
  5
1C8
330
1F
100
AcDbEntity
  8
16
  6
Continuous
 62
     3
370
    25
100
AcDbLine
 10
-182.0
 20
-128.5
 30
0.0
 11
-178.9999999552965
 21
-128.5
 31
0.0
  0
LINE
  5
1C9
330
1F
100
AcDbEntity
  8
16
  6
Continuous
 62
     3
370
    25
100
AcDbLine
 10
-178.9999999552965
 20
-128.5
 30
0.0
 11
-178.9999999552965
 21
-125.4999999552965
 31
0.0
  0
LINE
  5
1CA
330
1F
100
AcDbEntity
  8
16
  6
Continuous
 62
     3
370
    25
100
AcDbLine
 10
-182.0
 20
-125.4999999552965
 30
0.0
 11
-178.9999999552965
 21
-125.4999999552965
 31
0.0
  0
LINE
  5
1CB
330
1F
100
AcDbEntity
  8
16
  6
Continuous
 62
     3
370
    25
100
AcDbLine
 10
-182.0
 20
-128.5
 30
0.0
 11
-182.0
 21
-125.4999999552965
 31
0.0
  0
LINE
  5
1CC
330
1F
100
AcDbEntity
  8
16
  6
Continuous
 62
     3
370
    25
100
AcDbLine
 10
-182.0
 20
-128.5
 30
0.0
 11
-178.9999999552965
 21
-128.5
 31
0.0
  0
LINE
  5
1CD
330
1F
100
AcDbEntity
  8
16
  6
Continuous
 62
     3
370
    25
100
AcDbLine
 10
-178.9999999552965
 20
-128.5
 30
0.0
 11
-178.9999999552965
 21
-125.4999999552965
 31
0.0
  0
LINE
  5
1CE
330
1F
100
AcDbEntity
  8
16
  6
Continuous
 62
     3
370
    25
100
AcDbLine
 10
-182.0
 20
-125.4999999552965
 30
0.0
 11
-178.9999999552965
 21
-125.4999999552965
 31
0.0
  0
LINE
  5
1CF
330
1F
100
AcDbEntity
  8
16
  6
Continuous
 62
     3
370
    25
100
AcDbLine
 10
-182.0
 20
-128.5
 30
0.0
 11
-182.0
 21
-125.4999999552965
 31
0.0
  0
LINE
  5
1D0
330
1F
100
AcDbEntity
  8
16
  6
Continuous
 62
     3
370
    25
100
AcDbLine
 10
-182.0
 20
-128.5
 30
0.0
 11
-178.9999999552965
 21
-128.5
 31
0.0
  0
LINE
  5
1D1
330
1F
100
AcDbEntity
  8
16
  6
Continuous
 62
     3
370
    25
100
AcDbLine
 10
-178.9999999552965
 20
-128.5
 30
0.0
 11
-178.9999999552965
 21
-125.4999999552965
 31
0.0
  0
LINE
  5
1D2
330
1F
100
AcDbEntity
  8
16
  6
Continuous
 62
     3
370
    25
100
AcDbLine
 10
-182.0
 20
-125.4999999552965
 30
0.0
 11
-178.9999999552965
 21
-125.4999999552965
 31
0.0
  0
LINE
  5
1D3
330
1F
100
AcDbEntity
  8
16
  6
Continuous
 62
     3
370
    25
100
AcDbLine
 10
-182.0
 20
-128.5
 30
0.0
 11
-182.0
 21
-125.4999999552965
 31
0.0
  0
LINE
  5
1D4
330
1F
100
AcDbEntity
  8
16
  6
Continuous
 62
     3
370
    25
100
AcDbLine
 10
-182.0
 20
-128.5
 30
0.0
 11
-178.9999999552965
 21
-128.5
 31
0.0
  0
LINE
  5
1D5
330
1F
100
AcDbEntity
  8
16
  6
Continuous
 62
     3
370
    25
100
AcDbLine
 10
-178.9999999552965
 20
-128.5
 30
0.0
 11
-178.9999999552965
 21
-125.4999999552965
 31
0.0
  0
LINE
  5
1D6
330
1F
100
AcDbEntity
  8
16
  6
Continuous
 62
     3
370
    25
100
AcDbLine
 10
-182.0
 20
-125.4999999552965
 30
0.0
 11
-178.9999999552965
 21
-125.4999999552965
 31
0.0
  0
LINE
  5
1D7
330
1F
100
AcDbEntity
  8
16
  6
Continuous
 62
     3
370
    25
100
AcDbLine
 10
-182.0
 20
-128.5
 30
0.0
 11
-182.0
 21
-125.4999999552965
 31
0.0
  0
LINE
  5
1D8
330
1F
100
AcDbEntity
  8
16
  6
Continuous
 62
     3
370
    25
100
AcDbLine
 10
-182.0
 20
-128.5
 30
0.0
 11
-178.9999999552965
 21
-128.5
 31
0.0
  0
LINE
  5
1D9
330
1F
100
AcDbEntity
  8
16
  6
Continuous
 62
     3
370
    25
100
AcDbLine
 10
-178.9999999552965
 20
-128.5
 30
0.0
 11
-178.9999999552965
 21
-125.4999999552965
 31
0.0
  0
LINE
  5
1DA
330
1F
100
AcDbEntity
  8
16
  6
Continuous
 62
     3
370
    25
100
AcDbLine
 10
-182.0
 20
-125.4999999552965
 30
0.0
 11
-178.9999999552965
 21
-125.4999999552965
 31
0.0
  0
LINE
  5
1DB
330
1F
100
AcDbEntity
  8
16
  6
Continuous
 62
     3
370
    25
100
AcDbLine
 10
-182.0
 20
-128.5
 30
0.0
 11
-182.0
 21
-125.4999999552965
 31
0.0
  0
LINE
  5
1DC
330
1F
100
AcDbEntity
  8
16
  6
Continuous
 62
     3
370
    25
100
AcDbLine
 10
-124.6333326304952
 20
57.51666813393422
 30
0.0
 11
-60.96666406641407
 21
57.51666813393422
 31
0.0
  0
LINE
  5
1DD
330
1F
100
AcDbEntity
  8
16
  6
Continuous
 62
     3
370
    25
100
AcDbLine
 10
-60.96666406641407
 20
56.76666811158248
 30
0.0
 11
-60.96666406641407
 21
57.51666813393422
 31
0.0
  0
LINE
  5
1DE
330
1F
100
AcDbEntity
  8
16
  6
Continuous
 62
     3
370
    25
100
AcDbLine
 10
-124.6333326304952
 20
56.76666811158248
 30
0.0
 11
-60.96666406641407
 21
56.76666811158248
 31
0.0
  0
LINE
  5
1DF
330
1F
100
AcDbEntity
  8
16
  6
Continuous
 62
     3
370
    25
100
AcDbLine
 10
-124.6333326304952
 20
56.76666811158248
 30
0.0
 11
-124.6333326304952
 21
57.51666813393422
 31
0.0
  0
LINE
  5
1E0
330
1F
100
AcDbEntity
  8
16
  6
Continuous
 62
     3
370
    25
100
AcDbLine
 10
-124.6333326304952
 20
-25.06666766057424
 30
0.0
 11
-60.96666406641407
 21
-25.06666766057424
 31
0.0
  0
LINE
  5
1E1
330
1F
100
AcDbEntity
  8
16
  6
Continuous
 62
     3
370
    25
100
AcDbLine
 10
-60.96666406641407
 20
-25.81666768292598
 30
0.0
 11
-60.96666406641407
 21
-25.06666766057424
 31
0.0
  0
LINE
  5
1E2
330
1F
100
AcDbEntity
  8
16
  6
Continuous
 62
     3
370
    25
100
AcDbLine
 10
-124.6333326304952
 20
-25.81666768292598
 30
0.0
 11
-60.96666406641407
 21
-25.81666768292598
 31
0.0
  0
LINE
  5
1E3
330
1F
100
AcDbEntity
  8
16
  6
Continuous
 62
     3
370
    25
100
AcDbLine
 10
-124.6333326304952
 20
-25.81666768292598
 30
0.0
 11
-124.6333326304952
 21
-25.06666766057424
 31
0.0
  0
LINE
  5
1E4
330
1F
100
AcDbEntity
  8
16
  6
Continuous
 62
     3
370
    25
100
AcDbLine
 10
-121.2999991978208
 20
41.4333343212802
 30
0.0
 11
-119.9833324760199
 21
41.4333343212802
 31
0.0
  0
LINE
  5
1E5
330
1F
100
AcDbEntity
  8
16
  6
Continuous
 62
     3
370
    25
100
AcDbLine
 10
-116.6500000764927
 20
41.4333343212802
 30
0.0
 11
-115.3333333546917
 21
41.4333343212802
 31
0.0
  0
LINE
  5
1E6
330
1F
100
AcDbEntity
  8
16
  6
Continuous
 62
     3
370
    25
100
AcDbLine
 10
-111.9999958689013
 20
41.4333343212802
 30
0.0
 11
-110.6833291471004
 21
41.4333343212802
 31
0.0
  0
LINE
  5
1E7
330
1F
100
AcDbEntity
  8
16
  6
Continuous
 62
     3
370
    25
100
AcDbLine
 10
-107.3499967475732
 20
41.4333343212802
 30
0.0
 11
-106.0333300257722
 21
41.4333343212802
 31
0.0
  0
LINE
  5
1E8
330
1F
100
AcDbEntity
  8
16
  6
Continuous
 62
     3
370
    25
100
AcDbLine
 10
-102.699997626245
 20
41.4333343212802
 30
0.0
 11
-101.383330904444
 21
41.4333343212802
 31
0.0
  0
LINE
  5
1E9
330
1F
100
AcDbEntity
  8
16
  6
Continuous
 62
     3
370
    25
100
AcDbLine
 10
-98.04999850491686
 20
41.4333343212802
 30
0.0
 11
-96.73333178311589
 21
41.4333343212802
 31
0.0
  0
LINE
  5
1EA
330
1F
100
AcDbEntity
  8
16
  6
Continuous
 62
     3
370
    25
100
AcDbLine
 10
-93.39999938358869
 20
41.4333343212802
 30
0.0
 11
-92.08333266178774
 21
41.4333343212802
 31
0.0
  0
LINE
  5
1EB
330
1F
100
AcDbEntity
  8
16
  6
Continuous
 62
     3
370
    25
100
AcDbLine
 10
-88.74999517599736
 20
41.4333343212802
 30
0.0
 11
-87.4333284541964
 21
41.4333343212802
 31
0.0
  0
LINE
  5
1EC
330
1F
100
AcDbEntity
  8
16
  6
Continuous
 62
     3
370
    25
100
AcDbLine
 10
-84.10000114093236
 20
41.4333343212802
 30
0.0
 11
-82.78333441913142
 21
41.4333343212802
 31
0.0
  0
LINE
  5
1ED
330
1F
100
AcDbEntity
  8
16
  6
Continuous
 62
     3
370
    25
100
AcDbLine
 10
-79.44999693334103
 20
41.4333343212802
 30
0.0
 11
-78.13333021154008
 21
41.4333343212802
 31
0.0
  0
LINE
  5
1EE
330
1F
100
AcDbEntity
  8
16
  6
Continuous
 62
     3
370
    25
100
AcDbLine
 10
-74.79999272574969
 20
41.4333343212802
 30
0.0
 11
-73.48332600394872
 21
41.4333343212802
 31
0.0
  0
LINE
  5
1EF
330
1F
100
AcDbEntity
  8
16
  6
Continuous
 62
     3
370
    25
100
AcDbLine
 10
-70.1499986906847
 20
41.4333343212802
 30
0.0
 11
-68.83333196888373
 21
41.4333343212802
 31
0.0
  0
LINE
  5
1F0
330
1F
100
AcDbEntity
  8
16
  6
Continuous
 62
     3
370
    25
100
AcDbLine
 10
-65.49999448309336
 20
41.4333343212802
 30
0.0
 11
-64.29999281018962
 21
41.4333343212802
 31
0.0
  0
LINE
  5
1F1
330
1F
100
AcDbEntity
  8
16
  6
Continuous
 62
     3
370
    25
100
AcDbLine
 10
-121.2999991978208
 20
40.26666761984416
 30
0.0
 11
-119.9833324760199
 21
40.26666761984416
 31
0.0
  0
LINE
  5
1F2
330
1F
100
AcDbEntity
  8
16
  6
Continuous
 62
     3
370
    25
100
AcDbLine
 10
-116.6500000764927
 20
40.26666761984416
 30
0.0
 11
-115.3333333546917
 21
40.26666761984416
 31
0.0
  0
LINE
  5
1F3
330
1F
100
AcDbEntity
  8
16
  6
Continuous
 62
     3
370
    25
100
AcDbLine
 10
-111.9999958689013
 20
40.26666761984416
 30
0.0
 11
-110.6833291471004
 21
40.26666761984416
 31
0.0
  0
LINE
  5
1F4
330
1F
100
AcDbEntity
  8
16
  6
Continuous
 62
     3
370
    25
100
AcDbLine
 10
-107.3499967475732
 20
40.26666761984416
 30
0.0
 11
-106.0333300257722
 21
40.26666761984416
 31
0.0
  0
LINE
  5
1F5
330
1F
100
AcDbEntity
  8
16
  6
Continuous
 62
     3
370
    25
100
AcDbLine
 10
-102.699997626245
 20
40.26666761984416
 30
0.0
 11
-101.383330904444
 21
40.26666761984416
 31
0.0
  0
LINE
  5
1F6
330
1F
100
AcDbEntity
  8
16
  6
Continuous
 62
     3
370
    25
100
AcDbLine
 10
-98.04999850491686
 20
40.26666761984416
 30
0.0
 11
-96.73333178311589
 21
40.26666761984416
 31
0.0
  0
LINE
  5
1F7
330
1F
100
AcDbEntity
  8
16
  6
Continuous
 62
     3
370
    25
100
AcDbLine
 10
-93.39999938358869
 20
40.26666761984416
 30
0.0
 11
-92.08333266178774
 21
40.26666761984416
 31
0.0
  0
LINE
  5
1F8
330
1F
100
AcDbEntity
  8
16
  6
Continuous
 62
     3
370
    25
100
AcDbLine
 10
-88.74999517599736
 20
40.26666761984416
 30
0.0
 11
-87.4333284541964
 21
40.26666761984416
 31
0.0
  0
LINE
  5
1F9
330
1F
100
AcDbEntity
  8
16
  6
Continuous
 62
     3
370
    25
100
AcDbLine
 10
-84.10000114093236
 20
40.26666761984416
 30
0.0
 11
-82.78333441913142
 21
40.26666761984416
 31
0.0
  0
LINE
  5
1FA
330
1F
100
AcDbEntity
  8
16
  6
Continuous
 62
     3
370
    25
100
AcDbLine
 10
-79.44999693334103
 20
40.26666761984416
 30
0.0
 11
-78.13333021154008
 21
40.26666761984416
 31
0.0
  0
LINE
  5
1FB
330
1F
100
AcDbEntity
  8
16
  6
Continuous
 62
     3
370
    25
100
AcDbLine
 10
-74.79999272574969
 20
40.26666761984416
 30
0.0
 11
-73.48332600394872
 21
40.26666761984416
 31
0.0
  0
LINE
  5
1FC
330
1F
100
AcDbEntity
  8
16
  6
Continuous
 62
     3
370
    25
100
AcDbLine
 10
-70.1499986906847
 20
40.26666761984416
 30
0.0
 11
-68.83333196888373
 21
40.26666761984416
 31
0.0
  0
LINE
  5
1FD
330
1F
100
AcDbEntity
  8
16
  6
Continuous
 62
     3
370
    25
100
AcDbLine
 10
-65.49999448309336
 20
40.26666761984416
 30
0.0
 11
-64.29999281018962
 21
40.26666761984416
 31
0.0
  0
LINE
  5
1FE
330
1F
100
AcDbEntity
  8
16
  6
Continuous
 62
     3
370
    25
100
AcDbLine
 10
-121.2999991978208
 20
24.76666715790816
 30
0.0
 11
-119.9833324760199
 21
24.76666715790816
 31
0.0
  0
LINE
  5
1FF
330
1F
100
AcDbEntity
  8
16
  6
Continuous
 62
     3
370
    25
100
AcDbLine
 10
-116.6500000764927
 20
24.76666715790816
 30
0.0
 11
-115.3333333546917
 21
24.76666715790816
 31
0.0
  0
LINE
  5
200
330
1F
100
AcDbEntity
  8
16
  6
Continuous
 62
     3
370
    25
100
AcDbLine
 10
-111.9999958689013
 20
24.76666715790816
 30
0.0
 11
-110.6833291471004
 21
24.76666715790816
 31
0.0
  0
LINE
  5
201
330
1F
100
AcDbEntity
  8
16
  6
Continuous
 62
     3
370
    25
100
AcDbLine
 10
-107.3499967475732
 20
24.76666715790816
 30
0.0
 11
-106.0333300257722
 21
24.76666715790816
 31
0.0
  0
LINE
  5
202
330
1F
100
AcDbEntity
  8
16
  6
Continuous
 62
     3
370
    25
100
AcDbLine
 10
-102.699997626245
 20
24.76666715790816
 30
0.0
 11
-101.383330904444
 21
24.76666715790816
 31
0.0
  0
LINE
  5
203
330
1F
100
AcDbEntity
  8
16
  6
Continuous
 62
     3
370
    25
100
AcDbLine
 10
-98.04999850491686
 20
24.76666715790816
 30
0.0
 11
-96.73333178311589
 21
24.76666715790816
 31
0.0
  0
LINE
  5
204
330
1F
100
AcDbEntity
  8
16
  6
Continuous
 62
     3
370
    25
100
AcDbLine
 10
-93.39999938358869
 20
24.76666715790816
 30
0.0
 11
-92.08333266178774
 21
24.76666715790816
 31
0.0
  0
LINE
  5
205
330
1F
100
AcDbEntity
  8
16
  6
Continuous
 62
     3
370
    25
100
AcDbLine
 10
-88.74999517599736
 20
24.76666715790816
 30
0.0
 11
-87.4333284541964
 21
24.76666715790816
 31
0.0
  0
LINE
  5
206
330
1F
100
AcDbEntity
  8
16
  6
Continuous
 62
     3
370
    25
100
AcDbLine
 10
-84.10000114093236
 20
24.76666715790816
 30
0.0
 11
-82.78333441913142
 21
24.76666715790816
 31
0.0
  0
LINE
  5
207
330
1F
100
AcDbEntity
  8
16
  6
Continuous
 62
     3
370
    25
100
AcDbLine
 10
-79.44999693334103
 20
24.76666715790816
 30
0.0
 11
-78.13333021154008
 21
24.76666715790816
 31
0.0
  0
LINE
  5
208
330
1F
100
AcDbEntity
  8
16
  6
Continuous
 62
     3
370
    25
100
AcDbLine
 10
-74.79999272574969
 20
24.76666715790816
 30
0.0
 11
-73.48332600394872
 21
24.76666715790816
 31
0.0
  0
LINE
  5
209
330
1F
100
AcDbEntity
  8
16
  6
Continuous
 62
     3
370
    25
100
AcDbLine
 10
-70.1499986906847
 20
24.76666715790816
 30
0.0
 11
-68.83333196888373
 21
24.76666715790816
 31
0.0
  0
LINE
  5
20A
330
1F
100
AcDbEntity
  8
16
  6
Continuous
 62
     3
370
    25
100
AcDbLine
 10
-65.49999448309336
 20
24.76666715790816
 30
0.0
 11
-64.29999281018962
 21
24.76666715790816
 31
0.0
  0
LINE
  5
20B
330
1F
100
AcDbEntity
  8
16
  6
Continuous
 62
     3
370
    25
100
AcDbLine
 10
-121.2999991978208
 20
23.60000045647212
 30
0.0
 11
-119.9833324760199
 21
23.60000045647212
 31
0.0
  0
LINE
  5
20C
330
1F
100
AcDbEntity
  8
16
  6
Continuous
 62
     3
370
    25
100
AcDbLine
 10
-116.6500000764927
 20
23.60000045647212
 30
0.0
 11
-115.3333333546917
 21
23.60000045647212
 31
0.0
  0
LINE
  5
20D
330
1F
100
AcDbEntity
  8
16
  6
Continuous
 62
     3
370
    25
100
AcDbLine
 10
-111.9999958689013
 20
23.60000045647212
 30
0.0
 11
-110.6833291471004
 21
23.60000045647212
 31
0.0
  0
LINE
  5
20E
330
1F
100
AcDbEntity
  8
16
  6
Continuous
 62
     3
370
    25
100
AcDbLine
 10
-107.3499967475732
 20
23.60000045647212
 30
0.0
 11
-106.0333300257722
 21
23.60000045647212
 31
0.0
  0
LINE
  5
20F
330
1F
100
AcDbEntity
  8
16
  6
Continuous
 62
     3
370
    25
100
AcDbLine
 10
-102.699997626245
 20
23.60000045647212
 30
0.0
 11
-101.383330904444
 21
23.60000045647212
 31
0.0
  0
LINE
  5
210
330
1F
100
AcDbEntity
  8
16
  6
Continuous
 62
     3
370
    25
100
AcDbLine
 10
-98.04999850491686
 20
23.60000045647212
 30
0.0
 11
-96.73333178311589
 21
23.60000045647212
 31
0.0
  0
LINE
  5
211
330
1F
100
AcDbEntity
  8
16
  6
Continuous
 62
     3
370
    25
100
AcDbLine
 10
-93.39999938358869
 20
23.60000045647212
 30
0.0
 11
-92.08333266178774
 21
23.60000045647212
 31
0.0
  0
LINE
  5
212
330
1F
100
AcDbEntity
  8
16
  6
Continuous
 62
     3
370
    25
100
AcDbLine
 10
-88.74999517599736
 20
23.60000045647212
 30
0.0
 11
-87.4333284541964
 21
23.60000045647212
 31
0.0
  0
LINE
  5
213
330
1F
100
AcDbEntity
  8
16
  6
Continuous
 62
     3
370
    25
100
AcDbLine
 10
-84.10000114093236
 20
23.60000045647212
 30
0.0
 11
-82.78333441913142
 21
23.60000045647212
 31
0.0
  0
LINE
  5
214
330
1F
100
AcDbEntity
  8
16
  6
Continuous
 62
     3
370
    25
100
AcDbLine
 10
-79.44999693334103
 20
23.60000045647212
 30
0.0
 11
-78.13333021154008
 21
23.60000045647212
 31
0.0
  0
LINE
  5
215
330
1F
100
AcDbEntity
  8
16
  6
Continuous
 62
     3
370
    25
100
AcDbLine
 10
-74.79999272574969
 20
23.60000045647212
 30
0.0
 11
-73.48332600394872
 21
23.60000045647212
 31
0.0
  0
LINE
  5
216
330
1F
100
AcDbEntity
  8
16
  6
Continuous
 62
     3
370
    25
100
AcDbLine
 10
-70.1499986906847
 20
23.60000045647212
 30
0.0
 11
-68.83333196888373
 21
23.60000045647212
 31
0.0
  0
LINE
  5
217
330
1F
100
AcDbEntity
  8
16
  6
Continuous
 62
     3
370
    25
100
AcDbLine
 10
-65.49999448309336
 20
23.60000045647212
 30
0.0
 11
-64.29999281018962
 21
23.60000045647212
 31
0.0
  0
LINE
  5
218
330
1F
100
AcDbEntity
  8
16
  6
Continuous
 62
     3
370
    25
100
AcDbLine
 10
-121.2999991978208
 20
8.09999999453612
 30
0.0
 11
-119.9833324760199
 21
8.09999999453612
 31
0.0
  0
LINE
  5
219
330
1F
100
AcDbEntity
  8
16
  6
Continuous
 62
     3
370
    25
100
AcDbLine
 10
-116.6500000764927
 20
8.09999999453612
 30
0.0
 11
-115.3333333546917
 21
8.09999999453612
 31
0.0
  0
LINE
  5
21A
330
1F
100
AcDbEntity
  8
16
  6
Continuous
 62
     3
370
    25
100
AcDbLine
 10
-111.9999958689013
 20
8.09999999453612
 30
0.0
 11
-110.6833291471004
 21
8.09999999453612
 31
0.0
  0
LINE
  5
21B
330
1F
100
AcDbEntity
  8
16
  6
Continuous
 62
     3
370
    25
100
AcDbLine
 10
-107.3499967475732
 20
8.09999999453612
 30
0.0
 11
-106.0333300257722
 21
8.09999999453612
 31
0.0
  0
LINE
  5
21C
330
1F
100
AcDbEntity
  8
16
  6
Continuous
 62
     3
370
    25
100
AcDbLine
 10
-102.699997626245
 20
8.09999999453612
 30
0.0
 11
-101.383330904444
 21
8.09999999453612
 31
0.0
  0
LINE
  5
21D
330
1F
100
AcDbEntity
  8
16
  6
Continuous
 62
     3
370
    25
100
AcDbLine
 10
-98.04999850491686
 20
8.09999999453612
 30
0.0
 11
-96.73333178311589
 21
8.09999999453612
 31
0.0
  0
LINE
  5
21E
330
1F
100
AcDbEntity
  8
16
  6
Continuous
 62
     3
370
    25
100
AcDbLine
 10
-93.39999938358869
 20
8.09999999453612
 30
0.0
 11
-92.08333266178774
 21
8.09999999453612
 31
0.0
  0
LINE
  5
21F
330
1F
100
AcDbEntity
  8
16
  6
Continuous
 62
     3
370
    25
100
AcDbLine
 10
-88.74999517599736
 20
8.09999999453612
 30
0.0
 11
-87.4333284541964
 21
8.09999999453612
 31
0.0
  0
LINE
  5
220
330
1F
100
AcDbEntity
  8
16
  6
Continuous
 62
     3
370
    25
100
AcDbLine
 10
-84.10000114093236
 20
8.09999999453612
 30
0.0
 11
-82.78333441913142
 21
8.09999999453612
 31
0.0
  0
LINE
  5
221
330
1F
100
AcDbEntity
  8
16
  6
Continuous
 62
     3
370
    25
100
AcDbLine
 10
-79.44999693334103
 20
8.09999999453612
 30
0.0
 11
-78.13333021154008
 21
8.09999999453612
 31
0.0
  0
LINE
  5
222
330
1F
100
AcDbEntity
  8
16
  6
Continuous
 62
     3
370
    25
100
AcDbLine
 10
-74.79999272574969
 20
8.09999999453612
 30
0.0
 11
-73.48332600394872
 21
8.09999999453612
 31
0.0
  0
LINE
  5
223
330
1F
100
AcDbEntity
  8
16
  6
Continuous
 62
     3
370
    25
100
AcDbLine
 10
-70.1499986906847
 20
8.09999999453612
 30
0.0
 11
-68.83333196888373
 21
8.09999999453612
 31
0.0
  0
LINE
  5
224
330
1F
100
AcDbEntity
  8
16
  6
Continuous
 62
     3
370
    25
100
AcDbLine
 10
-65.49999448309336
 20
8.09999999453612
 30
0.0
 11
-64.29999281018962
 21
8.09999999453612
 31
0.0
  0
LINE
  5
225
330
1F
100
AcDbEntity
  8
16
  6
Continuous
 62
     3
370
    25
100
AcDbLine
 10
-121.2999991978208
 20
6.933333293100077
 30
0.0
 11
-119.9833324760199
 21
6.933333293100077
 31
0.0
  0
LINE
  5
226
330
1F
100
AcDbEntity
  8
16
  6
Continuous
 62
     3
370
    25
100
AcDbLine
 10
-116.6500000764927
 20
6.933333293100077
 30
0.0
 11
-115.3333333546917
 21
6.933333293100077
 31
0.0
  0
LINE
  5
227
330
1F
100
AcDbEntity
  8
16
  6
Continuous
 62
     3
370
    25
100
AcDbLine
 10
-111.9999958689013
 20
6.933333293100077
 30
0.0
 11
-110.6833291471004
 21
6.933333293100077
 31
0.0
  0
LINE
  5
228
330
1F
100
AcDbEntity
  8
16
  6
Continuous
 62
     3
370
    25
100
AcDbLine
 10
-107.3499967475732
 20
6.933333293100077
 30
0.0
 11
-106.0333300257722
 21
6.933333293100077
 31
0.0
  0
LINE
  5
229
330
1F
100
AcDbEntity
  8
16
  6
Continuous
 62
     3
370
    25
100
AcDbLine
 10
-102.699997626245
 20
6.933333293100077
 30
0.0
 11
-101.383330904444
 21
6.933333293100077
 31
0.0
  0
LINE
  5
22A
330
1F
100
AcDbEntity
  8
16
  6
Continuous
 62
     3
370
    25
100
AcDbLine
 10
-98.04999850491686
 20
6.933333293100077
 30
0.0
 11
-96.73333178311589
 21
6.933333293100077
 31
0.0
  0
LINE
  5
22B
330
1F
100
AcDbEntity
  8
16
  6
Continuous
 62
     3
370
    25
100
AcDbLine
 10
-93.39999938358869
 20
6.933333293100077
 30
0.0
 11
-92.08333266178774
 21
6.933333293100077
 31
0.0
  0
LINE
  5
22C
330
1F
100
AcDbEntity
  8
16
  6
Continuous
 62
     3
370
    25
100
AcDbLine
 10
-88.74999517599736
 20
6.933333293100077
 30
0.0
 11
-87.4333284541964
 21
6.933333293100077
 31
0.0
  0
LINE
  5
22D
330
1F
100
AcDbEntity
  8
16
  6
Continuous
 62
     3
370
    25
100
AcDbLine
 10
-84.10000114093236
 20
6.933333293100077
 30
0.0
 11
-82.78333441913142
 21
6.933333293100077
 31
0.0
  0
LINE
  5
22E
330
1F
100
AcDbEntity
  8
16
  6
Continuous
 62
     3
370
    25
100
AcDbLine
 10
-79.44999693334103
 20
6.933333293100077
 30
0.0
 11
-78.13333021154008
 21
6.933333293100077
 31
0.0
  0
LINE
  5
22F
330
1F
100
AcDbEntity
  8
16
  6
Continuous
 62
     3
370
    25
100
AcDbLine
 10
-74.79999272574969
 20
6.933333293100077
 30
0.0
 11
-73.48332600394872
 21
6.933333293100077
 31
0.0
  0
LINE
  5
230
330
1F
100
AcDbEntity
  8
16
  6
Continuous
 62
     3
370
    25
100
AcDbLine
 10
-70.1499986906847
 20
6.933333293100077
 30
0.0
 11
-68.83333196888373
 21
6.933333293100077
 31
0.0
  0
LINE
  5
231
330
1F
100
AcDbEntity
  8
16
  6
Continuous
 62
     3
370
    25
100
AcDbLine
 10
-65.49999448309336
 20
6.933333293100077
 30
0.0
 11
-64.29999281018962
 21
6.933333293100077
 31
0.0
  0
LINE
  5
232
330
1F
100
AcDbEntity
  8
16
  6
Continuous
 62
     3
370
    25
100
AcDbLine
 10
-121.2999991978208
 20
-8.56666716883592
 30
0.0
 11
-119.9833324760199
 21
-8.56666716883592
 31
0.0
  0
LINE
  5
233
330
1F
100
AcDbEntity
  8
16
  6
Continuous
 62
     3
370
    25
100
AcDbLine
 10
-116.6500000764927
 20
-8.56666716883592
 30
0.0
 11
-115.3333333546917
 21
-8.56666716883592
 31
0.0
  0
LINE
  5
234
330
1F
100
AcDbEntity
  8
16
  6
Continuous
 62
     3
370
    25
100
AcDbLine
 10
-111.9999958689013
 20
-8.56666716883592
 30
0.0
 11
-110.6833291471004
 21
-8.56666716883592
 31
0.0
  0
LINE
  5
235
330
1F
100
AcDbEntity
  8
16
  6
Continuous
 62
     3
370
    25
100
AcDbLine
 10
-107.3499967475732
 20
-8.56666716883592
 30
0.0
 11
-106.0333300257722
 21
-8.56666716883592
 31
0.0
  0
LINE
  5
236
330
1F
100
AcDbEntity
  8
16
  6
Continuous
 62
     3
370
    25
100
AcDbLine
 10
-102.699997626245
 20
-8.56666716883592
 30
0.0
 11
-101.383330904444
 21
-8.56666716883592
 31
0.0
  0
LINE
  5
237
330
1F
100
AcDbEntity
  8
16
  6
Continuous
 62
     3
370
    25
100
AcDbLine
 10
-98.04999850491686
 20
-8.56666716883592
 30
0.0
 11
-96.73333178311589
 21
-8.56666716883592
 31
0.0
  0
LINE
  5
238
330
1F
100
AcDbEntity
  8
16
  6
Continuous
 62
     3
370
    25
100
AcDbLine
 10
-93.39999938358869
 20
-8.56666716883592
 30
0.0
 11
-92.08333266178774
 21
-8.56666716883592
 31
0.0
  0
LINE
  5
239
330
1F
100
AcDbEntity
  8
16
  6
Continuous
 62
     3
370
    25
100
AcDbLine
 10
-88.74999517599736
 20
-8.56666716883592
 30
0.0
 11
-87.4333284541964
 21
-8.56666716883592
 31
0.0
  0
LINE
  5
23A
330
1F
100
AcDbEntity
  8
16
  6
Continuous
 62
     3
370
    25
100
AcDbLine
 10
-84.10000114093236
 20
-8.56666716883592
 30
0.0
 11
-82.78333441913142
 21
-8.56666716883592
 31
0.0
  0
LINE
  5
23B
330
1F
100
AcDbEntity
  8
16
  6
Continuous
 62
     3
370
    25
100
AcDbLine
 10
-79.44999693334103
 20
-8.56666716883592
 30
0.0
 11
-78.13333021154008
 21
-8.56666716883592
 31
0.0
  0
LINE
  5
23C
330
1F
100
AcDbEntity
  8
16
  6
Continuous
 62
     3
370
    25
100
AcDbLine
 10
-74.79999272574969
 20
-8.56666716883592
 30
0.0
 11
-73.48332600394872
 21
-8.56666716883592
 31
0.0
  0
LINE
  5
23D
330
1F
100
AcDbEntity
  8
16
  6
Continuous
 62
     3
370
    25
100
AcDbLine
 10
-70.1499986906847
 20
-8.56666716883592
 30
0.0
 11
-68.83333196888373
 21
-8.56666716883592
 31
0.0
  0
LINE
  5
23E
330
1F
100
AcDbEntity
  8
16
  6
Continuous
 62
     3
370
    25
100
AcDbLine
 10
-65.49999448309336
 20
-8.56666716883592
 30
0.0
 11
-64.29999281018962
 21
-8.56666716883592
 31
0.0
  0
LINE
  5
23F
330
1F
100
AcDbEntity
  8
16
  6
Continuous
 62
     3
370
    25
100
AcDbLine
 10
-121.2999991978208
 20
-9.733333870271963
 30
0.0
 11
-119.9833324760199
 21
-9.733333870271963
 31
0.0
  0
LINE
  5
240
330
1F
100
AcDbEntity
  8
16
  6
Continuous
 62
     3
370
    25
100
AcDbLine
 10
-116.6500000764927
 20
-9.733333870271963
 30
0.0
 11
-115.3333333546917
 21
-9.733333870271963
 31
0.0
  0
LINE
  5
241
330
1F
100
AcDbEntity
  8
16
  6
Continuous
 62
     3
370
    25
100
AcDbLine
 10
-111.9999958689013
 20
-9.733333870271963
 30
0.0
 11
-110.6833291471004
 21
-9.733333870271963
 31
0.0
  0
LINE
  5
242
330
1F
100
AcDbEntity
  8
16
  6
Continuous
 62
     3
370
    25
100
AcDbLine
 10
-107.3499967475732
 20
-9.733333870271963
 30
0.0
 11
-106.0333300257722
 21
-9.733333870271963
 31
0.0
  0
LINE
  5
243
330
1F
100
AcDbEntity
  8
16
  6
Continuous
 62
     3
370
    25
100
AcDbLine
 10
-102.699997626245
 20
-9.733333870271963
 30
0.0
 11
-101.383330904444
 21
-9.733333870271963
 31
0.0
  0
LINE
  5
244
330
1F
100
AcDbEntity
  8
16
  6
Continuous
 62
     3
370
    25
100
AcDbLine
 10
-98.04999850491686
 20
-9.733333870271963
 30
0.0
 11
-96.73333178311589
 21
-9.733333870271963
 31
0.0
  0
LINE
  5
245
330
1F
100
AcDbEntity
  8
16
  6
Continuous
 62
     3
370
    25
100
AcDbLine
 10
-93.39999938358869
 20
-9.733333870271963
 30
0.0
 11
-92.08333266178774
 21
-9.733333870271963
 31
0.0
  0
LINE
  5
246
330
1F
100
AcDbEntity
  8
16
  6
Continuous
 62
     3
370
    25
100
AcDbLine
 10
-88.74999517599736
 20
-9.733333870271963
 30
0.0
 11
-87.4333284541964
 21
-9.733333870271963
 31
0.0
  0
LINE
  5
247
330
1F
100
AcDbEntity
  8
16
  6
Continuous
 62
     3
370
    25
100
AcDbLine
 10
-84.10000114093236
 20
-9.733333870271963
 30
0.0
 11
-82.78333441913142
 21
-9.733333870271963
 31
0.0
  0
LINE
  5
248
330
1F
100
AcDbEntity
  8
16
  6
Continuous
 62
     3
370
    25
100
AcDbLine
 10
-79.44999693334103
 20
-9.733333870271963
 30
0.0
 11
-78.13333021154008
 21
-9.733333870271963
 31
0.0
  0
LINE
  5
249
330
1F
100
AcDbEntity
  8
16
  6
Continuous
 62
     3
370
    25
100
AcDbLine
 10
-74.79999272574969
 20
-9.733333870271963
 30
0.0
 11
-73.48332600394872
 21
-9.733333870271963
 31
0.0
  0
LINE
  5
24A
330
1F
100
AcDbEntity
  8
16
  6
Continuous
 62
     3
370
    25
100
AcDbLine
 10
-70.1499986906847
 20
-9.733333870271963
 30
0.0
 11
-68.83333196888373
 21
-9.733333870271963
 31
0.0
  0
LINE
  5
24B
330
1F
100
AcDbEntity
  8
16
  6
Continuous
 62
     3
370
    25
100
AcDbLine
 10
-65.49999448309336
 20
-9.733333870271963
 30
0.0
 11
-64.29999281018962
 21
-9.733333870271963
 31
0.0
  0
LINE
  5
24C
330
1F
100
AcDbEntity
  8
16
  6
Continuous
 62
     3
370
    25
100
AcDbLine
 10
-124.6333326304952
 20
-25.06666766057424
 30
0.0
 11
-124.6333326304952
 21
56.76666811158248
 31
0.0
  0
LINE
  5
24D
330
1F
100
AcDbEntity
  8
16
  6
Continuous
 62
     3
370
    25
100
AcDbLine
 10
-124.6333326304952
 20
-25.06666766057424
 30
0.0
 11
-121.2999991978208
 21
-25.06666766057424
 31
0.0
  0
LINE
  5
24E
330
1F
100
AcDbEntity
  8
16
  6
Continuous
 62
     3
370
    25
100
AcDbLine
 10
-121.2999991978208
 20
-25.06666766057424
 30
0.0
 11
-121.2999991978208
 21
56.76666811158248
 31
0.0
  0
LINE
  5
24F
330
1F
100
AcDbEntity
  8
16
  6
Continuous
 62
     3
370
    25
100
AcDbLine
 10
-124.6333326304952
 20
56.76666811158248
 30
0.0
 11
-121.2999991978208
 21
56.76666811158248
 31
0.0
  0
LINE
  5
250
330
1F
100
AcDbEntity
  8
16
  6
Continuous
 62
     3
370
    25
100
AcDbLine
 10
-123.9666659439604
 20
-25.06666766057424
 30
0.0
 11
-123.9666659439604
 21
56.76666811158248
 31
0.0
  0
LINE
  5
251
330
1F
100
AcDbEntity
  8
16
  6
Continuous
 62
     3
370
    25
100
AcDbLine
 10
-121.9666658843557
 20
-25.06666766057424
 30
0.0
 11
-121.9666658843557
 21
56.76666811158248
 31
0.0
  0
LINE
  5
252
330
1F
100
AcDbEntity
  8
16
  6
Continuous
 62
     3
370
    25
100
AcDbLine
 10
-122.966665914158
 20
-24.23333430240564
 30
0.0
 11
-122.966665914158
 21
55.93333475341386
 31
0.0
  0
LINE
  5
253
330
1F
100
AcDbEntity
  8
16
  6
Continuous
 62
     3
370
    25
100
AcDbLine
 10
-119.9833335091671
 20
-25.06666766057424
 30
0.0
 11
-119.9833335091671
 21
56.76666811158248
 31
0.0
  0
LINE
  5
254
330
1F
100
AcDbEntity
  8
16
  6
Continuous
 62
     3
370
    25
100
AcDbLine
 10
-119.9833335091671
 20
-25.06666766057424
 30
0.0
 11
-116.6500000764927
 21
-25.06666766057424
 31
0.0
  0
LINE
  5
255
330
1F
100
AcDbEntity
  8
16
  6
Continuous
 62
     3
370
    25
100
AcDbLine
 10
-116.6500000764927
 20
-25.06666766057424
 30
0.0
 11
-116.6500000764927
 21
56.76666811158248
 31
0.0
  0
LINE
  5
256
330
1F
100
AcDbEntity
  8
16
  6
Continuous
 62
     3
370
    25
100
AcDbLine
 10
-119.9833335091671
 20
56.76666811158248
 30
0.0
 11
-116.6500000764927
 21
56.76666811158248
 31
0.0
  0
LINE
  5
257
330
1F
100
AcDbEntity
  8
16
  6
Continuous
 62
     3
370
    25
100
AcDbLine
 10
-119.3166668226322
 20
-25.06666766057424
 30
0.0
 11
-119.3166668226322
 21
56.76666811158248
 31
0.0
  0
LINE
  5
258
330
1F
100
AcDbEntity
  8
16
  6
Continuous
 62
     3
370
    25
100
AcDbLine
 10
-117.3166667630276
 20
-25.06666766057424
 30
0.0
 11
-117.3166667630276
 21
56.76666811158248
 31
0.0
  0
LINE
  5
259
330
1F
100
AcDbEntity
  8
16
  6
Continuous
 62
     3
370
    25
100
AcDbLine
 10
-118.3166667928299
 20
-24.23333430240564
 30
0.0
 11
-118.3166667928299
 21
55.93333475341386
 31
0.0
  0
LINE
  5
25A
330
1F
100
AcDbEntity
  8
16
  6
Continuous
 62
     3
370
    25
100
AcDbLine
 10
-115.3333293015757
 20
-25.06666766057424
 30
0.0
 11
-115.3333293015757
 21
56.76666811158248
 31
0.0
  0
LINE
  5
25B
330
1F
100
AcDbEntity
  8
16
  6
Continuous
 62
     3
370
    25
100
AcDbLine
 10
-115.3333293015757
 20
-25.06666766057424
 30
0.0
 11
-111.9999958689013
 21
-25.06666766057424
 31
0.0
  0
LINE
  5
25C
330
1F
100
AcDbEntity
  8
16
  6
Continuous
 62
     3
370
    25
100
AcDbLine
 10
-111.9999958689013
 20
-25.06666766057424
 30
0.0
 11
-111.9999958689013
 21
56.76666811158248
 31
0.0
  0
LINE
  5
25D
330
1F
100
AcDbEntity
  8
16
  6
Continuous
 62
     3
370
    25
100
AcDbLine
 10
-115.3333293015757
 20
56.76666811158248
 30
0.0
 11
-111.9999958689013
 21
56.76666811158248
 31
0.0
  0
LINE
  5
25E
330
1F
100
AcDbEntity
  8
16
  6
Continuous
 62
     3
370
    25
100
AcDbLine
 10
-114.6666626150409
 20
-25.06666766057424
 30
0.0
 11
-114.6666626150409
 21
56.76666811158248
 31
0.0
  0
LINE
  5
25F
330
1F
100
AcDbEntity
  8
16
  6
Continuous
 62
     3
370
    25
100
AcDbLine
 10
-112.6666625554362
 20
-25.06666766057424
 30
0.0
 11
-112.6666625554362
 21
56.76666811158248
 31
0.0
  0
LINE
  5
260
330
1F
100
AcDbEntity
  8
16
  6
Continuous
 62
     3
370
    25
100
AcDbLine
 10
-113.6666625852385
 20
-24.23333430240564
 30
0.0
 11
-113.6666625852385
 21
55.93333475341386
 31
0.0
  0
LINE
  5
261
330
1F
100
AcDbEntity
  8
16
  6
Continuous
 62
     3
370
    25
100
AcDbLine
 10
-110.6833301802476
 20
-25.06666766057424
 30
0.0
 11
-110.6833301802476
 21
56.76666811158248
 31
0.0
  0
LINE
  5
262
330
1F
100
AcDbEntity
  8
16
  6
Continuous
 62
     3
370
    25
100
AcDbLine
 10
-110.6833301802476
 20
-25.06666766057424
 30
0.0
 11
-107.3499967475732
 21
-25.06666766057424
 31
0.0
  0
LINE
  5
263
330
1F
100
AcDbEntity
  8
16
  6
Continuous
 62
     3
370
    25
100
AcDbLine
 10
-107.3499967475732
 20
-25.06666766057424
 30
0.0
 11
-107.3499967475732
 21
56.76666811158248
 31
0.0
  0
LINE
  5
264
330
1F
100
AcDbEntity
  8
16
  6
Continuous
 62
     3
370
    25
100
AcDbLine
 10
-110.6833301802476
 20
56.76666811158248
 30
0.0
 11
-107.3499967475732
 21
56.76666811158248
 31
0.0
  0
LINE
  5
265
330
1F
100
AcDbEntity
  8
16
  6
Continuous
 62
     3
370
    25
100
AcDbLine
 10
-110.0166634937127
 20
-25.06666766057424
 30
0.0
 11
-110.0166634937127
 21
56.76666811158248
 31
0.0
  0
LINE
  5
266
330
1F
100
AcDbEntity
  8
16
  6
Continuous
 62
     3
370
    25
100
AcDbLine
 10
-108.0166634341081
 20
-25.06666766057424
 30
0.0
 11
-108.0166634341081
 21
56.76666811158248
 31
0.0
  0
LINE
  5
267
330
1F
100
AcDbEntity
  8
16
  6
Continuous
 62
     3
370
    25
100
AcDbLine
 10
-109.0166634639104
 20
-24.23333430240564
 30
0.0
 11
-109.0166634639104
 21
55.93333475341386
 31
0.0
  0
LINE
  5
268
330
1F
100
AcDbEntity
  8
16
  6
Continuous
 62
     3
370
    25
100
AcDbLine
 10
-106.0333310589194
 20
-25.06666766057424
 30
0.0
 11
-106.0333310589194
 21
56.76666811158248
 31
0.0
  0
LINE
  5
269
330
1F
100
AcDbEntity
  8
16
  6
Continuous
 62
     3
370
    25
100
AcDbLine
 10
-106.0333310589194
 20
-25.06666766057424
 30
0.0
 11
-102.699997626245
 21
-25.06666766057424
 31
0.0
  0
LINE
  5
26A
330
1F
100
AcDbEntity
  8
16
  6
Continuous
 62
     3
370
    25
100
AcDbLine
 10
-102.699997626245
 20
-25.06666766057424
 30
0.0
 11
-102.699997626245
 21
56.76666811158248
 31
0.0
  0
LINE
  5
26B
330
1F
100
AcDbEntity
  8
16
  6
Continuous
 62
     3
370
    25
100
AcDbLine
 10
-106.0333310589194
 20
56.76666811158248
 30
0.0
 11
-102.699997626245
 21
56.76666811158248
 31
0.0
  0
LINE
  5
26C
330
1F
100
AcDbEntity
  8
16
  6
Continuous
 62
     3
370
    25
100
AcDbLine
 10
-105.3666643723845
 20
-25.06666766057424
 30
0.0
 11
-105.3666643723845
 21
56.76666811158248
 31
0.0
  0
LINE
  5
26D
330
1F
100
AcDbEntity
  8
16
  6
Continuous
 62
     3
370
    25
100
AcDbLine
 10
-103.3666643127799
 20
-25.06666766057424
 30
0.0
 11
-103.3666643127799
 21
56.76666811158248
 31
0.0
  0
LINE
  5
26E
330
1F
100
AcDbEntity
  8
16
  6
Continuous
 62
     3
370
    25
100
AcDbLine
 10
-104.3666643425822
 20
-24.23333430240564
 30
0.0
 11
-104.3666643425822
 21
55.93333475341386
 31
0.0
  0
LINE
  5
26F
330
1F
100
AcDbEntity
  8
16
  6
Continuous
 62
     3
370
    25
100
AcDbLine
 10
-101.3833319375913
 20
-25.06666766057424
 30
0.0
 11
-101.3833319375913
 21
56.76666811158248
 31
0.0
  0
LINE
  5
270
330
1F
100
AcDbEntity
  8
16
  6
Continuous
 62
     3
370
    25
100
AcDbLine
 10
-101.3833319375913
 20
-25.06666766057424
 30
0.0
 11
-98.04999850491686
 21
-25.06666766057424
 31
0.0
  0
LINE
  5
271
330
1F
100
AcDbEntity
  8
16
  6
Continuous
 62
     3
370
    25
100
AcDbLine
 10
-98.04999850491686
 20
-25.06666766057424
 30
0.0
 11
-98.04999850491686
 21
56.76666811158248
 31
0.0
  0
LINE
  5
272
330
1F
100
AcDbEntity
  8
16
  6
Continuous
 62
     3
370
    25
100
AcDbLine
 10
-101.3833319375913
 20
56.76666811158248
 30
0.0
 11
-98.04999850491686
 21
56.76666811158248
 31
0.0
  0
LINE
  5
273
330
1F
100
AcDbEntity
  8
16
  6
Continuous
 62
     3
370
    25
100
AcDbLine
 10
-100.7166652510564
 20
-25.06666766057424
 30
0.0
 11
-100.7166652510564
 21
56.76666811158248
 31
0.0
  0
LINE
  5
274
330
1F
100
AcDbEntity
  8
16
  6
Continuous
 62
     3
370
    25
100
AcDbLine
 10
-98.71666519145174
 20
-25.06666766057424
 30
0.0
 11
-98.71666519145174
 21
56.76666811158248
 31
0.0
  0
LINE
  5
275
330
1F
100
AcDbEntity
  8
16
  6
Continuous
 62
     3
370
    25
100
AcDbLine
 10
-99.71666522125406
 20
-24.23333430240564
 30
0.0
 11
-99.71666522125406
 21
55.93333475341386
 31
0.0
  0
LINE
  5
276
330
1F
100
AcDbEntity
  8
16
  6
Continuous
 62
     3
370
    25
100
AcDbLine
 10
-96.7333328162631
 20
-25.06666766057424
 30
0.0
 11
-96.7333328162631
 21
56.76666811158248
 31
0.0
  0
LINE
  5
277
330
1F
100
AcDbEntity
  8
16
  6
Continuous
 62
     3
370
    25
100
AcDbLine
 10
-96.7333328162631
 20
-25.06666766057424
 30
0.0
 11
-93.39999938358869
 21
-25.06666766057424
 31
0.0
  0
LINE
  5
278
330
1F
100
AcDbEntity
  8
16
  6
Continuous
 62
     3
370
    25
100
AcDbLine
 10
-93.39999938358869
 20
-25.06666766057424
 30
0.0
 11
-93.39999938358869
 21
56.76666811158248
 31
0.0
  0
LINE
  5
279
330
1F
100
AcDbEntity
  8
16
  6
Continuous
 62
     3
370
    25
100
AcDbLine
 10
-96.7333328162631
 20
56.76666811158248
 30
0.0
 11
-93.39999938358869
 21
56.76666811158248
 31
0.0
  0
LINE
  5
27A
330
1F
100
AcDbEntity
  8
16
  6
Continuous
 62
     3
370
    25
100
AcDbLine
 10
-96.06666612972822
 20
-25.06666766057424
 30
0.0
 11
-96.06666612972822
 21
56.76666811158248
 31
0.0
  0
LINE
  5
27B
330
1F
100
AcDbEntity
  8
16
  6
Continuous
 62
     3
370
    25
100
AcDbLine
 10
-94.06666607012357
 20
-25.06666766057424
 30
0.0
 11
-94.06666607012357
 21
56.76666811158248
 31
0.0
  0
LINE
  5
27C
330
1F
100
AcDbEntity
  8
16
  6
Continuous
 62
     3
370
    25
100
AcDbLine
 10
-95.0666660999259
 20
-24.23333430240564
 30
0.0
 11
-95.0666660999259
 21
55.93333475341386
 31
0.0
  0
LINE
  5
27D
330
1F
100
AcDbEntity
  8
16
  6
Continuous
 62
     3
370
    25
100
AcDbLine
 10
-92.08332860867176
 20
-25.06666766057424
 30
0.0
 11
-92.08332860867176
 21
56.76666811158248
 31
0.0
  0
LINE
  5
27E
330
1F
100
AcDbEntity
  8
16
  6
Continuous
 62
     3
370
    25
100
AcDbLine
 10
-92.08332860867176
 20
-25.06666766057424
 30
0.0
 11
-88.74999517599736
 21
-25.06666766057424
 31
0.0
  0
LINE
  5
27F
330
1F
100
AcDbEntity
  8
16
  6
Continuous
 62
     3
370
    25
100
AcDbLine
 10
-88.74999517599736
 20
-25.06666766057424
 30
0.0
 11
-88.74999517599736
 21
56.76666811158248
 31
0.0
  0
LINE
  5
280
330
1F
100
AcDbEntity
  8
16
  6
Continuous
 62
     3
370
    25
100
AcDbLine
 10
-92.08332860867176
 20
56.76666811158248
 30
0.0
 11
-88.74999517599736
 21
56.76666811158248
 31
0.0
  0
LINE
  5
281
330
1F
100
AcDbEntity
  8
16
  6
Continuous
 62
     3
370
    25
100
AcDbLine
 10
-91.41666192213688
 20
-25.06666766057424
 30
0.0
 11
-91.41666192213688
 21
56.76666811158248
 31
0.0
  0
LINE
  5
282
330
1F
100
AcDbEntity
  8
16
  6
Continuous
 62
     3
370
    25
100
AcDbLine
 10
-89.41666186253224
 20
-25.06666766057424
 30
0.0
 11
-89.41666186253224
 21
56.76666811158248
 31
0.0
  0
LINE
  5
283
330
1F
100
AcDbEntity
  8
16
  6
Continuous
 62
     3
370
    25
100
AcDbLine
 10
-90.41666189233456
 20
-24.23333430240564
 30
0.0
 11
-90.41666189233456
 21
55.93333475341386
 31
0.0
  0
LINE
  5
284
330
1F
100
AcDbEntity
  8
16
  6
Continuous
 62
     3
370
    25
100
AcDbLine
 10
-87.43333457360677
 20
-25.06666766057424
 30
0.0
 11
-87.43333457360677
 21
56.76666811158248
 31
0.0
  0
LINE
  5
285
330
1F
100
AcDbEntity
  8
16
  6
Continuous
 62
     3
370
    25
100
AcDbLine
 10
-87.43333457360677
 20
-25.06666766057424
 30
0.0
 11
-84.10000114093236
 21
-25.06666766057424
 31
0.0
  0
LINE
  5
286
330
1F
100
AcDbEntity
  8
16
  6
Continuous
 62
     3
370
    25
100
AcDbLine
 10
-84.10000114093236
 20
-25.06666766057424
 30
0.0
 11
-84.10000114093236
 21
56.76666811158248
 31
0.0
  0
LINE
  5
287
330
1F
100
AcDbEntity
  8
16
  6
Continuous
 62
     3
370
    25
100
AcDbLine
 10
-87.43333457360677
 20
56.76666811158248
 30
0.0
 11
-84.10000114093236
 21
56.76666811158248
 31
0.0
  0
LINE
  5
288
330
1F
100
AcDbEntity
  8
16
  6
Continuous
 62
     3
370
    25
100
AcDbLine
 10
-86.76666788707189
 20
-25.06666766057424
 30
0.0
 11
-86.76666788707189
 21
56.76666811158248
 31
0.0
  0
LINE
  5
289
330
1F
100
AcDbEntity
  8
16
  6
Continuous
 62
     3
370
    25
100
AcDbLine
 10
-84.76666782746724
 20
-25.06666766057424
 30
0.0
 11
-84.76666782746724
 21
56.76666811158248
 31
0.0
  0
LINE
  5
28A
330
1F
100
AcDbEntity
  8
16
  6
Continuous
 62
     3
370
    25
100
AcDbLine
 10
-85.76666785726957
 20
-24.23333430240564
 30
0.0
 11
-85.76666785726957
 21
55.93333475341386
 31
0.0
  0
LINE
  5
28B
330
1F
100
AcDbEntity
  8
16
  6
Continuous
 62
     3
370
    25
100
AcDbLine
 10
-82.78333036601543
 20
-25.06666766057424
 30
0.0
 11
-82.78333036601543
 21
56.76666811158248
 31
0.0
  0
LINE
  5
28C
330
1F
100
AcDbEntity
  8
16
  6
Continuous
 62
     3
370
    25
100
AcDbLine
 10
-82.78333036601543
 20
-25.06666766057424
 30
0.0
 11
-79.44999693334103
 21
-25.06666766057424
 31
0.0
  0
LINE
  5
28D
330
1F
100
AcDbEntity
  8
16
  6
Continuous
 62
     3
370
    25
100
AcDbLine
 10
-79.44999693334103
 20
-25.06666766057424
 30
0.0
 11
-79.44999693334103
 21
56.76666811158248
 31
0.0
  0
LINE
  5
28E
330
1F
100
AcDbEntity
  8
16
  6
Continuous
 62
     3
370
    25
100
AcDbLine
 10
-82.78333036601543
 20
56.76666811158248
 30
0.0
 11
-79.44999693334103
 21
56.76666811158248
 31
0.0
  0
LINE
  5
28F
330
1F
100
AcDbEntity
  8
16
  6
Continuous
 62
     3
370
    25
100
AcDbLine
 10
-82.11666367948055
 20
-25.06666766057424
 30
0.0
 11
-82.11666367948055
 21
56.76666811158248
 31
0.0
  0
LINE
  5
290
330
1F
100
AcDbEntity
  8
16
  6
Continuous
 62
     3
370
    25
100
AcDbLine
 10
-80.11666361987591
 20
-25.06666766057424
 30
0.0
 11
-80.11666361987591
 21
56.76666811158248
 31
0.0
  0
LINE
  5
291
330
1F
100
AcDbEntity
  8
16
  6
Continuous
 62
     3
370
    25
100
AcDbLine
 10
-81.11666364967823
 20
-24.23333430240564
 30
0.0
 11
-81.11666364967823
 21
55.93333475341386
 31
0.0
  0
LINE
  5
292
330
1F
100
AcDbEntity
  8
16
  6
Continuous
 62
     3
370
    25
100
AcDbLine
 10
-78.1333261584241
 20
-25.06666766057424
 30
0.0
 11
-78.1333261584241
 21
56.76666811158248
 31
0.0
  0
LINE
  5
293
330
1F
100
AcDbEntity
  8
16
  6
Continuous
 62
     3
370
    25
100
AcDbLine
 10
-78.1333261584241
 20
-25.06666766057424
 30
0.0
 11
-74.79999272574969
 21
-25.06666766057424
 31
0.0
  0
LINE
  5
294
330
1F
100
AcDbEntity
  8
16
  6
Continuous
 62
     3
370
    25
100
AcDbLine
 10
-74.79999272574969
 20
-25.06666766057424
 30
0.0
 11
-74.79999272574969
 21
56.76666811158248
 31
0.0
  0
LINE
  5
295
330
1F
100
AcDbEntity
  8
16
  6
Continuous
 62
     3
370
    25
100
AcDbLine
 10
-78.1333261584241
 20
56.76666811158248
 30
0.0
 11
-74.79999272574969
 21
56.76666811158248
 31
0.0
  0
LINE
  5
296
330
1F
100
AcDbEntity
  8
16
  6
Continuous
 62
     3
370
    25
100
AcDbLine
 10
-77.46665947188922
 20
-25.06666766057424
 30
0.0
 11
-77.46665947188922
 21
56.76666811158248
 31
0.0
  0
LINE
  5
297
330
1F
100
AcDbEntity
  8
16
  6
Continuous
 62
     3
370
    25
100
AcDbLine
 10
-75.46665941228457
 20
-25.06666766057424
 30
0.0
 11
-75.46665941228457
 21
56.76666811158248
 31
0.0
  0
LINE
  5
298
330
1F
100
AcDbEntity
  8
16
  6
Continuous
 62
     3
370
    25
100
AcDbLine
 10
-76.4666594420869
 20
-24.23333430240564
 30
0.0
 11
-76.4666594420869
 21
55.93333475341386
 31
0.0
  0
LINE
  5
299
330
1F
100
AcDbEntity
  8
16
  6
Continuous
 62
     3
370
    25
100
AcDbLine
 10
-73.4833321233591
 20
-25.06666766057424
 30
0.0
 11
-73.4833321233591
 21
56.76666811158248
 31
0.0
  0
LINE
  5
29A
330
1F
100
AcDbEntity
  8
16
  6
Continuous
 62
     3
370
    25
100
AcDbLine
 10
-73.4833321233591
 20
-25.06666766057424
 30
0.0
 11
-70.1499986906847
 21
-25.06666766057424
 31
0.0
  0
LINE
  5
29B
330
1F
100
AcDbEntity
  8
16
  6
Continuous
 62
     3
370
    25
100
AcDbLine
 10
-70.1499986906847
 20
-25.06666766057424
 30
0.0
 11
-70.1499986906847
 21
56.76666811158248
 31
0.0
  0
LINE
  5
29C
330
1F
100
AcDbEntity
  8
16
  6
Continuous
 62
     3
370
    25
100
AcDbLine
 10
-73.4833321233591
 20
56.76666811158248
 30
0.0
 11
-70.1499986906847
 21
56.76666811158248
 31
0.0
  0
LINE
  5
29D
330
1F
100
AcDbEntity
  8
16
  6
Continuous
 62
     3
370
    25
100
AcDbLine
 10
-72.81666543682422
 20
-25.06666766057424
 30
0.0
 11
-72.81666543682422
 21
56.76666811158248
 31
0.0
  0
LINE
  5
29E
330
1F
100
AcDbEntity
  8
16
  6
Continuous
 62
     3
370
    25
100
AcDbLine
 10
-70.81666537721958
 20
-25.06666766057424
 30
0.0
 11
-70.81666537721958
 21
56.76666811158248
 31
0.0
  0
LINE
  5
29F
330
1F
100
AcDbEntity
  8
16
  6
Continuous
 62
     3
370
    25
100
AcDbLine
 10
-71.8166654070219
 20
-24.23333430240564
 30
0.0
 11
-71.8166654070219
 21
55.93333475341386
 31
0.0
  0
LINE
  5
2A0
330
1F
100
AcDbEntity
  8
16
  6
Continuous
 62
     3
370
    25
100
AcDbLine
 10
-68.83332791576777
 20
-25.06666766057424
 30
0.0
 11
-68.83332791576777
 21
56.76666811158248
 31
0.0
  0
LINE
  5
2A1
330
1F
100
AcDbEntity
  8
16
  6
Continuous
 62
     3
370
    25
100
AcDbLine
 10
-68.83332791576777
 20
-25.06666766057424
 30
0.0
 11
-65.49999448309336
 21
-25.06666766057424
 31
0.0
  0
LINE
  5
2A2
330
1F
100
AcDbEntity
  8
16
  6
Continuous
 62
     3
370
    25
100
AcDbLine
 10
-65.49999448309336
 20
-25.06666766057424
 30
0.0
 11
-65.49999448309336
 21
56.76666811158248
 31
0.0
  0
LINE
  5
2A3
330
1F
100
AcDbEntity
  8
16
  6
Continuous
 62
     3
370
    25
100
AcDbLine
 10
-68.83332791576777
 20
56.76666811158248
 30
0.0
 11
-65.49999448309336
 21
56.76666811158248
 31
0.0
  0
LINE
  5
2A4
330
1F
100
AcDbEntity
  8
16
  6
Continuous
 62
     3
370
    25
100
AcDbLine
 10
-68.16666122923289
 20
-25.06666766057424
 30
0.0
 11
-68.16666122923289
 21
56.76666811158248
 31
0.0
  0
LINE
  5
2A5
330
1F
100
AcDbEntity
  8
16
  6
Continuous
 62
     3
370
    25
100
AcDbLine
 10
-66.16666116962824
 20
-25.06666766057424
 30
0.0
 11
-66.16666116962824
 21
56.76666811158248
 31
0.0
  0
LINE
  5
2A6
330
1F
100
AcDbEntity
  8
16
  6
Continuous
 62
     3
370
    25
100
AcDbLine
 10
-67.16666119943056
 20
-24.23333430240564
 30
0.0
 11
-67.16666119943056
 21
55.93333475341386
 31
0.0
  0
LINE
  5
2A7
330
1F
100
AcDbEntity
  8
16
  6
Continuous
 62
     3
370
    25
100
AcDbLine
 10
-64.2999924128253
 20
-25.06666766057424
 30
0.0
 11
-64.2999924128253
 21
56.76666811158248
 31
0.0
  0
LINE
  5
2A8
330
1F
100
AcDbEntity
  8
16
  6
Continuous
 62
     3
370
    25
100
AcDbLine
 10
-64.2999924128253
 20
-25.06666766057424
 30
0.0
 11
-60.9666589801509
 21
-25.06666766057424
 31
0.0
  0
LINE
  5
2A9
330
1F
100
AcDbEntity
  8
16
  6
Continuous
 62
     3
370
    25
100
AcDbLine
 10
-60.9666589801509
 20
-25.06666766057424
 30
0.0
 11
-60.9666589801509
 21
56.76666811158248
 31
0.0
  0
LINE
  5
2AA
330
1F
100
AcDbEntity
  8
16
  6
Continuous
 62
     3
370
    25
100
AcDbLine
 10
-64.2999924128253
 20
56.76666811158248
 30
0.0
 11
-60.9666589801509
 21
56.76666811158248
 31
0.0
  0
LINE
  5
2AB
330
1F
100
AcDbEntity
  8
16
  6
Continuous
 62
     3
370
    25
100
AcDbLine
 10
-63.63332572629043
 20
-25.06666766057424
 30
0.0
 11
-63.63332572629043
 21
56.76666811158248
 31
0.0
  0
LINE
  5
2AC
330
1F
100
AcDbEntity
  8
16
  6
Continuous
 62
     3
370
    25
100
AcDbLine
 10
-61.63332566668578
 20
-25.06666766057424
 30
0.0
 11
-61.63332566668578
 21
56.76666811158248
 31
0.0
  0
LINE
  5
2AD
330
1F
100
AcDbEntity
  8
16
  6
Continuous
 62
     3
370
    25
100
AcDbLine
 10
-62.63332569648811
 20
-24.23333430240564
 30
0.0
 11
-62.63332569648811
 21
55.93333475341386
 31
0.0
  0
LINE
  5
2AE
330
1F
100
AcDbEntity
  8
16
  6
Continuous
 62
     3
370
    25
100
AcDbLine
 10
-15.9666576390464
 20
56.76666811158248
 30
0.0
 11
-10.63332414676734
 21
56.76666811158248
 31
0.0
  0
LINE
  5
2AF
330
1F
100
AcDbEntity
  8
16
  6
Continuous
 62
     3
370
    25
100
AcDbLine
 10
-10.63332414676734
 20
56.76666811158248
 30
0.0
 11
-10.63332414676734
 21
57.51666813393422
 31
0.0
  0
LINE
  5
2B0
330
1F
100
AcDbEntity
  8
16
  6
Continuous
 62
     3
370
    25
100
AcDbLine
 10
-10.63332414676734
 20
57.51666813393422
 30
0.0
 11
-15.9666576390464
 21
57.51666813393422
 31
0.0
  0
LINE
  5
2B1
330
1F
100
AcDbEntity
  8
16
  6
Continuous
 62
     3
370
    25
100
AcDbLine
 10
-15.9666576390464
 20
57.51666813393422
 30
0.0
 11
-15.9666576390464
 21
56.76666811158248
 31
0.0
  0
LINE
  5
2B2
330
1F
100
AcDbEntity
  8
16
  6
Continuous
 62
     3
370
    25
100
AcDbLine
 10
-15.9666576390464
 20
-25.06666766057424
 30
0.0
 11
-10.63332414676734
 21
-25.06666766057424
 31
0.0
  0
LINE
  5
2B3
330
1F
100
AcDbEntity
  8
16
  6
Continuous
 62
     3
370
    25
100
AcDbLine
 10
-10.63332414676734
 20
-25.06666766057424
 30
0.0
 11
-10.63332414676734
 21
-25.81666768292598
 31
0.0
  0
LINE
  5
2B4
330
1F
100
AcDbEntity
  8
16
  6
Continuous
 62
     3
370
    25
100
AcDbLine
 10
-10.63332414676734
 20
-25.81666768292598
 30
0.0
 11
-15.9666576390464
 21
-25.81666768292598
 31
0.0
  0
LINE
  5
2B5
330
1F
100
AcDbEntity
  8
16
  6
Continuous
 62
     3
370
    25
100
AcDbLine
 10
-15.9666576390464
 20
-25.81666768292598
 30
0.0
 11
-15.9666576390464
 21
-25.06666766057424
 31
0.0
  0
ARC
  5
2B6
330
1F
100
AcDbEntity
  8
16
  6
Continuous
 62
     3
370
    25
100
AcDbCircle
 10
-12.96665754963943
 20
40.85000097056218
 30
0.0
 40
0.6666666865348816
100
AcDbArc
 50
46.60000000000011
 51
133.4000000000003
  0
ARC
  5
2B7
330
1F
100
AcDbEntity
  8
16
  6
Continuous
 62
     3
370
    25
100
AcDbCircle
 10
-12.96665754963943
 20
40.85000097056218
 30
0.0
 40
0.6666666865348816
100
AcDbArc
 50
226.6000000000004
 51
313.4000000000007
  0
LINE
  5
2B8
330
1F
100
AcDbEntity
  8
16
  6
Continuous
 62
     3
370
    25
100
AcDbLine
 10
-12.63332420637199
 20
41.35000098546334
 30
0.0
 11
-13.29999089290687
 21
41.35000098546334
 31
0.0
  0
ARC
  5
2B9
330
1F
100
AcDbEntity
  8
16
  6
Continuous
 62
     3
370
    25
100
AcDbCircle
 10
-13.29999105630432
 20
40.85000097056221
 30
0.0
 40
0.5000000149011612
100
AcDbArc
 50
90.0000000000002
 51
270.0000000000006
  0
LINE
  5
2BA
330
1F
100
AcDbEntity
  8
16
  6
Continuous
 62
     3
370
    25
100
AcDbLine
 10
-13.29999154649668
 20
40.35000095566129
 30
0.0
 11
-12.6333248599618
 21
40.35000095566129
 31
0.0
  0
ARC
  5
2BB
330
1F
100
AcDbEntity
  8
16
  6
Continuous
 62
     3
370
    25
100
AcDbCircle
 10
-12.63332436976944
 20
40.85000097056221
 30
0.0
 40
0.5000000149011612
100
AcDbArc
 50
270.0000000000006
 51
90.00000000000102
  0
LINE
  5
2BC
330
1F
100
AcDbEntity
  8
16
  6
Continuous
 62
     3
370
    25
100
AcDbLine
 10
-14.29999092270919
 20
40.85000097056218
 30
0.0
 11
-11.63332417656967
 21
40.85000097056218
 31
0.0
  0
LINE
  5
2BD
330
1F
100
AcDbEntity
  8
16
  6
Continuous
 62
     3
370
    25
100
AcDbLine
 10
-12.96665754963943
 20
41.8500010003645
 30
0.0
 11
-12.96665754963943
 21
39.85000094075986
 31
0.0
  0
ARC
  5
2BE
330
1F
100
AcDbEntity
  8
16
  6
Continuous
 62
     3
370
    25
100
AcDbCircle
 10
-12.96665754963943
 20
24.18333380719014
 30
0.0
 40
0.6666666865348816
100
AcDbArc
 50
46.60000000000011
 51
133.4000000000003
  0
ARC
  5
2BF
330
1F
100
AcDbEntity
  8
16
  6
Continuous
 62
     3
370
    25
100
AcDbCircle
 10
-12.96665754963943
 20
24.18333380719014
 30
0.0
 40
0.6666666865348816
100
AcDbArc
 50
226.6000000000004
 51
313.4000000000007
  0
LINE
  5
2C0
330
1F
100
AcDbEntity
  8
16
  6
Continuous
 62
     3
370
    25
100
AcDbLine
 10
-12.63332420637199
 20
24.6833338220913
 30
0.0
 11
-13.29999089290687
 21
24.6833338220913
 31
0.0
  0
ARC
  5
2C1
330
1F
100
AcDbEntity
  8
16
  6
Continuous
 62
     3
370
    25
100
AcDbCircle
 10
-13.29999105630432
 20
24.18333380719017
 30
0.0
 40
0.5000000149011612
100
AcDbArc
 50
90.0000000000002
 51
270.0000000000006
  0
LINE
  5
2C2
330
1F
100
AcDbEntity
  8
16
  6
Continuous
 62
     3
370
    25
100
AcDbLine
 10
-13.29999154649668
 20
23.68333379228925
 30
0.0
 11
-12.6333248599618
 21
23.68333379228925
 31
0.0
  0
ARC
  5
2C3
330
1F
100
AcDbEntity
  8
16
  6
Continuous
 62
     3
370
    25
100
AcDbCircle
 10
-12.63332436976944
 20
24.18333380719017
 30
0.0
 40
0.5000000149011612
100
AcDbArc
 50
270.0000000000006
 51
90.00000000000102
  0
LINE
  5
2C4
330
1F
100
AcDbEntity
  8
16
  6
Continuous
 62
     3
370
    25
100
AcDbLine
 10
-14.29999092270919
 20
24.18333380719014
 30
0.0
 11
-11.63332417656967
 21
24.18333380719014
 31
0.0
  0
LINE
  5
2C5
330
1F
100
AcDbEntity
  8
16
  6
Continuous
 62
     3
370
    25
100
AcDbLine
 10
-12.96665754963943
 20
25.18333383699246
 30
0.0
 11
-12.96665754963943
 21
23.18333377738782
 31
0.0
  0
ARC
  5
2C6
330
1F
100
AcDbEntity
  8
16
  6
Continuous
 62
     3
370
    25
100
AcDbCircle
 10
-12.96665754963943
 20
7.516666643818098
 30
0.0
 40
0.6666666865348816
100
AcDbArc
 50
46.60000000000011
 51
133.4000000000003
  0
ARC
  5
2C7
330
1F
100
AcDbEntity
  8
16
  6
Continuous
 62
     3
370
    25
100
AcDbCircle
 10
-12.96665754963943
 20
7.516666643818098
 30
0.0
 40
0.6666666865348816
100
AcDbArc
 50
226.6000000000004
 51
313.4000000000007
  0
LINE
  5
2C8
330
1F
100
AcDbEntity
  8
16
  6
Continuous
 62
     3
370
    25
100
AcDbLine
 10
-12.63332420637199
 20
8.01666665871926
 30
0.0
 11
-13.29999089290687
 21
8.01666665871926
 31
0.0
  0
ARC
  5
2C9
330
1F
100
AcDbEntity
  8
16
  6
Continuous
 62
     3
370
    25
100
AcDbCircle
 10
-13.29999105630432
 20
7.516666643818127
 30
0.0
 40
0.5000000149011612
100
AcDbArc
 50
90.0000000000002
 51
270.0000000000006
  0
LINE
  5
2CA
330
1F
100
AcDbEntity
  8
16
  6
Continuous
 62
     3
370
    25
100
AcDbLine
 10
-13.29999154649668
 20
7.016666628917207
 30
0.0
 11
-12.6333248599618
 21
7.016666628917207
 31
0.0
  0
ARC
  5
2CB
330
1F
100
AcDbEntity
  8
16
  6
Continuous
 62
     3
370
    25
100
AcDbCircle
 10
-12.63332436976944
 20
7.516666643818127
 30
0.0
 40
0.5000000149011612
100
AcDbArc
 50
270.0000000000006
 51
90.00000000000102
  0
LINE
  5
2CC
330
1F
100
AcDbEntity
  8
16
  6
Continuous
 62
     3
370
    25
100
AcDbLine
 10
-14.29999092270919
 20
7.516666643818098
 30
0.0
 11
-11.63332417656967
 21
7.516666643818098
 31
0.0
  0
LINE
  5
2CD
330
1F
100
AcDbEntity
  8
16
  6
Continuous
 62
     3
370
    25
100
AcDbLine
 10
-12.96665754963943
 20
8.51666667362042
 30
0.0
 11
-12.96665754963943
 21
6.516666614015776
 31
0.0
  0
ARC
  5
2CE
330
1F
100
AcDbEntity
  8
16
  6
Continuous
 62
     3
370
    25
100
AcDbCircle
 10
-12.96665754963943
 20
-9.150000519553942
 30
0.0
 40
0.6666666865348816
100
AcDbArc
 50
46.60000000000011
 51
133.4000000000003
  0
ARC
  5
2CF
330
1F
100
AcDbEntity
  8
16
  6
Continuous
 62
     3
370
    25
100
AcDbCircle
 10
-12.96665754963943
 20
-9.150000519553942
 30
0.0
 40
0.6666666865348816
100
AcDbArc
 50
226.6000000000004
 51
313.4000000000007
  0
LINE
  5
2D0
330
1F
100
AcDbEntity
  8
16
  6
Continuous
 62
     3
370
    25
100
AcDbLine
 10
-12.63332420637199
 20
-8.65000050465278
 30
0.0
 11
-13.29999089290687
 21
-8.65000050465278
 31
0.0
  0
ARC
  5
2D1
330
1F
100
AcDbEntity
  8
16
  6
Continuous
 62
     3
370
    25
100
AcDbCircle
 10
-13.29999105630432
 20
-9.150000519553915
 30
0.0
 40
0.5000000149011612
100
AcDbArc
 50
90.0000000000002
 51
270.0000000000006
  0
LINE
  5
2D2
330
1F
100
AcDbEntity
  8
16
  6
Continuous
 62
     3
370
    25
100
AcDbLine
 10
-13.29999154649668
 20
-9.650000534454836
 30
0.0
 11
-12.6333248599618
 21
-9.650000534454836
 31
0.0
  0
ARC
  5
2D3
330
1F
100
AcDbEntity
  8
16
  6
Continuous
 62
     3
370
    25
100
AcDbCircle
 10
-12.63332436976944
 20
-9.150000519553915
 30
0.0
 40
0.5000000149011612
100
AcDbArc
 50
270.0000000000006
 51
90.00000000000102
  0
LINE
  5
2D4
330
1F
100
AcDbEntity
  8
16
  6
Continuous
 62
     3
370
    25
100
AcDbLine
 10
-14.29999092270919
 20
-9.150000519553942
 30
0.0
 11
-11.63332417656967
 21
-9.150000519553942
 31
0.0
  0
LINE
  5
2D5
330
1F
100
AcDbEntity
  8
16
  6
Continuous
 62
     3
370
    25
100
AcDbLine
 10
-12.96665754963943
 20
-8.15000048975162
 30
0.0
 11
-12.96665754963943
 21
-10.15000054935626
 31
0.0
  0
LINE
  5
2D6
330
1F
100
AcDbEntity
  8
16
  6
Continuous
 62
     3
370
    25
100
AcDbLine
 10
-15.9666576390464
 20
56.76666811158248
 30
0.0
 11
-15.9666576390464
 21
-25.06666766057424
 31
0.0
  0
LINE
  5
2D7
330
1F
100
AcDbEntity
  8
16
  6
Continuous
 62
     3
370
    25
100
AcDbLine
 10
-15.9666576390464
 20
-25.06666766057424
 30
0.0
 11
-10.63332414676734
 21
-25.06666766057424
 31
0.0
  0
LINE
  5
2D8
330
1F
100
AcDbEntity
  8
16
  6
Continuous
 62
     3
370
    25
100
AcDbLine
 10
-10.63332414676734
 20
-25.06666766057424
 30
0.0
 11
-10.63332414676734
 21
56.76666811158248
 31
0.0
  0
LINE
  5
2D9
330
1F
100
AcDbEntity
  8
16
  6
Continuous
 62
     3
370
    25
100
AcDbLine
 10
-10.63332414676734
 20
56.76666811158248
 30
0.0
 11
-15.9666576390464
 21
56.76666811158248
 31
0.0
  0
LINE
  5
2DA
330
1F
100
AcDbEntity
  8
16
  6
Continuous
 62
     3
370
    25
100
AcDbLine
 10
-15.63332429577895
 20
56.76666811158248
 30
0.0
 11
-15.63332429577895
 21
-25.06666766057424
 31
0.0
  0
LINE
  5
2DB
330
1F
100
AcDbEntity
  8
16
  6
Continuous
 62
     3
370
    25
100
AcDbLine
 10
-14.46665759434291
 20
-25.06666766057424
 30
0.0
 11
-14.46665759434291
 21
56.76666811158248
 31
0.0
  0
LINE
  5
2DC
330
1F
100
AcDbEntity
  8
16
  6
Continuous
 62
     3
370
    25
100
AcDbLine
 10
-13.79999090780803
 20
56.76666811158248
 30
0.0
 11
-13.79999090780803
 21
-25.06666766057424
 31
0.0
  0
LINE
  5
2DD
330
1F
100
AcDbEntity
  8
16
  6
Continuous
 62
     3
370
    25
100
AcDbLine
 10
-124.6333326304952
 20
-70.06666391541557
 30
0.0
 11
-124.6333326304952
 21
-70.39999725868302
 31
0.0
  0
LINE
  5
2DE
330
1F
100
AcDbEntity
  8
16
  6
Continuous
 62
     3
370
    25
100
AcDbLine
 10
-124.6333326304952
 20
-70.39999725868302
 30
0.0
 11
-124.1333326155941
 21
-70.39999725868302
 31
0.0
  0
LINE
  5
2DF
330
1F
100
AcDbEntity
  8
16
  6
Continuous
 62
     3
370
    25
100
AcDbLine
 10
-124.1333326155941
 20
-70.39999725868302
 30
0.0
 11
-123.4666659290592
 21
-71.56666396011906
 31
0.0
  0
LINE
  5
2E0
330
1F
100
AcDbEntity
  8
16
  6
Continuous
 62
     3
370
    25
100
AcDbLine
 10
-123.4666659290592
 20
-71.56666396011906
 30
0.0
 11
-123.4666659290592
 21
-72.06666397502022
 31
0.0
  0
LINE
  5
2E1
330
1F
100
AcDbEntity
  8
16
  6
Continuous
 62
     3
370
    25
100
AcDbLine
 10
-123.4666659290592
 20
-72.06666397502022
 30
0.0
 11
-123.2999992574255
 21
-72.23333064665394
 31
0.0
  0
LINE
  5
2E2
330
1F
100
AcDbEntity
  8
16
  6
Continuous
 62
     3
370
    25
100
AcDbLine
 10
-123.2999992574255
 20
-72.23333064665394
 30
0.0
 11
-123.2999992574255
 21
-75.39999740769463
 31
0.0
  0
LINE
  5
2E3
330
1F
100
AcDbEntity
  8
16
  6
Continuous
 62
     3
370
    25
100
AcDbLine
 10
-123.2999992574255
 20
-75.39999740769463
 30
0.0
 11
-122.6333325708906
 21
-75.39999740769463
 31
0.0
  0
LINE
  5
2E4
330
1F
100
AcDbEntity
  8
16
  6
Continuous
 62
     3
370
    25
100
AcDbLine
 10
-122.6333325708906
 20
-75.39999740769463
 30
0.0
 11
-122.6333325708906
 21
-72.23333064665394
 31
0.0
  0
LINE
  5
2E5
330
1F
100
AcDbEntity
  8
16
  6
Continuous
 62
     3
370
    25
100
AcDbLine
 10
-122.6333325708906
 20
-72.23333064665394
 30
0.0
 11
-122.4666658992569
 21
-72.06666397502022
 31
0.0
  0
LINE
  5
2E6
330
1F
100
AcDbEntity
  8
16
  6
Continuous
 62
     3
370
    25
100
AcDbLine
 10
-122.4666658992569
 20
-72.06666397502022
 30
0.0
 11
-122.4666658992569
 21
-71.56666396011906
 31
0.0
  0
LINE
  5
2E7
330
1F
100
AcDbEntity
  8
16
  6
Continuous
 62
     3
370
    25
100
AcDbLine
 10
-122.4666658992569
 20
-71.56666396011906
 30
0.0
 11
-121.799999212722
 21
-70.39999725868302
 31
0.0
  0
LINE
  5
2E8
330
1F
100
AcDbEntity
  8
16
  6
Continuous
 62
     3
370
    25
100
AcDbLine
 10
-121.799999212722
 20
-70.39999725868302
 30
0.0
 11
-121.2999991978208
 21
-70.39999725868302
 31
0.0
  0
LINE
  5
2E9
330
1F
100
AcDbEntity
  8
16
  6
Continuous
 62
     3
370
    25
100
AcDbLine
 10
-121.2999991978208
 20
-70.39999725868302
 30
0.0
 11
-121.2999991978208
 21
-70.06666391541557
 31
0.0
  0
LINE
  5
2EA
330
1F
100
AcDbEntity
  8
16
  6
Continuous
 62
     3
370
    25
100
AcDbLine
 10
-121.2999991978208
 20
-70.06666391541557
 30
0.0
 11
-121.9666658843557
 21
-70.06666391541557
 31
0.0
  0
LINE
  5
2EB
330
1F
100
AcDbEntity
  8
16
  6
Continuous
 62
     3
370
    25
100
AcDbLine
 10
-121.9666658843557
 20
-70.06666391541557
 30
0.0
 11
-122.966665914158
 21
-71.0666639452179
 31
0.0
  0
LINE
  5
2EC
330
1F
100
AcDbEntity
  8
16
  6
Continuous
 62
     3
370
    25
100
AcDbLine
 10
-122.966665914158
 20
-71.0666639452179
 30
0.0
 11
-123.9666659439604
 21
-70.06666391541557
 31
0.0
  0
LINE
  5
2ED
330
1F
100
AcDbEntity
  8
16
  6
Continuous
 62
     3
370
    25
100
AcDbLine
 10
-123.9666659439604
 20
-70.06666391541557
 30
0.0
 11
-124.6333326304952
 21
-70.06666391541557
 31
0.0
  0
CIRCLE
  5
2EE
330
1F
100
AcDbEntity
  8
16
  6
Continuous
 62
     3
370
    25
100
AcDbCircle
 10
-122.9666660121965
 20
-70.64999726613357
 30
0.0
 40
0.3000000009934105
  0
LINE
  5
2EF
330
1F
100
AcDbEntity
  8
16
  6
Continuous
 62
     3
370
    25
100
AcDbLine
 10
-119.9833335091671
 20
-70.06666391541557
 30
0.0
 11
-119.9833335091671
 21
-70.39999725868302
 31
0.0
  0
LINE
  5
2F0
330
1F
100
AcDbEntity
  8
16
  6
Continuous
 62
     3
370
    25
100
AcDbLine
 10
-119.9833335091671
 20
-70.39999725868302
 30
0.0
 11
-119.4833334942659
 21
-70.39999725868302
 31
0.0
  0
LINE
  5
2F1
330
1F
100
AcDbEntity
  8
16
  6
Continuous
 62
     3
370
    25
100
AcDbLine
 10
-119.4833334942659
 20
-70.39999725868302
 30
0.0
 11
-118.816666807731
 21
-71.56666396011906
 31
0.0
  0
LINE
  5
2F2
330
1F
100
AcDbEntity
  8
16
  6
Continuous
 62
     3
370
    25
100
AcDbLine
 10
-118.816666807731
 20
-71.56666396011906
 30
0.0
 11
-118.816666807731
 21
-72.06666397502022
 31
0.0
  0
LINE
  5
2F3
330
1F
100
AcDbEntity
  8
16
  6
Continuous
 62
     3
370
    25
100
AcDbLine
 10
-118.816666807731
 20
-72.06666397502022
 30
0.0
 11
-118.6500001360973
 21
-72.23333064665394
 31
0.0
  0
LINE
  5
2F4
330
1F
100
AcDbEntity
  8
16
  6
Continuous
 62
     3
370
    25
100
AcDbLine
 10
-118.6500001360973
 20
-72.23333064665394
 30
0.0
 11
-118.6500001360973
 21
-75.39999740769463
 31
0.0
  0
LINE
  5
2F5
330
1F
100
AcDbEntity
  8
16
  6
Continuous
 62
     3
370
    25
100
AcDbLine
 10
-118.6500001360973
 20
-75.39999740769463
 30
0.0
 11
-117.9833334495624
 21
-75.39999740769463
 31
0.0
  0
LINE
  5
2F6
330
1F
100
AcDbEntity
  8
16
  6
Continuous
 62
     3
370
    25
100
AcDbLine
 10
-117.9833334495624
 20
-75.39999740769463
 30
0.0
 11
-117.9833334495624
 21
-72.23333064665394
 31
0.0
  0
LINE
  5
2F7
330
1F
100
AcDbEntity
  8
16
  6
Continuous
 62
     3
370
    25
100
AcDbLine
 10
-117.9833334495624
 20
-72.23333064665394
 30
0.0
 11
-117.8166667779287
 21
-72.06666397502022
 31
0.0
  0
LINE
  5
2F8
330
1F
100
AcDbEntity
  8
16
  6
Continuous
 62
     3
370
    25
100
AcDbLine
 10
-117.8166667779287
 20
-72.06666397502022
 30
0.0
 11
-117.8166667779287
 21
-71.56666396011906
 31
0.0
  0
LINE
  5
2F9
330
1F
100
AcDbEntity
  8
16
  6
Continuous
 62
     3
370
    25
100
AcDbLine
 10
-117.8166667779287
 20
-71.56666396011906
 30
0.0
 11
-117.1500000913938
 21
-70.39999725868302
 31
0.0
  0
LINE
  5
2FA
330
1F
100
AcDbEntity
  8
16
  6
Continuous
 62
     3
370
    25
100
AcDbLine
 10
-117.1500000913938
 20
-70.39999725868302
 30
0.0
 11
-116.6500000764927
 21
-70.39999725868302
 31
0.0
  0
LINE
  5
2FB
330
1F
100
AcDbEntity
  8
16
  6
Continuous
 62
     3
370
    25
100
AcDbLine
 10
-116.6500000764927
 20
-70.39999725868302
 30
0.0
 11
-116.6500000764927
 21
-70.06666391541557
 31
0.0
  0
LINE
  5
2FC
330
1F
100
AcDbEntity
  8
16
  6
Continuous
 62
     3
370
    25
100
AcDbLine
 10
-116.6500000764927
 20
-70.06666391541557
 30
0.0
 11
-117.3166667630276
 21
-70.06666391541557
 31
0.0
  0
LINE
  5
2FD
330
1F
100
AcDbEntity
  8
16
  6
Continuous
 62
     3
370
    25
100
AcDbLine
 10
-117.3166667630276
 20
-70.06666391541557
 30
0.0
 11
-118.3166667928299
 21
-71.0666639452179
 31
0.0
  0
LINE
  5
2FE
330
1F
100
AcDbEntity
  8
16
  6
Continuous
 62
     3
370
    25
100
AcDbLine
 10
-118.3166667928299
 20
-71.0666639452179
 30
0.0
 11
-119.3166668226322
 21
-70.06666391541557
 31
0.0
  0
LINE
  5
2FF
330
1F
100
AcDbEntity
  8
16
  6
Continuous
 62
     3
370
    25
100
AcDbLine
 10
-119.3166668226322
 20
-70.06666391541557
 30
0.0
 11
-119.9833335091671
 21
-70.06666391541557
 31
0.0
  0
CIRCLE
  5
300
330
1F
100
AcDbEntity
  8
16
  6
Continuous
 62
     3
370
    25
100
AcDbCircle
 10
-118.3166668908683
 20
-70.64999726613357
 30
0.0
 40
0.3000000009934105
  0
LINE
  5
301
330
1F
100
AcDbEntity
  8
16
  6
Continuous
 62
     3
370
    25
100
AcDbLine
 10
-115.3333293015757
 20
-70.06666391541557
 30
0.0
 11
-115.3333293015757
 21
-70.39999725868302
 31
0.0
  0
LINE
  5
302
330
1F
100
AcDbEntity
  8
16
  6
Continuous
 62
     3
370
    25
100
AcDbLine
 10
-115.3333293015757
 20
-70.39999725868302
 30
0.0
 11
-114.8333292866746
 21
-70.39999725868302
 31
0.0
  0
LINE
  5
303
330
1F
100
AcDbEntity
  8
16
  6
Continuous
 62
     3
370
    25
100
AcDbLine
 10
-114.8333292866746
 20
-70.39999725868302
 30
0.0
 11
-114.1666626001397
 21
-71.56666396011906
 31
0.0
  0
LINE
  5
304
330
1F
100
AcDbEntity
  8
16
  6
Continuous
 62
     3
370
    25
100
AcDbLine
 10
-114.1666626001397
 20
-71.56666396011906
 30
0.0
 11
-114.1666626001397
 21
-72.06666397502022
 31
0.0
  0
LINE
  5
305
330
1F
100
AcDbEntity
  8
16
  6
Continuous
 62
     3
370
    25
100
AcDbLine
 10
-114.1666626001397
 20
-72.06666397502022
 30
0.0
 11
-113.999995928506
 21
-72.23333064665394
 31
0.0
  0
LINE
  5
306
330
1F
100
AcDbEntity
  8
16
  6
Continuous
 62
     3
370
    25
100
AcDbLine
 10
-113.999995928506
 20
-72.23333064665394
 30
0.0
 11
-113.999995928506
 21
-75.39999740769463
 31
0.0
  0
LINE
  5
307
330
1F
100
AcDbEntity
  8
16
  6
Continuous
 62
     3
370
    25
100
AcDbLine
 10
-113.999995928506
 20
-75.39999740769463
 30
0.0
 11
-113.3333292419711
 21
-75.39999740769463
 31
0.0
  0
LINE
  5
308
330
1F
100
AcDbEntity
  8
16
  6
Continuous
 62
     3
370
    25
100
AcDbLine
 10
-113.3333292419711
 20
-75.39999740769463
 30
0.0
 11
-113.3333292419711
 21
-72.23333064665394
 31
0.0
  0
LINE
  5
309
330
1F
100
AcDbEntity
  8
16
  6
Continuous
 62
     3
370
    25
100
AcDbLine
 10
-113.3333292419711
 20
-72.23333064665394
 30
0.0
 11
-113.1666625703374
 21
-72.06666397502022
 31
0.0
  0
LINE
  5
30A
330
1F
100
AcDbEntity
  8
16
  6
Continuous
 62
     3
370
    25
100
AcDbLine
 10
-113.1666625703374
 20
-72.06666397502022
 30
0.0
 11
-113.1666625703374
 21
-71.56666396011906
 31
0.0
  0
LINE
  5
30B
330
1F
100
AcDbEntity
  8
16
  6
Continuous
 62
     3
370
    25
100
AcDbLine
 10
-113.1666625703374
 20
-71.56666396011906
 30
0.0
 11
-112.4999958838025
 21
-70.39999725868302
 31
0.0
  0
LINE
  5
30C
330
1F
100
AcDbEntity
  8
16
  6
Continuous
 62
     3
370
    25
100
AcDbLine
 10
-112.4999958838025
 20
-70.39999725868302
 30
0.0
 11
-111.9999958689013
 21
-70.39999725868302
 31
0.0
  0
LINE
  5
30D
330
1F
100
AcDbEntity
  8
16
  6
Continuous
 62
     3
370
    25
100
AcDbLine
 10
-111.9999958689013
 20
-70.39999725868302
 30
0.0
 11
-111.9999958689013
 21
-70.06666391541557
 31
0.0
  0
LINE
  5
30E
330
1F
100
AcDbEntity
  8
16
  6
Continuous
 62
     3
370
    25
100
AcDbLine
 10
-111.9999958689013
 20
-70.06666391541557
 30
0.0
 11
-112.6666625554362
 21
-70.06666391541557
 31
0.0
  0
LINE
  5
30F
330
1F
100
AcDbEntity
  8
16
  6
Continuous
 62
     3
370
    25
100
AcDbLine
 10
-112.6666625554362
 20
-70.06666391541557
 30
0.0
 11
-113.6666625852385
 21
-71.0666639452179
 31
0.0
  0
LINE
  5
310
330
1F
100
AcDbEntity
  8
16
  6
Continuous
 62
     3
370
    25
100
AcDbLine
 10
-113.6666625852385
 20
-71.0666639452179
 30
0.0
 11
-114.6666626150409
 21
-70.06666391541557
 31
0.0
  0
LINE
  5
311
330
1F
100
AcDbEntity
  8
16
  6
Continuous
 62
     3
370
    25
100
AcDbLine
 10
-114.6666626150409
 20
-70.06666391541557
 30
0.0
 11
-115.3333293015757
 21
-70.06666391541557
 31
0.0
  0
CIRCLE
  5
312
330
1F
100
AcDbEntity
  8
16
  6
Continuous
 62
     3
370
    25
100
AcDbCircle
 10
-113.666662683277
 20
-70.64999726613357
 30
0.0
 40
0.3000000009934105
  0
LINE
  5
313
330
1F
100
AcDbEntity
  8
16
  6
Continuous
 62
     3
370
    25
100
AcDbLine
 10
-110.6833301802476
 20
-70.06666391541557
 30
0.0
 11
-110.6833301802476
 21
-70.39999725868302
 31
0.0
  0
LINE
  5
314
330
1F
100
AcDbEntity
  8
16
  6
Continuous
 62
     3
370
    25
100
AcDbLine
 10
-110.6833301802476
 20
-70.39999725868302
 30
0.0
 11
-110.1833301653464
 21
-70.39999725868302
 31
0.0
  0
LINE
  5
315
330
1F
100
AcDbEntity
  8
16
  6
Continuous
 62
     3
370
    25
100
AcDbLine
 10
-110.1833301653464
 20
-70.39999725868302
 30
0.0
 11
-109.5166634788115
 21
-71.56666396011906
 31
0.0
  0
LINE
  5
316
330
1F
100
AcDbEntity
  8
16
  6
Continuous
 62
     3
370
    25
100
AcDbLine
 10
-109.5166634788115
 20
-71.56666396011906
 30
0.0
 11
-109.5166634788115
 21
-72.06666397502022
 31
0.0
  0
LINE
  5
317
330
1F
100
AcDbEntity
  8
16
  6
Continuous
 62
     3
370
    25
100
AcDbLine
 10
-109.5166634788115
 20
-72.06666397502022
 30
0.0
 11
-109.3499968071778
 21
-72.23333064665394
 31
0.0
  0
LINE
  5
318
330
1F
100
AcDbEntity
  8
16
  6
Continuous
 62
     3
370
    25
100
AcDbLine
 10
-109.3499968071778
 20
-72.23333064665394
 30
0.0
 11
-109.3499968071778
 21
-75.39999740769463
 31
0.0
  0
LINE
  5
319
330
1F
100
AcDbEntity
  8
16
  6
Continuous
 62
     3
370
    25
100
AcDbLine
 10
-109.3499968071778
 20
-75.39999740769463
 30
0.0
 11
-108.6833301206429
 21
-75.39999740769463
 31
0.0
  0
LINE
  5
31A
330
1F
100
AcDbEntity
  8
16
  6
Continuous
 62
     3
370
    25
100
AcDbLine
 10
-108.6833301206429
 20
-75.39999740769463
 30
0.0
 11
-108.6833301206429
 21
-72.23333064665394
 31
0.0
  0
LINE
  5
31B
330
1F
100
AcDbEntity
  8
16
  6
Continuous
 62
     3
370
    25
100
AcDbLine
 10
-108.6833301206429
 20
-72.23333064665394
 30
0.0
 11
-108.5166634490092
 21
-72.06666397502022
 31
0.0
  0
LINE
  5
31C
330
1F
100
AcDbEntity
  8
16
  6
Continuous
 62
     3
370
    25
100
AcDbLine
 10
-108.5166634490092
 20
-72.06666397502022
 30
0.0
 11
-108.5166634490092
 21
-71.56666396011906
 31
0.0
  0
LINE
  5
31D
330
1F
100
AcDbEntity
  8
16
  6
Continuous
 62
     3
370
    25
100
AcDbLine
 10
-108.5166634490092
 20
-71.56666396011906
 30
0.0
 11
-107.8499967624743
 21
-70.39999725868302
 31
0.0
  0
LINE
  5
31E
330
1F
100
AcDbEntity
  8
16
  6
Continuous
 62
     3
370
    25
100
AcDbLine
 10
-107.8499967624743
 20
-70.39999725868302
 30
0.0
 11
-107.3499967475732
 21
-70.39999725868302
 31
0.0
  0
LINE
  5
31F
330
1F
100
AcDbEntity
  8
16
  6
Continuous
 62
     3
370
    25
100
AcDbLine
 10
-107.3499967475732
 20
-70.39999725868302
 30
0.0
 11
-107.3499967475732
 21
-70.06666391541557
 31
0.0
  0
LINE
  5
320
330
1F
100
AcDbEntity
  8
16
  6
Continuous
 62
     3
370
    25
100
AcDbLine
 10
-107.3499967475732
 20
-70.06666391541557
 30
0.0
 11
-108.0166634341081
 21
-70.06666391541557
 31
0.0
  0
LINE
  5
321
330
1F
100
AcDbEntity
  8
16
  6
Continuous
 62
     3
370
    25
100
AcDbLine
 10
-108.0166634341081
 20
-70.06666391541557
 30
0.0
 11
-109.0166634639104
 21
-71.0666639452179
 31
0.0
  0
LINE
  5
322
330
1F
100
AcDbEntity
  8
16
  6
Continuous
 62
     3
370
    25
100
AcDbLine
 10
-109.0166634639104
 20
-71.0666639452179
 30
0.0
 11
-110.0166634937127
 21
-70.06666391541557
 31
0.0
  0
LINE
  5
323
330
1F
100
AcDbEntity
  8
16
  6
Continuous
 62
     3
370
    25
100
AcDbLine
 10
-110.0166634937127
 20
-70.06666391541557
 30
0.0
 11
-110.6833301802476
 21
-70.06666391541557
 31
0.0
  0
CIRCLE
  5
324
330
1F
100
AcDbEntity
  8
16
  6
Continuous
 62
     3
370
    25
100
AcDbCircle
 10
-109.0166635619488
 20
-70.64999726613357
 30
0.0
 40
0.3000000009934105
  0
LINE
  5
325
330
1F
100
AcDbEntity
  8
16
  6
Continuous
 62
     3
370
    25
100
AcDbLine
 10
-106.0333310589194
 20
-70.06666391541557
 30
0.0
 11
-106.0333310589194
 21
-70.39999725868302
 31
0.0
  0
LINE
  5
326
330
1F
100
AcDbEntity
  8
16
  6
Continuous
 62
     3
370
    25
100
AcDbLine
 10
-106.0333310589194
 20
-70.39999725868302
 30
0.0
 11
-105.5333310440183
 21
-70.39999725868302
 31
0.0
  0
LINE
  5
327
330
1F
100
AcDbEntity
  8
16
  6
Continuous
 62
     3
370
    25
100
AcDbLine
 10
-105.5333310440183
 20
-70.39999725868302
 30
0.0
 11
-104.8666643574834
 21
-71.56666396011906
 31
0.0
  0
LINE
  5
328
330
1F
100
AcDbEntity
  8
16
  6
Continuous
 62
     3
370
    25
100
AcDbLine
 10
-104.8666643574834
 20
-71.56666396011906
 30
0.0
 11
-104.8666643574834
 21
-72.06666397502022
 31
0.0
  0
LINE
  5
329
330
1F
100
AcDbEntity
  8
16
  6
Continuous
 62
     3
370
    25
100
AcDbLine
 10
-104.8666643574834
 20
-72.06666397502022
 30
0.0
 11
-104.6999976858497
 21
-72.23333064665394
 31
0.0
  0
LINE
  5
32A
330
1F
100
AcDbEntity
  8
16
  6
Continuous
 62
     3
370
    25
100
AcDbLine
 10
-104.6999976858497
 20
-72.23333064665394
 30
0.0
 11
-104.6999976858497
 21
-75.39999740769463
 31
0.0
  0
LINE
  5
32B
330
1F
100
AcDbEntity
  8
16
  6
Continuous
 62
     3
370
    25
100
AcDbLine
 10
-104.6999976858497
 20
-75.39999740769463
 30
0.0
 11
-104.0333309993148
 21
-75.39999740769463
 31
0.0
  0
LINE
  5
32C
330
1F
100
AcDbEntity
  8
16
  6
Continuous
 62
     3
370
    25
100
AcDbLine
 10
-104.0333309993148
 20
-75.39999740769463
 30
0.0
 11
-104.0333309993148
 21
-72.23333064665394
 31
0.0
  0
LINE
  5
32D
330
1F
100
AcDbEntity
  8
16
  6
Continuous
 62
     3
370
    25
100
AcDbLine
 10
-104.0333309993148
 20
-72.23333064665394
 30
0.0
 11
-103.8666643276811
 21
-72.06666397502022
 31
0.0
  0
LINE
  5
32E
330
1F
100
AcDbEntity
  8
16
  6
Continuous
 62
     3
370
    25
100
AcDbLine
 10
-103.8666643276811
 20
-72.06666397502022
 30
0.0
 11
-103.8666643276811
 21
-71.56666396011906
 31
0.0
  0
LINE
  5
32F
330
1F
100
AcDbEntity
  8
16
  6
Continuous
 62
     3
370
    25
100
AcDbLine
 10
-103.8666643276811
 20
-71.56666396011906
 30
0.0
 11
-103.1999976411462
 21
-70.39999725868302
 31
0.0
  0
LINE
  5
330
330
1F
100
AcDbEntity
  8
16
  6
Continuous
 62
     3
370
    25
100
AcDbLine
 10
-103.1999976411462
 20
-70.39999725868302
 30
0.0
 11
-102.699997626245
 21
-70.39999725868302
 31
0.0
  0
LINE
  5
331
330
1F
100
AcDbEntity
  8
16
  6
Continuous
 62
     3
370
    25
100
AcDbLine
 10
-102.699997626245
 20
-70.39999725868302
 30
0.0
 11
-102.699997626245
 21
-70.06666391541557
 31
0.0
  0
LINE
  5
332
330
1F
100
AcDbEntity
  8
16
  6
Continuous
 62
     3
370
    25
100
AcDbLine
 10
-102.699997626245
 20
-70.06666391541557
 30
0.0
 11
-103.3666643127799
 21
-70.06666391541557
 31
0.0
  0
LINE
  5
333
330
1F
100
AcDbEntity
  8
16
  6
Continuous
 62
     3
370
    25
100
AcDbLine
 10
-103.3666643127799
 20
-70.06666391541557
 30
0.0
 11
-104.3666643425822
 21
-71.0666639452179
 31
0.0
  0
LINE
  5
334
330
1F
100
AcDbEntity
  8
16
  6
Continuous
 62
     3
370
    25
100
AcDbLine
 10
-104.3666643425822
 20
-71.0666639452179
 30
0.0
 11
-105.3666643723845
 21
-70.06666391541557
 31
0.0
  0
LINE
  5
335
330
1F
100
AcDbEntity
  8
16
  6
Continuous
 62
     3
370
    25
100
AcDbLine
 10
-105.3666643723845
 20
-70.06666391541557
 30
0.0
 11
-106.0333310589194
 21
-70.06666391541557
 31
0.0
  0
CIRCLE
  5
336
330
1F
100
AcDbEntity
  8
16
  6
Continuous
 62
     3
370
    25
100
AcDbCircle
 10
-104.3666644406207
 20
-70.64999726613357
 30
0.0
 40
0.3000000009934105
  0
LINE
  5
337
330
1F
100
AcDbEntity
  8
16
  6
Continuous
 62
     3
370
    25
100
AcDbLine
 10
-101.3833319375913
 20
-70.06666391541557
 30
0.0
 11
-101.3833319375913
 21
-70.39999725868302
 31
0.0
  0
LINE
  5
338
330
1F
100
AcDbEntity
  8
16
  6
Continuous
 62
     3
370
    25
100
AcDbLine
 10
-101.3833319375913
 20
-70.39999725868302
 30
0.0
 11
-100.8833319226901
 21
-70.39999725868302
 31
0.0
  0
LINE
  5
339
330
1F
100
AcDbEntity
  8
16
  6
Continuous
 62
     3
370
    25
100
AcDbLine
 10
-100.8833319226901
 20
-70.39999725868302
 30
0.0
 11
-100.2166652361552
 21
-71.56666396011906
 31
0.0
  0
LINE
  5
33A
330
1F
100
AcDbEntity
  8
16
  6
Continuous
 62
     3
370
    25
100
AcDbLine
 10
-100.2166652361552
 20
-71.56666396011906
 30
0.0
 11
-100.2166652361552
 21
-72.06666397502022
 31
0.0
  0
LINE
  5
33B
330
1F
100
AcDbEntity
  8
16
  6
Continuous
 62
     3
370
    25
100
AcDbLine
 10
-100.2166652361552
 20
-72.06666397502022
 30
0.0
 11
-100.0499985645215
 21
-72.23333064665394
 31
0.0
  0
LINE
  5
33C
330
1F
100
AcDbEntity
  8
16
  6
Continuous
 62
     3
370
    25
100
AcDbLine
 10
-100.0499985645215
 20
-72.23333064665394
 30
0.0
 11
-100.0499985645215
 21
-75.39999740769463
 31
0.0
  0
LINE
  5
33D
330
1F
100
AcDbEntity
  8
16
  6
Continuous
 62
     3
370
    25
100
AcDbLine
 10
-100.0499985645215
 20
-75.39999740769463
 30
0.0
 11
-99.38333187798662
 21
-75.39999740769463
 31
0.0
  0
LINE
  5
33E
330
1F
100
AcDbEntity
  8
16
  6
Continuous
 62
     3
370
    25
100
AcDbLine
 10
-99.38333187798662
 20
-75.39999740769463
 30
0.0
 11
-99.38333187798662
 21
-72.23333064665394
 31
0.0
  0
LINE
  5
33F
330
1F
100
AcDbEntity
  8
16
  6
Continuous
 62
     3
370
    25
100
AcDbLine
 10
-99.38333187798662
 20
-72.23333064665394
 30
0.0
 11
-99.2166652063529
 21
-72.06666397502022
 31
0.0
  0
LINE
  5
340
330
1F
100
AcDbEntity
  8
16
  6
Continuous
 62
     3
370
    25
100
AcDbLine
 10
-99.2166652063529
 20
-72.06666397502022
 30
0.0
 11
-99.2166652063529
 21
-71.56666396011906
 31
0.0
  0
LINE
  5
341
330
1F
100
AcDbEntity
  8
16
  6
Continuous
 62
     3
370
    25
100
AcDbLine
 10
-99.2166652063529
 20
-71.56666396011906
 30
0.0
 11
-98.54999851981802
 21
-70.39999725868302
 31
0.0
  0
LINE
  5
342
330
1F
100
AcDbEntity
  8
16
  6
Continuous
 62
     3
370
    25
100
AcDbLine
 10
-98.54999851981802
 20
-70.39999725868302
 30
0.0
 11
-98.04999850491686
 21
-70.39999725868302
 31
0.0
  0
LINE
  5
343
330
1F
100
AcDbEntity
  8
16
  6
Continuous
 62
     3
370
    25
100
AcDbLine
 10
-98.04999850491686
 20
-70.39999725868302
 30
0.0
 11
-98.04999850491686
 21
-70.06666391541557
 31
0.0
  0
LINE
  5
344
330
1F
100
AcDbEntity
  8
16
  6
Continuous
 62
     3
370
    25
100
AcDbLine
 10
-98.04999850491686
 20
-70.06666391541557
 30
0.0
 11
-98.71666519145174
 21
-70.06666391541557
 31
0.0
  0
LINE
  5
345
330
1F
100
AcDbEntity
  8
16
  6
Continuous
 62
     3
370
    25
100
AcDbLine
 10
-98.71666519145174
 20
-70.06666391541557
 30
0.0
 11
-99.71666522125406
 21
-71.0666639452179
 31
0.0
  0
LINE
  5
346
330
1F
100
AcDbEntity
  8
16
  6
Continuous
 62
     3
370
    25
100
AcDbLine
 10
-99.71666522125406
 20
-71.0666639452179
 30
0.0
 11
-100.7166652510564
 21
-70.06666391541557
 31
0.0
  0
LINE
  5
347
330
1F
100
AcDbEntity
  8
16
  6
Continuous
 62
     3
370
    25
100
AcDbLine
 10
-100.7166652510564
 20
-70.06666391541557
 30
0.0
 11
-101.3833319375913
 21
-70.06666391541557
 31
0.0
  0
CIRCLE
  5
348
330
1F
100
AcDbEntity
  8
16
  6
Continuous
 62
     3
370
    25
100
AcDbCircle
 10
-99.71666531929253
 20
-70.64999726613357
 30
0.0
 40
0.3000000009934105
  0
LINE
  5
349
330
1F
100
AcDbEntity
  8
16
  6
Continuous
 62
     3
370
    25
100
AcDbLine
 10
-96.7333328162631
 20
-70.06666391541557
 30
0.0
 11
-96.7333328162631
 21
-70.39999725868302
 31
0.0
  0
LINE
  5
34A
330
1F
100
AcDbEntity
  8
16
  6
Continuous
 62
     3
370
    25
100
AcDbLine
 10
-96.7333328162631
 20
-70.39999725868302
 30
0.0
 11
-96.23333280136194
 21
-70.39999725868302
 31
0.0
  0
LINE
  5
34B
330
1F
100
AcDbEntity
  8
16
  6
Continuous
 62
     3
370
    25
100
AcDbLine
 10
-96.23333280136194
 20
-70.39999725868302
 30
0.0
 11
-95.56666611482706
 21
-71.56666396011906
 31
0.0
  0
LINE
  5
34C
330
1F
100
AcDbEntity
  8
16
  6
Continuous
 62
     3
370
    25
100
AcDbLine
 10
-95.56666611482706
 20
-71.56666396011906
 30
0.0
 11
-95.56666611482706
 21
-72.06666397502022
 31
0.0
  0
LINE
  5
34D
330
1F
100
AcDbEntity
  8
16
  6
Continuous
 62
     3
370
    25
100
AcDbLine
 10
-95.56666611482706
 20
-72.06666397502022
 30
0.0
 11
-95.39999944319334
 21
-72.23333064665394
 31
0.0
  0
LINE
  5
34E
330
1F
100
AcDbEntity
  8
16
  6
Continuous
 62
     3
370
    25
100
AcDbLine
 10
-95.39999944319334
 20
-72.23333064665394
 30
0.0
 11
-95.39999944319334
 21
-75.39999740769463
 31
0.0
  0
LINE
  5
34F
330
1F
100
AcDbEntity
  8
16
  6
Continuous
 62
     3
370
    25
100
AcDbLine
 10
-95.39999944319334
 20
-75.39999740769463
 30
0.0
 11
-94.73333275665846
 21
-75.39999740769463
 31
0.0
  0
LINE
  5
350
330
1F
100
AcDbEntity
  8
16
  6
Continuous
 62
     3
370
    25
100
AcDbLine
 10
-94.73333275665846
 20
-75.39999740769463
 30
0.0
 11
-94.73333275665846
 21
-72.23333064665394
 31
0.0
  0
LINE
  5
351
330
1F
100
AcDbEntity
  8
16
  6
Continuous
 62
     3
370
    25
100
AcDbLine
 10
-94.73333275665846
 20
-72.23333064665394
 30
0.0
 11
-94.56666608502474
 21
-72.06666397502022
 31
0.0
  0
LINE
  5
352
330
1F
100
AcDbEntity
  8
16
  6
Continuous
 62
     3
370
    25
100
AcDbLine
 10
-94.56666608502474
 20
-72.06666397502022
 30
0.0
 11
-94.56666608502474
 21
-71.56666396011906
 31
0.0
  0
LINE
  5
353
330
1F
100
AcDbEntity
  8
16
  6
Continuous
 62
     3
370
    25
100
AcDbLine
 10
-94.56666608502474
 20
-71.56666396011906
 30
0.0
 11
-93.89999939848985
 21
-70.39999725868302
 31
0.0
  0
LINE
  5
354
330
1F
100
AcDbEntity
  8
16
  6
Continuous
 62
     3
370
    25
100
AcDbLine
 10
-93.89999939848985
 20
-70.39999725868302
 30
0.0
 11
-93.39999938358869
 21
-70.39999725868302
 31
0.0
  0
LINE
  5
355
330
1F
100
AcDbEntity
  8
16
  6
Continuous
 62
     3
370
    25
100
AcDbLine
 10
-93.39999938358869
 20
-70.39999725868302
 30
0.0
 11
-93.39999938358869
 21
-70.06666391541557
 31
0.0
  0
LINE
  5
356
330
1F
100
AcDbEntity
  8
16
  6
Continuous
 62
     3
370
    25
100
AcDbLine
 10
-93.39999938358869
 20
-70.06666391541557
 30
0.0
 11
-94.06666607012357
 21
-70.06666391541557
 31
0.0
  0
LINE
  5
357
330
1F
100
AcDbEntity
  8
16
  6
Continuous
 62
     3
370
    25
100
AcDbLine
 10
-94.06666607012357
 20
-70.06666391541557
 30
0.0
 11
-95.0666660999259
 21
-71.0666639452179
 31
0.0
  0
LINE
  5
358
330
1F
100
AcDbEntity
  8
16
  6
Continuous
 62
     3
370
    25
100
AcDbLine
 10
-95.0666660999259
 20
-71.0666639452179
 30
0.0
 11
-96.06666612972822
 21
-70.06666391541557
 31
0.0
  0
LINE
  5
359
330
1F
100
AcDbEntity
  8
16
  6
Continuous
 62
     3
370
    25
100
AcDbLine
 10
-96.06666612972822
 20
-70.06666391541557
 30
0.0
 11
-96.7333328162631
 21
-70.06666391541557
 31
0.0
  0
CIRCLE
  5
35A
330
1F
100
AcDbEntity
  8
16
  6
Continuous
 62
     3
370
    25
100
AcDbCircle
 10
-95.06666619796437
 20
-70.64999726613357
 30
0.0
 40
0.3000000009934105
  0
LINE
  5
35B
330
1F
100
AcDbEntity
  8
16
  6
Continuous
 62
     3
370
    25
100
AcDbLine
 10
-92.08332860867176
 20
-70.06666391541557
 30
0.0
 11
-92.08332860867176
 21
-70.39999725868302
 31
0.0
  0
LINE
  5
35C
330
1F
100
AcDbEntity
  8
16
  6
Continuous
 62
     3
370
    25
100
AcDbLine
 10
-92.08332860867176
 20
-70.39999725868302
 30
0.0
 11
-91.5833285937706
 21
-70.39999725868302
 31
0.0
  0
LINE
  5
35D
330
1F
100
AcDbEntity
  8
16
  6
Continuous
 62
     3
370
    25
100
AcDbLine
 10
-91.5833285937706
 20
-70.39999725868302
 30
0.0
 11
-90.91666190723572
 21
-71.56666396011906
 31
0.0
  0
LINE
  5
35E
330
1F
100
AcDbEntity
  8
16
  6
Continuous
 62
     3
370
    25
100
AcDbLine
 10
-90.91666190723572
 20
-71.56666396011906
 30
0.0
 11
-90.91666190723572
 21
-72.06666397502022
 31
0.0
  0
LINE
  5
35F
330
1F
100
AcDbEntity
  8
16
  6
Continuous
 62
     3
370
    25
100
AcDbLine
 10
-90.91666190723572
 20
-72.06666397502022
 30
0.0
 11
-90.749995235602
 21
-72.23333064665394
 31
0.0
  0
LINE
  5
360
330
1F
100
AcDbEntity
  8
16
  6
Continuous
 62
     3
370
    25
100
AcDbLine
 10
-90.749995235602
 20
-72.23333064665394
 30
0.0
 11
-90.749995235602
 21
-75.39999740769463
 31
0.0
  0
LINE
  5
361
330
1F
100
AcDbEntity
  8
16
  6
Continuous
 62
     3
370
    25
100
AcDbLine
 10
-90.749995235602
 20
-75.39999740769463
 30
0.0
 11
-90.08332854906712
 21
-75.39999740769463
 31
0.0
  0
LINE
  5
362
330
1F
100
AcDbEntity
  8
16
  6
Continuous
 62
     3
370
    25
100
AcDbLine
 10
-90.08332854906712
 20
-75.39999740769463
 30
0.0
 11
-90.08332854906712
 21
-72.23333064665394
 31
0.0
  0
LINE
  5
363
330
1F
100
AcDbEntity
  8
16
  6
Continuous
 62
     3
370
    25
100
AcDbLine
 10
-90.08332854906712
 20
-72.23333064665394
 30
0.0
 11
-89.9166618774334
 21
-72.06666397502022
 31
0.0
  0
LINE
  5
364
330
1F
100
AcDbEntity
  8
16
  6
Continuous
 62
     3
370
    25
100
AcDbLine
 10
-89.9166618774334
 20
-72.06666397502022
 30
0.0
 11
-89.9166618774334
 21
-71.56666396011906
 31
0.0
  0
LINE
  5
365
330
1F
100
AcDbEntity
  8
16
  6
Continuous
 62
     3
370
    25
100
AcDbLine
 10
-89.9166618774334
 20
-71.56666396011906
 30
0.0
 11
-89.24999519089852
 21
-70.39999725868302
 31
0.0
  0
LINE
  5
366
330
1F
100
AcDbEntity
  8
16
  6
Continuous
 62
     3
370
    25
100
AcDbLine
 10
-89.24999519089852
 20
-70.39999725868302
 30
0.0
 11
-88.74999517599736
 21
-70.39999725868302
 31
0.0
  0
LINE
  5
367
330
1F
100
AcDbEntity
  8
16
  6
Continuous
 62
     3
370
    25
100
AcDbLine
 10
-88.74999517599736
 20
-70.39999725868302
 30
0.0
 11
-88.74999517599736
 21
-70.06666391541557
 31
0.0
  0
LINE
  5
368
330
1F
100
AcDbEntity
  8
16
  6
Continuous
 62
     3
370
    25
100
AcDbLine
 10
-88.74999517599736
 20
-70.06666391541557
 30
0.0
 11
-89.41666186253224
 21
-70.06666391541557
 31
0.0
  0
LINE
  5
369
330
1F
100
AcDbEntity
  8
16
  6
Continuous
 62
     3
370
    25
100
AcDbLine
 10
-89.41666186253224
 20
-70.06666391541557
 30
0.0
 11
-90.41666189233456
 21
-71.0666639452179
 31
0.0
  0
LINE
  5
36A
330
1F
100
AcDbEntity
  8
16
  6
Continuous
 62
     3
370
    25
100
AcDbLine
 10
-90.41666189233456
 20
-71.0666639452179
 30
0.0
 11
-91.41666192213688
 21
-70.06666391541557
 31
0.0
  0
LINE
  5
36B
330
1F
100
AcDbEntity
  8
16
  6
Continuous
 62
     3
370
    25
100
AcDbLine
 10
-91.41666192213688
 20
-70.06666391541557
 30
0.0
 11
-92.08332860867176
 21
-70.06666391541557
 31
0.0
  0
CIRCLE
  5
36C
330
1F
100
AcDbEntity
  8
16
  6
Continuous
 62
     3
370
    25
100
AcDbCircle
 10
-90.41666199037303
 20
-70.64999726613357
 30
0.0
 40
0.3000000009934105
  0
LINE
  5
36D
330
1F
100
AcDbEntity
  8
16
  6
Continuous
 62
     3
370
    25
100
AcDbLine
 10
-87.43333457360677
 20
-70.06666391541557
 30
0.0
 11
-87.43333457360677
 21
-70.39999725868302
 31
0.0
  0
LINE
  5
36E
330
1F
100
AcDbEntity
  8
16
  6
Continuous
 62
     3
370
    25
100
AcDbLine
 10
-87.43333457360677
 20
-70.39999725868302
 30
0.0
 11
-86.93333455870561
 21
-70.39999725868302
 31
0.0
  0
LINE
  5
36F
330
1F
100
AcDbEntity
  8
16
  6
Continuous
 62
     3
370
    25
100
AcDbLine
 10
-86.93333455870561
 20
-70.39999725868302
 30
0.0
 11
-86.26666787217073
 21
-71.56666396011906
 31
0.0
  0
LINE
  5
370
330
1F
100
AcDbEntity
  8
16
  6
Continuous
 62
     3
370
    25
100
AcDbLine
 10
-86.26666787217073
 20
-71.56666396011906
 30
0.0
 11
-86.26666787217073
 21
-72.06666397502022
 31
0.0
  0
LINE
  5
371
330
1F
100
AcDbEntity
  8
16
  6
Continuous
 62
     3
370
    25
100
AcDbLine
 10
-86.26666787217073
 20
-72.06666397502022
 30
0.0
 11
-86.10000120053701
 21
-72.23333064665394
 31
0.0
  0
LINE
  5
372
330
1F
100
AcDbEntity
  8
16
  6
Continuous
 62
     3
370
    25
100
AcDbLine
 10
-86.10000120053701
 20
-72.23333064665394
 30
0.0
 11
-86.10000120053701
 21
-75.39999740769463
 31
0.0
  0
LINE
  5
373
330
1F
100
AcDbEntity
  8
16
  6
Continuous
 62
     3
370
    25
100
AcDbLine
 10
-86.10000120053701
 20
-75.39999740769463
 30
0.0
 11
-85.43333451400213
 21
-75.39999740769463
 31
0.0
  0
LINE
  5
374
330
1F
100
AcDbEntity
  8
16
  6
Continuous
 62
     3
370
    25
100
AcDbLine
 10
-85.43333451400213
 20
-75.39999740769463
 30
0.0
 11
-85.43333451400213
 21
-72.23333064665394
 31
0.0
  0
LINE
  5
375
330
1F
100
AcDbEntity
  8
16
  6
Continuous
 62
     3
370
    25
100
AcDbLine
 10
-85.43333451400213
 20
-72.23333064665394
 30
0.0
 11
-85.2666678423684
 21
-72.06666397502022
 31
0.0
  0
LINE
  5
376
330
1F
100
AcDbEntity
  8
16
  6
Continuous
 62
     3
370
    25
100
AcDbLine
 10
-85.2666678423684
 20
-72.06666397502022
 30
0.0
 11
-85.2666678423684
 21
-71.56666396011906
 31
0.0
  0
LINE
  5
377
330
1F
100
AcDbEntity
  8
16
  6
Continuous
 62
     3
370
    25
100
AcDbLine
 10
-85.2666678423684
 20
-71.56666396011906
 30
0.0
 11
-84.60000115583352
 21
-70.39999725868302
 31
0.0
  0
LINE
  5
378
330
1F
100
AcDbEntity
  8
16
  6
Continuous
 62
     3
370
    25
100
AcDbLine
 10
-84.60000115583352
 20
-70.39999725868302
 30
0.0
 11
-84.10000114093236
 21
-70.39999725868302
 31
0.0
  0
LINE
  5
379
330
1F
100
AcDbEntity
  8
16
  6
Continuous
 62
     3
370
    25
100
AcDbLine
 10
-84.10000114093236
 20
-70.39999725868302
 30
0.0
 11
-84.10000114093236
 21
-70.06666391541557
 31
0.0
  0
LINE
  5
37A
330
1F
100
AcDbEntity
  8
16
  6
Continuous
 62
     3
370
    25
100
AcDbLine
 10
-84.10000114093236
 20
-70.06666391541557
 30
0.0
 11
-84.76666782746724
 21
-70.06666391541557
 31
0.0
  0
LINE
  5
37B
330
1F
100
AcDbEntity
  8
16
  6
Continuous
 62
     3
370
    25
100
AcDbLine
 10
-84.76666782746724
 20
-70.06666391541557
 30
0.0
 11
-85.76666785726957
 21
-71.0666639452179
 31
0.0
  0
LINE
  5
37C
330
1F
100
AcDbEntity
  8
16
  6
Continuous
 62
     3
370
    25
100
AcDbLine
 10
-85.76666785726957
 20
-71.0666639452179
 30
0.0
 11
-86.76666788707189
 21
-70.06666391541557
 31
0.0
  0
LINE
  5
37D
330
1F
100
AcDbEntity
  8
16
  6
Continuous
 62
     3
370
    25
100
AcDbLine
 10
-86.76666788707189
 20
-70.06666391541557
 30
0.0
 11
-87.43333457360677
 21
-70.06666391541557
 31
0.0
  0
CIRCLE
  5
37E
330
1F
100
AcDbEntity
  8
16
  6
Continuous
 62
     3
370
    25
100
AcDbCircle
 10
-85.76666795530804
 20
-70.64999726613357
 30
0.0
 40
0.3000000009934105
  0
LINE
  5
37F
330
1F
100
AcDbEntity
  8
16
  6
Continuous
 62
     3
370
    25
100
AcDbLine
 10
-82.78333036601543
 20
-70.06666391541557
 30
0.0
 11
-82.78333036601543
 21
-70.39999725868302
 31
0.0
  0
LINE
  5
380
330
1F
100
AcDbEntity
  8
16
  6
Continuous
 62
     3
370
    25
100
AcDbLine
 10
-82.78333036601543
 20
-70.39999725868302
 30
0.0
 11
-82.28333035111427
 21
-70.39999725868302
 31
0.0
  0
LINE
  5
381
330
1F
100
AcDbEntity
  8
16
  6
Continuous
 62
     3
370
    25
100
AcDbLine
 10
-82.28333035111427
 20
-70.39999725868302
 30
0.0
 11
-81.61666366457939
 21
-71.56666396011906
 31
0.0
  0
LINE
  5
382
330
1F
100
AcDbEntity
  8
16
  6
Continuous
 62
     3
370
    25
100
AcDbLine
 10
-81.61666366457939
 20
-71.56666396011906
 30
0.0
 11
-81.61666366457939
 21
-72.06666397502022
 31
0.0
  0
LINE
  5
383
330
1F
100
AcDbEntity
  8
16
  6
Continuous
 62
     3
370
    25
100
AcDbLine
 10
-81.61666366457939
 20
-72.06666397502022
 30
0.0
 11
-81.44999699294567
 21
-72.23333064665394
 31
0.0
  0
LINE
  5
384
330
1F
100
AcDbEntity
  8
16
  6
Continuous
 62
     3
370
    25
100
AcDbLine
 10
-81.44999699294567
 20
-72.23333064665394
 30
0.0
 11
-81.44999699294567
 21
-75.39999740769463
 31
0.0
  0
LINE
  5
385
330
1F
100
AcDbEntity
  8
16
  6
Continuous
 62
     3
370
    25
100
AcDbLine
 10
-81.44999699294567
 20
-75.39999740769463
 30
0.0
 11
-80.78333030641079
 21
-75.39999740769463
 31
0.0
  0
LINE
  5
386
330
1F
100
AcDbEntity
  8
16
  6
Continuous
 62
     3
370
    25
100
AcDbLine
 10
-80.78333030641079
 20
-75.39999740769463
 30
0.0
 11
-80.78333030641079
 21
-72.23333064665394
 31
0.0
  0
LINE
  5
387
330
1F
100
AcDbEntity
  8
16
  6
Continuous
 62
     3
370
    25
100
AcDbLine
 10
-80.78333030641079
 20
-72.23333064665394
 30
0.0
 11
-80.61666363477707
 21
-72.06666397502022
 31
0.0
  0
LINE
  5
388
330
1F
100
AcDbEntity
  8
16
  6
Continuous
 62
     3
370
    25
100
AcDbLine
 10
-80.61666363477707
 20
-72.06666397502022
 30
0.0
 11
-80.61666363477707
 21
-71.56666396011906
 31
0.0
  0
LINE
  5
389
330
1F
100
AcDbEntity
  8
16
  6
Continuous
 62
     3
370
    25
100
AcDbLine
 10
-80.61666363477707
 20
-71.56666396011906
 30
0.0
 11
-79.94999694824219
 21
-70.39999725868302
 31
0.0
  0
LINE
  5
38A
330
1F
100
AcDbEntity
  8
16
  6
Continuous
 62
     3
370
    25
100
AcDbLine
 10
-79.94999694824219
 20
-70.39999725868302
 30
0.0
 11
-79.44999693334103
 21
-70.39999725868302
 31
0.0
  0
LINE
  5
38B
330
1F
100
AcDbEntity
  8
16
  6
Continuous
 62
     3
370
    25
100
AcDbLine
 10
-79.44999693334103
 20
-70.39999725868302
 30
0.0
 11
-79.44999693334103
 21
-70.06666391541557
 31
0.0
  0
LINE
  5
38C
330
1F
100
AcDbEntity
  8
16
  6
Continuous
 62
     3
370
    25
100
AcDbLine
 10
-79.44999693334103
 20
-70.06666391541557
 30
0.0
 11
-80.11666361987591
 21
-70.06666391541557
 31
0.0
  0
LINE
  5
38D
330
1F
100
AcDbEntity
  8
16
  6
Continuous
 62
     3
370
    25
100
AcDbLine
 10
-80.11666361987591
 20
-70.06666391541557
 30
0.0
 11
-81.11666364967823
 21
-71.0666639452179
 31
0.0
  0
LINE
  5
38E
330
1F
100
AcDbEntity
  8
16
  6
Continuous
 62
     3
370
    25
100
AcDbLine
 10
-81.11666364967823
 20
-71.0666639452179
 30
0.0
 11
-82.11666367948055
 21
-70.06666391541557
 31
0.0
  0
LINE
  5
38F
330
1F
100
AcDbEntity
  8
16
  6
Continuous
 62
     3
370
    25
100
AcDbLine
 10
-82.11666367948055
 20
-70.06666391541557
 30
0.0
 11
-82.78333036601543
 21
-70.06666391541557
 31
0.0
  0
CIRCLE
  5
390
330
1F
100
AcDbEntity
  8
16
  6
Continuous
 62
     3
370
    25
100
AcDbCircle
 10
-81.1166637477167
 20
-70.64999726613357
 30
0.0
 40
0.3000000009934105
  0
LINE
  5
391
330
1F
100
AcDbEntity
  8
16
  6
Continuous
 62
     3
370
    25
100
AcDbLine
 10
-78.1333261584241
 20
-70.06666391541557
 30
0.0
 11
-78.1333261584241
 21
-70.39999725868302
 31
0.0
  0
LINE
  5
392
330
1F
100
AcDbEntity
  8
16
  6
Continuous
 62
     3
370
    25
100
AcDbLine
 10
-78.1333261584241
 20
-70.39999725868302
 30
0.0
 11
-77.63332614352294
 21
-70.39999725868302
 31
0.0
  0
LINE
  5
393
330
1F
100
AcDbEntity
  8
16
  6
Continuous
 62
     3
370
    25
100
AcDbLine
 10
-77.63332614352294
 20
-70.39999725868302
 30
0.0
 11
-76.96665945698805
 21
-71.56666396011906
 31
0.0
  0
LINE
  5
394
330
1F
100
AcDbEntity
  8
16
  6
Continuous
 62
     3
370
    25
100
AcDbLine
 10
-76.96665945698805
 20
-71.56666396011906
 30
0.0
 11
-76.96665945698805
 21
-72.06666397502022
 31
0.0
  0
LINE
  5
395
330
1F
100
AcDbEntity
  8
16
  6
Continuous
 62
     3
370
    25
100
AcDbLine
 10
-76.96665945698805
 20
-72.06666397502022
 30
0.0
 11
-76.79999278535433
 21
-72.23333064665394
 31
0.0
  0
LINE
  5
396
330
1F
100
AcDbEntity
  8
16
  6
Continuous
 62
     3
370
    25
100
AcDbLine
 10
-76.79999278535433
 20
-72.23333064665394
 30
0.0
 11
-76.79999278535433
 21
-75.39999740769463
 31
0.0
  0
LINE
  5
397
330
1F
100
AcDbEntity
  8
16
  6
Continuous
 62
     3
370
    25
100
AcDbLine
 10
-76.79999278535433
 20
-75.39999740769463
 30
0.0
 11
-76.13332609881945
 21
-75.39999740769463
 31
0.0
  0
LINE
  5
398
330
1F
100
AcDbEntity
  8
16
  6
Continuous
 62
     3
370
    25
100
AcDbLine
 10
-76.13332609881945
 20
-75.39999740769463
 30
0.0
 11
-76.13332609881945
 21
-72.23333064665394
 31
0.0
  0
LINE
  5
399
330
1F
100
AcDbEntity
  8
16
  6
Continuous
 62
     3
370
    25
100
AcDbLine
 10
-76.13332609881945
 20
-72.23333064665394
 30
0.0
 11
-75.96665942718573
 21
-72.06666397502022
 31
0.0
  0
LINE
  5
39A
330
1F
100
AcDbEntity
  8
16
  6
Continuous
 62
     3
370
    25
100
AcDbLine
 10
-75.96665942718573
 20
-72.06666397502022
 30
0.0
 11
-75.96665942718573
 21
-71.56666396011906
 31
0.0
  0
LINE
  5
39B
330
1F
100
AcDbEntity
  8
16
  6
Continuous
 62
     3
370
    25
100
AcDbLine
 10
-75.96665942718573
 20
-71.56666396011906
 30
0.0
 11
-75.29999274065085
 21
-70.39999725868302
 31
0.0
  0
LINE
  5
39C
330
1F
100
AcDbEntity
  8
16
  6
Continuous
 62
     3
370
    25
100
AcDbLine
 10
-75.29999274065085
 20
-70.39999725868302
 30
0.0
 11
-74.79999272574969
 21
-70.39999725868302
 31
0.0
  0
LINE
  5
39D
330
1F
100
AcDbEntity
  8
16
  6
Continuous
 62
     3
370
    25
100
AcDbLine
 10
-74.79999272574969
 20
-70.39999725868302
 30
0.0
 11
-74.79999272574969
 21
-70.06666391541557
 31
0.0
  0
LINE
  5
39E
330
1F
100
AcDbEntity
  8
16
  6
Continuous
 62
     3
370
    25
100
AcDbLine
 10
-74.79999272574969
 20
-70.06666391541557
 30
0.0
 11
-75.46665941228457
 21
-70.06666391541557
 31
0.0
  0
LINE
  5
39F
330
1F
100
AcDbEntity
  8
16
  6
Continuous
 62
     3
370
    25
100
AcDbLine
 10
-75.46665941228457
 20
-70.06666391541557
 30
0.0
 11
-76.4666594420869
 21
-71.0666639452179
 31
0.0
  0
LINE
  5
3A0
330
1F
100
AcDbEntity
  8
16
  6
Continuous
 62
     3
370
    25
100
AcDbLine
 10
-76.4666594420869
 20
-71.0666639452179
 30
0.0
 11
-77.46665947188922
 21
-70.06666391541557
 31
0.0
  0
LINE
  5
3A1
330
1F
100
AcDbEntity
  8
16
  6
Continuous
 62
     3
370
    25
100
AcDbLine
 10
-77.46665947188922
 20
-70.06666391541557
 30
0.0
 11
-78.1333261584241
 21
-70.06666391541557
 31
0.0
  0
CIRCLE
  5
3A2
330
1F
100
AcDbEntity
  8
16
  6
Continuous
 62
     3
370
    25
100
AcDbCircle
 10
-76.46665954012536
 20
-70.64999726613357
 30
0.0
 40
0.3000000009934105
  0
LINE
  5
3A3
330
1F
100
AcDbEntity
  8
16
  6
Continuous
 62
     3
370
    25
100
AcDbLine
 10
-73.4833321233591
 20
-70.06666391541557
 30
0.0
 11
-73.4833321233591
 21
-70.39999725868302
 31
0.0
  0
LINE
  5
3A4
330
1F
100
AcDbEntity
  8
16
  6
Continuous
 62
     3
370
    25
100
AcDbLine
 10
-73.4833321233591
 20
-70.39999725868302
 30
0.0
 11
-72.98333210845794
 21
-70.39999725868302
 31
0.0
  0
LINE
  5
3A5
330
1F
100
AcDbEntity
  8
16
  6
Continuous
 62
     3
370
    25
100
AcDbLine
 10
-72.98333210845794
 20
-70.39999725868302
 30
0.0
 11
-72.31666542192306
 21
-71.56666396011906
 31
0.0
  0
LINE
  5
3A6
330
1F
100
AcDbEntity
  8
16
  6
Continuous
 62
     3
370
    25
100
AcDbLine
 10
-72.31666542192306
 20
-71.56666396011906
 30
0.0
 11
-72.31666542192306
 21
-72.06666397502022
 31
0.0
  0
LINE
  5
3A7
330
1F
100
AcDbEntity
  8
16
  6
Continuous
 62
     3
370
    25
100
AcDbLine
 10
-72.31666542192306
 20
-72.06666397502022
 30
0.0
 11
-72.14999875028934
 21
-72.23333064665394
 31
0.0
  0
LINE
  5
3A8
330
1F
100
AcDbEntity
  8
16
  6
Continuous
 62
     3
370
    25
100
AcDbLine
 10
-72.14999875028934
 20
-72.23333064665394
 30
0.0
 11
-72.14999875028934
 21
-75.39999740769463
 31
0.0
  0
LINE
  5
3A9
330
1F
100
AcDbEntity
  8
16
  6
Continuous
 62
     3
370
    25
100
AcDbLine
 10
-72.14999875028934
 20
-75.39999740769463
 30
0.0
 11
-71.48333206375446
 21
-75.39999740769463
 31
0.0
  0
LINE
  5
3AA
330
1F
100
AcDbEntity
  8
16
  6
Continuous
 62
     3
370
    25
100
AcDbLine
 10
-71.48333206375446
 20
-75.39999740769463
 30
0.0
 11
-71.48333206375446
 21
-72.23333064665394
 31
0.0
  0
LINE
  5
3AB
330
1F
100
AcDbEntity
  8
16
  6
Continuous
 62
     3
370
    25
100
AcDbLine
 10
-71.48333206375446
 20
-72.23333064665394
 30
0.0
 11
-71.31666539212074
 21
-72.06666397502022
 31
0.0
  0
LINE
  5
3AC
330
1F
100
AcDbEntity
  8
16
  6
Continuous
 62
     3
370
    25
100
AcDbLine
 10
-71.31666539212074
 20
-72.06666397502022
 30
0.0
 11
-71.31666539212074
 21
-71.56666396011906
 31
0.0
  0
LINE
  5
3AD
330
1F
100
AcDbEntity
  8
16
  6
Continuous
 62
     3
370
    25
100
AcDbLine
 10
-71.31666539212074
 20
-71.56666396011906
 30
0.0
 11
-70.64999870558586
 21
-70.39999725868302
 31
0.0
  0
LINE
  5
3AE
330
1F
100
AcDbEntity
  8
16
  6
Continuous
 62
     3
370
    25
100
AcDbLine
 10
-70.64999870558586
 20
-70.39999725868302
 30
0.0
 11
-70.1499986906847
 21
-70.39999725868302
 31
0.0
  0
LINE
  5
3AF
330
1F
100
AcDbEntity
  8
16
  6
Continuous
 62
     3
370
    25
100
AcDbLine
 10
-70.1499986906847
 20
-70.39999725868302
 30
0.0
 11
-70.1499986906847
 21
-70.06666391541557
 31
0.0
  0
LINE
  5
3B0
330
1F
100
AcDbEntity
  8
16
  6
Continuous
 62
     3
370
    25
100
AcDbLine
 10
-70.1499986906847
 20
-70.06666391541557
 30
0.0
 11
-70.81666537721958
 21
-70.06666391541557
 31
0.0
  0
LINE
  5
3B1
330
1F
100
AcDbEntity
  8
16
  6
Continuous
 62
     3
370
    25
100
AcDbLine
 10
-70.81666537721958
 20
-70.06666391541557
 30
0.0
 11
-71.8166654070219
 21
-71.0666639452179
 31
0.0
  0
LINE
  5
3B2
330
1F
100
AcDbEntity
  8
16
  6
Continuous
 62
     3
370
    25
100
AcDbLine
 10
-71.8166654070219
 20
-71.0666639452179
 30
0.0
 11
-72.81666543682422
 21
-70.06666391541557
 31
0.0
  0
LINE
  5
3B3
330
1F
100
AcDbEntity
  8
16
  6
Continuous
 62
     3
370
    25
100
AcDbLine
 10
-72.81666543682422
 20
-70.06666391541557
 30
0.0
 11
-73.4833321233591
 21
-70.06666391541557
 31
0.0
  0
CIRCLE
  5
3B4
330
1F
100
AcDbEntity
  8
16
  6
Continuous
 62
     3
370
    25
100
AcDbCircle
 10
-71.81666550506037
 20
-70.64999726613357
 30
0.0
 40
0.3000000009934105
  0
LINE
  5
3B5
330
1F
100
AcDbEntity
  8
16
  6
Continuous
 62
     3
370
    25
100
AcDbLine
 10
-68.83332791576777
 20
-70.06666391541557
 30
0.0
 11
-68.83332791576777
 21
-70.39999725868302
 31
0.0
  0
LINE
  5
3B6
330
1F
100
AcDbEntity
  8
16
  6
Continuous
 62
     3
370
    25
100
AcDbLine
 10
-68.83332791576777
 20
-70.39999725868302
 30
0.0
 11
-68.3333279008666
 21
-70.39999725868302
 31
0.0
  0
LINE
  5
3B7
330
1F
100
AcDbEntity
  8
16
  6
Continuous
 62
     3
370
    25
100
AcDbLine
 10
-68.3333279008666
 20
-70.39999725868302
 30
0.0
 11
-67.66666121433173
 21
-71.56666396011906
 31
0.0
  0
LINE
  5
3B8
330
1F
100
AcDbEntity
  8
16
  6
Continuous
 62
     3
370
    25
100
AcDbLine
 10
-67.66666121433173
 20
-71.56666396011906
 30
0.0
 11
-67.66666121433173
 21
-72.06666397502022
 31
0.0
  0
LINE
  5
3B9
330
1F
100
AcDbEntity
  8
16
  6
Continuous
 62
     3
370
    25
100
AcDbLine
 10
-67.66666121433173
 20
-72.06666397502022
 30
0.0
 11
-67.499994542698
 21
-72.23333064665394
 31
0.0
  0
LINE
  5
3BA
330
1F
100
AcDbEntity
  8
16
  6
Continuous
 62
     3
370
    25
100
AcDbLine
 10
-67.499994542698
 20
-72.23333064665394
 30
0.0
 11
-67.499994542698
 21
-75.39999740769463
 31
0.0
  0
LINE
  5
3BB
330
1F
100
AcDbEntity
  8
16
  6
Continuous
 62
     3
370
    25
100
AcDbLine
 10
-67.499994542698
 20
-75.39999740769463
 30
0.0
 11
-66.83332785616312
 21
-75.39999740769463
 31
0.0
  0
LINE
  5
3BC
330
1F
100
AcDbEntity
  8
16
  6
Continuous
 62
     3
370
    25
100
AcDbLine
 10
-66.83332785616312
 20
-75.39999740769463
 30
0.0
 11
-66.83332785616312
 21
-72.23333064665394
 31
0.0
  0
LINE
  5
3BD
330
1F
100
AcDbEntity
  8
16
  6
Continuous
 62
     3
370
    25
100
AcDbLine
 10
-66.83332785616312
 20
-72.23333064665394
 30
0.0
 11
-66.6666611845294
 21
-72.06666397502022
 31
0.0
  0
LINE
  5
3BE
330
1F
100
AcDbEntity
  8
16
  6
Continuous
 62
     3
370
    25
100
AcDbLine
 10
-66.6666611845294
 20
-72.06666397502022
 30
0.0
 11
-66.6666611845294
 21
-71.56666396011906
 31
0.0
  0
LINE
  5
3BF
330
1F
100
AcDbEntity
  8
16
  6
Continuous
 62
     3
370
    25
100
AcDbLine
 10
-66.6666611845294
 20
-71.56666396011906
 30
0.0
 11
-65.99999449799452
 21
-70.39999725868302
 31
0.0
  0
LINE
  5
3C0
330
1F
100
AcDbEntity
  8
16
  6
Continuous
 62
     3
370
    25
100
AcDbLine
 10
-65.99999449799452
 20
-70.39999725868302
 30
0.0
 11
-65.49999448309336
 21
-70.39999725868302
 31
0.0
  0
LINE
  5
3C1
330
1F
100
AcDbEntity
  8
16
  6
Continuous
 62
     3
370
    25
100
AcDbLine
 10
-65.49999448309336
 20
-70.39999725868302
 30
0.0
 11
-65.49999448309336
 21
-70.06666391541557
 31
0.0
  0
LINE
  5
3C2
330
1F
100
AcDbEntity
  8
16
  6
Continuous
 62
     3
370
    25
100
AcDbLine
 10
-65.49999448309336
 20
-70.06666391541557
 30
0.0
 11
-66.16666116962824
 21
-70.06666391541557
 31
0.0
  0
LINE
  5
3C3
330
1F
100
AcDbEntity
  8
16
  6
Continuous
 62
     3
370
    25
100
AcDbLine
 10
-66.16666116962824
 20
-70.06666391541557
 30
0.0
 11
-67.16666119943056
 21
-71.0666639452179
 31
0.0
  0
LINE
  5
3C4
330
1F
100
AcDbEntity
  8
16
  6
Continuous
 62
     3
370
    25
100
AcDbLine
 10
-67.16666119943056
 20
-71.0666639452179
 30
0.0
 11
-68.16666122923289
 21
-70.06666391541557
 31
0.0
  0
LINE
  5
3C5
330
1F
100
AcDbEntity
  8
16
  6
Continuous
 62
     3
370
    25
100
AcDbLine
 10
-68.16666122923289
 20
-70.06666391541557
 30
0.0
 11
-68.83332791576777
 21
-70.06666391541557
 31
0.0
  0
CIRCLE
  5
3C6
330
1F
100
AcDbEntity
  8
16
  6
Continuous
 62
     3
370
    25
100
AcDbCircle
 10
-67.16666129746903
 20
-70.64999726613357
 30
0.0
 40
0.3000000009934105
  0
LINE
  5
3C7
330
1F
100
AcDbEntity
  8
16
  6
Continuous
 62
     3
370
    25
100
AcDbLine
 10
-64.2999924128253
 20
-70.06666391541557
 30
0.0
 11
-64.2999924128253
 21
-70.39999725868302
 31
0.0
  0
LINE
  5
3C8
330
1F
100
AcDbEntity
  8
16
  6
Continuous
 62
     3
370
    25
100
AcDbLine
 10
-64.2999924128253
 20
-70.39999725868302
 30
0.0
 11
-63.79999239792415
 21
-70.39999725868302
 31
0.0
  0
LINE
  5
3C9
330
1F
100
AcDbEntity
  8
16
  6
Continuous
 62
     3
370
    25
100
AcDbLine
 10
-63.79999239792415
 20
-70.39999725868302
 30
0.0
 11
-63.13332571138927
 21
-71.56666396011906
 31
0.0
  0
LINE
  5
3CA
330
1F
100
AcDbEntity
  8
16
  6
Continuous
 62
     3
370
    25
100
AcDbLine
 10
-63.13332571138927
 20
-71.56666396011906
 30
0.0
 11
-63.13332571138927
 21
-72.06666397502022
 31
0.0
  0
LINE
  5
3CB
330
1F
100
AcDbEntity
  8
16
  6
Continuous
 62
     3
370
    25
100
AcDbLine
 10
-63.13332571138927
 20
-72.06666397502022
 30
0.0
 11
-62.96665903975555
 21
-72.23333064665394
 31
0.0
  0
LINE
  5
3CC
330
1F
100
AcDbEntity
  8
16
  6
Continuous
 62
     3
370
    25
100
AcDbLine
 10
-62.96665903975555
 20
-72.23333064665394
 30
0.0
 11
-62.96665903975555
 21
-75.39999740769463
 31
0.0
  0
LINE
  5
3CD
330
1F
100
AcDbEntity
  8
16
  6
Continuous
 62
     3
370
    25
100
AcDbLine
 10
-62.96665903975555
 20
-75.39999740769463
 30
0.0
 11
-62.29999235322067
 21
-75.39999740769463
 31
0.0
  0
LINE
  5
3CE
330
1F
100
AcDbEntity
  8
16
  6
Continuous
 62
     3
370
    25
100
AcDbLine
 10
-62.29999235322067
 20
-75.39999740769463
 30
0.0
 11
-62.29999235322067
 21
-72.23333064665394
 31
0.0
  0
LINE
  5
3CF
330
1F
100
AcDbEntity
  8
16
  6
Continuous
 62
     3
370
    25
100
AcDbLine
 10
-62.29999235322067
 20
-72.23333064665394
 30
0.0
 11
-62.13332568158694
 21
-72.06666397502022
 31
0.0
  0
LINE
  5
3D0
330
1F
100
AcDbEntity
  8
16
  6
Continuous
 62
     3
370
    25
100
AcDbLine
 10
-62.13332568158694
 20
-72.06666397502022
 30
0.0
 11
-62.13332568158694
 21
-71.56666396011906
 31
0.0
  0
LINE
  5
3D1
330
1F
100
AcDbEntity
  8
16
  6
Continuous
 62
     3
370
    25
100
AcDbLine
 10
-62.13332568158694
 20
-71.56666396011906
 30
0.0
 11
-61.46665899505206
 21
-70.39999725868302
 31
0.0
  0
LINE
  5
3D2
330
1F
100
AcDbEntity
  8
16
  6
Continuous
 62
     3
370
    25
100
AcDbLine
 10
-61.46665899505206
 20
-70.39999725868302
 30
0.0
 11
-60.9666589801509
 21
-70.39999725868302
 31
0.0
  0
LINE
  5
3D3
330
1F
100
AcDbEntity
  8
16
  6
Continuous
 62
     3
370
    25
100
AcDbLine
 10
-60.9666589801509
 20
-70.39999725868302
 30
0.0
 11
-60.9666589801509
 21
-70.06666391541557
 31
0.0
  0
LINE
  5
3D4
330
1F
100
AcDbEntity
  8
16
  6
Continuous
 62
     3
370
    25
100
AcDbLine
 10
-60.9666589801509
 20
-70.06666391541557
 30
0.0
 11
-61.63332566668578
 21
-70.06666391541557
 31
0.0
  0
LINE
  5
3D5
330
1F
100
AcDbEntity
  8
16
  6
Continuous
 62
     3
370
    25
100
AcDbLine
 10
-61.63332566668578
 20
-70.06666391541557
 30
0.0
 11
-62.63332569648811
 21
-71.0666639452179
 31
0.0
  0
LINE
  5
3D6
330
1F
100
AcDbEntity
  8
16
  6
Continuous
 62
     3
370
    25
100
AcDbLine
 10
-62.63332569648811
 20
-71.0666639452179
 30
0.0
 11
-63.63332572629043
 21
-70.06666391541557
 31
0.0
  0
LINE
  5
3D7
330
1F
100
AcDbEntity
  8
16
  6
Continuous
 62
     3
370
    25
100
AcDbLine
 10
-63.63332572629043
 20
-70.06666391541557
 30
0.0
 11
-64.2999924128253
 21
-70.06666391541557
 31
0.0
  0
CIRCLE
  5
3D8
330
1F
100
AcDbEntity
  8
16
  6
Continuous
 62
     3
370
    25
100
AcDbCircle
 10
-62.63332579452658
 20
-70.64999726613357
 30
0.0
 40
0.3000000009934105
  0
LINE
  5
3D9
330
1F
100
AcDbEntity
  8
16
  6
Continuous
 62
     3
370
    25
100
AcDbLine
 10
-124.6333326304952
 20
-70.06666391541557
 30
0.0
 11
-60.96666406641407
 21
-70.06666391541557
 31
0.0
  0
LINE
  5
3DA
330
1F
100
AcDbEntity
  8
16
  6
Continuous
 62
     3
370
    25
100
AcDbLine
 10
-124.6333326304952
 20
-70.06666391541557
 30
0.0
 11
-124.6333326304952
 21
-75.39999740769463
 31
0.0
  0
LINE
  5
3DB
330
1F
100
AcDbEntity
  8
16
  6
Continuous
 62
     3
370
    25
100
AcDbLine
 10
-124.6333326304952
 20
-75.39999740769463
 30
0.0
 11
-60.96666406641407
 21
-75.39999740769463
 31
0.0
  0
LINE
  5
3DC
330
1F
100
AcDbEntity
  8
16
  6
Continuous
 62
     3
370
    25
100
AcDbLine
 10
-60.96666406641407
 20
-75.39999740769463
 30
0.0
 11
-60.96666406641407
 21
-70.06666391541557
 31
0.0
  0
LINE
  5
3DD
330
1F
100
AcDbEntity
  8
16
  6
Continuous
 62
     3
370
    25
100
AcDbLine
 10
-121.6416638401647
 20
-72.06666397502022
 30
0.0
 11
-121.6416638401647
 21
-72.7333306615551
 31
0.0
  0
ARC
  5
3DE
330
1F
100
AcDbEntity
  8
16
  6
Continuous
 62
     3
370
    25
100
AcDbCircle
 10
-120.6416638103626
 20
-72.73333131514491
 30
0.0
 40
1.000000029802322
100
AcDbArc
 50
180.0000000000004
 51
0.0000000000008142
  0
LINE
  5
3DF
330
1F
100
AcDbEntity
  8
16
  6
Continuous
 62
     3
370
    25
100
AcDbLine
 10
-119.6416637805611
 20
-72.73333262232453
 30
0.0
 11
-119.6416637805611
 21
-72.06666593578964
 31
0.0
  0
ARC
  5
3E0
330
1F
100
AcDbEntity
  8
16
  6
Continuous
 62
     3
370
    25
100
AcDbCircle
 10
-120.6416638103634
 20
-72.06666593578964
 30
0.0
 40
1.000000029802322
100
AcDbArc
 50
0.0
 51
180.0000000000004
  0
LINE
  5
3E1
330
1F
100
AcDbEntity
  8
16
  6
Continuous
 62
     3
370
    25
100
AcDbLine
 10
-122.1416638550659
 20
-72.39999731828766
 30
0.0
 11
-119.1416637656589
 21
-72.39999731828766
 31
0.0
  0
LINE
  5
3E2
330
1F
100
AcDbEntity
  8
16
  6
Continuous
 62
     3
370
    25
100
AcDbLine
 10
-120.6416638103624
 20
-70.56666393031674
 30
0.0
 11
-120.6416638103624
 21
-74.23333070625858
 31
0.0
  0
LINE
  5
3E3
330
1F
100
AcDbEntity
  8
16
  6
Continuous
 62
     3
370
    25
100
AcDbLine
 10
-117.941666781654
 20
-72.23333064665394
 30
0.0
 11
-117.7750001100203
 21
-72.06666397502022
 31
0.0
  0
LINE
  5
3E4
330
1F
100
AcDbEntity
  8
16
  6
Continuous
 62
     3
370
    25
100
AcDbLine
 10
-117.7750001100203
 20
-72.06666397502022
 30
0.0
 11
-114.208333400637
 21
-72.06666397502022
 31
0.0
  0
LINE
  5
3E5
330
1F
100
AcDbEntity
  8
16
  6
Continuous
 62
     3
370
    25
100
AcDbLine
 10
-114.208333400637
 20
-72.06666397502022
 30
0.0
 11
-114.0416667290032
 21
-72.23333064665394
 31
0.0
  0
LINE
  5
3E6
330
1F
100
AcDbEntity
  8
16
  6
Continuous
 62
     3
370
    25
100
AcDbLine
 10
-114.0416667290032
 20
-73.89999736299114
 30
0.0
 11
-114.208333400637
 21
-74.06666403462486
 31
0.0
  0
LINE
  5
3E7
330
1F
100
AcDbEntity
  8
16
  6
Continuous
 62
     3
370
    25
100
AcDbLine
 10
-114.208333400637
 20
-74.06666403462486
 30
0.0
 11
-117.7750001100203
 21
-74.06666403462486
 31
0.0
  0
LINE
  5
3E8
330
1F
100
AcDbEntity
  8
16
  6
Continuous
 62
     3
370
    25
100
AcDbLine
 10
-117.7750001100203
 20
-74.06666403462486
 30
0.0
 11
-117.941666781654
 21
-73.89999736299114
 31
0.0
  0
LINE
  5
3E9
330
1F
100
AcDbEntity
  8
16
  6
Continuous
 62
     3
370
    25
100
AcDbLine
 10
-113.2916625740627
 20
-72.23333064665394
 30
0.0
 11
-113.1249959024289
 21
-72.06666397502022
 31
0.0
  0
LINE
  5
3EA
330
1F
100
AcDbEntity
  8
16
  6
Continuous
 62
     3
370
    25
100
AcDbLine
 10
-113.1249959024289
 20
-72.06666397502022
 30
0.0
 11
-109.5583291930456
 21
-72.06666397502022
 31
0.0
  0
LINE
  5
3EB
330
1F
100
AcDbEntity
  8
16
  6
Continuous
 62
     3
370
    25
100
AcDbLine
 10
-109.5583291930456
 20
-72.06666397502022
 30
0.0
 11
-109.3916625214119
 21
-72.23333064665394
 31
0.0
  0
LINE
  5
3EC
330
1F
100
AcDbEntity
  8
16
  6
Continuous
 62
     3
370
    25
100
AcDbLine
 10
-109.3916625214119
 20
-73.89999736299114
 30
0.0
 11
-109.5583291930456
 21
-74.06666403462486
 31
0.0
  0
LINE
  5
3ED
330
1F
100
AcDbEntity
  8
16
  6
Continuous
 62
     3
370
    25
100
AcDbLine
 10
-109.5583291930456
 20
-74.06666403462486
 30
0.0
 11
-113.1249959024289
 21
-74.06666403462486
 31
0.0
  0
LINE
  5
3EE
330
1F
100
AcDbEntity
  8
16
  6
Continuous
 62
     3
370
    25
100
AcDbLine
 10
-113.1249959024289
 20
-74.06666403462486
 30
0.0
 11
-113.2916625740627
 21
-73.89999736299114
 31
0.0
  0
LINE
  5
3EF
330
1F
100
AcDbEntity
  8
16
  6
Continuous
 62
     3
370
    25
100
AcDbLine
 10
-108.6416634527345
 20
-72.23333064665394
 30
0.0
 11
-108.4749967811008
 21
-72.06666397502022
 31
0.0
  0
LINE
  5
3F0
330
1F
100
AcDbEntity
  8
16
  6
Continuous
 62
     3
370
    25
100
AcDbLine
 10
-108.4749967811008
 20
-72.06666397502022
 30
0.0
 11
-104.9083300717175
 21
-72.06666397502022
 31
0.0
  0
LINE
  5
3F1
330
1F
100
AcDbEntity
  8
16
  6
Continuous
 62
     3
370
    25
100
AcDbLine
 10
-104.9083300717175
 20
-72.06666397502022
 30
0.0
 11
-104.7416634000837
 21
-72.23333064665394
 31
0.0
  0
LINE
  5
3F2
330
1F
100
AcDbEntity
  8
16
  6
Continuous
 62
     3
370
    25
100
AcDbLine
 10
-104.7416634000837
 20
-73.89999736299114
 30
0.0
 11
-104.9083300717175
 21
-74.06666403462486
 31
0.0
  0
LINE
  5
3F3
330
1F
100
AcDbEntity
  8
16
  6
Continuous
 62
     3
370
    25
100
AcDbLine
 10
-104.9083300717175
 20
-74.06666403462486
 30
0.0
 11
-108.4749967811008
 21
-74.06666403462486
 31
0.0
  0
LINE
  5
3F4
330
1F
100
AcDbEntity
  8
16
  6
Continuous
 62
     3
370
    25
100
AcDbLine
 10
-108.4749967811008
 20
-74.06666403462486
 30
0.0
 11
-108.6416634527345
 21
-73.89999736299114
 31
0.0
  0
LINE
  5
3F5
330
1F
100
AcDbEntity
  8
16
  6
Continuous
 62
     3
370
    25
100
AcDbLine
 10
-103.9916643314063
 20
-72.23333064665394
 30
0.0
 11
-103.8249976597726
 21
-72.06666397502022
 31
0.0
  0
LINE
  5
3F6
330
1F
100
AcDbEntity
  8
16
  6
Continuous
 62
     3
370
    25
100
AcDbLine
 10
-103.8249976597726
 20
-72.06666397502022
 30
0.0
 11
-100.2583309503893
 21
-72.06666397502022
 31
0.0
  0
LINE
  5
3F7
330
1F
100
AcDbEntity
  8
16
  6
Continuous
 62
     3
370
    25
100
AcDbLine
 10
-100.2583309503893
 20
-72.06666397502022
 30
0.0
 11
-100.0916642787556
 21
-72.23333064665394
 31
0.0
  0
LINE
  5
3F8
330
1F
100
AcDbEntity
  8
16
  6
Continuous
 62
     3
370
    25
100
AcDbLine
 10
-100.0916642787556
 20
-73.89999736299114
 30
0.0
 11
-100.2583309503893
 21
-74.06666403462486
 31
0.0
  0
LINE
  5
3F9
330
1F
100
AcDbEntity
  8
16
  6
Continuous
 62
     3
370
    25
100
AcDbLine
 10
-100.2583309503893
 20
-74.06666403462486
 30
0.0
 11
-103.8249976597726
 21
-74.06666403462486
 31
0.0
  0
LINE
  5
3FA
330
1F
100
AcDbEntity
  8
16
  6
Continuous
 62
     3
370
    25
100
AcDbLine
 10
-103.8249976597726
 20
-74.06666403462486
 30
0.0
 11
-103.9916643314063
 21
-73.89999736299114
 31
0.0
  0
LINE
  5
3FB
330
1F
100
AcDbEntity
  8
16
  6
Continuous
 62
     3
370
    25
100
AcDbLine
 10
-99.34166521007819
 20
-72.23333064665394
 30
0.0
 11
-99.17499853844447
 21
-72.06666397502022
 31
0.0
  0
LINE
  5
3FC
330
1F
100
AcDbEntity
  8
16
  6
Continuous
 62
     3
370
    25
100
AcDbLine
 10
-99.17499853844447
 20
-72.06666397502022
 30
0.0
 11
-95.60833182906113
 21
-72.06666397502022
 31
0.0
  0
LINE
  5
3FD
330
1F
100
AcDbEntity
  8
16
  6
Continuous
 62
     3
370
    25
100
AcDbLine
 10
-95.60833182906113
 20
-72.06666397502022
 30
0.0
 11
-95.44166515742741
 21
-72.23333064665394
 31
0.0
  0
LINE
  5
3FE
330
1F
100
AcDbEntity
  8
16
  6
Continuous
 62
     3
370
    25
100
AcDbLine
 10
-95.44166515742741
 20
-73.89999736299114
 30
0.0
 11
-95.60833182906113
 21
-74.06666403462486
 31
0.0
  0
LINE
  5
3FF
330
1F
100
AcDbEntity
  8
16
  6
Continuous
 62
     3
370
    25
100
AcDbLine
 10
-95.60833182906113
 20
-74.06666403462486
 30
0.0
 11
-99.17499853844447
 21
-74.06666403462486
 31
0.0
  0
LINE
  5
400
330
1F
100
AcDbEntity
  8
16
  6
Continuous
 62
     3
370
    25
100
AcDbLine
 10
-99.17499853844447
 20
-74.06666403462486
 30
0.0
 11
-99.34166521007819
 21
-73.89999736299114
 31
0.0
  0
LINE
  5
401
330
1F
100
AcDbEntity
  8
16
  6
Continuous
 62
     3
370
    25
100
AcDbLine
 10
-94.69166608875003
 20
-72.23333064665394
 30
0.0
 11
-94.5249994171163
 21
-72.06666397502022
 31
0.0
  0
LINE
  5
402
330
1F
100
AcDbEntity
  8
16
  6
Continuous
 62
     3
370
    25
100
AcDbLine
 10
-94.5249994171163
 20
-72.06666397502022
 30
0.0
 11
-90.95833270773296
 21
-72.06666397502022
 31
0.0
  0
LINE
  5
403
330
1F
100
AcDbEntity
  8
16
  6
Continuous
 62
     3
370
    25
100
AcDbLine
 10
-90.95833270773296
 20
-72.06666397502022
 30
0.0
 11
-90.79166603609924
 21
-72.23333064665394
 31
0.0
  0
LINE
  5
404
330
1F
100
AcDbEntity
  8
16
  6
Continuous
 62
     3
370
    25
100
AcDbLine
 10
-90.79166603609924
 20
-73.89999736299114
 30
0.0
 11
-90.95833270773296
 21
-74.06666403462486
 31
0.0
  0
LINE
  5
405
330
1F
100
AcDbEntity
  8
16
  6
Continuous
 62
     3
370
    25
100
AcDbLine
 10
-90.95833270773296
 20
-74.06666403462486
 30
0.0
 11
-94.5249994171163
 21
-74.06666403462486
 31
0.0
  0
LINE
  5
406
330
1F
100
AcDbEntity
  8
16
  6
Continuous
 62
     3
370
    25
100
AcDbLine
 10
-94.5249994171163
 20
-74.06666403462486
 30
0.0
 11
-94.69166608875003
 21
-73.89999736299114
 31
0.0
  0
LINE
  5
407
330
1F
100
AcDbEntity
  8
16
  6
Continuous
 62
     3
370
    25
100
AcDbLine
 10
-90.04166188115869
 20
-72.23333064665394
 30
0.0
 11
-89.87499520952497
 21
-72.06666397502022
 31
0.0
  0
LINE
  5
408
330
1F
100
AcDbEntity
  8
16
  6
Continuous
 62
     3
370
    25
100
AcDbLine
 10
-89.87499520952497
 20
-72.06666397502022
 30
0.0
 11
-86.30832850014163
 21
-72.06666397502022
 31
0.0
  0
LINE
  5
409
330
1F
100
AcDbEntity
  8
16
  6
Continuous
 62
     3
370
    25
100
AcDbLine
 10
-86.30832850014163
 20
-72.06666397502022
 30
0.0
 11
-86.1416618285079
 21
-72.23333064665394
 31
0.0
  0
LINE
  5
40A
330
1F
100
AcDbEntity
  8
16
  6
Continuous
 62
     3
370
    25
100
AcDbLine
 10
-86.1416618285079
 20
-73.89999736299114
 30
0.0
 11
-86.30832850014163
 21
-74.06666403462486
 31
0.0
  0
LINE
  5
40B
330
1F
100
AcDbEntity
  8
16
  6
Continuous
 62
     3
370
    25
100
AcDbLine
 10
-86.30832850014163
 20
-74.06666403462486
 30
0.0
 11
-89.87499520952497
 21
-74.06666403462486
 31
0.0
  0
LINE
  5
40C
330
1F
100
AcDbEntity
  8
16
  6
Continuous
 62
     3
370
    25
100
AcDbLine
 10
-89.87499520952497
 20
-74.06666403462486
 30
0.0
 11
-90.04166188115869
 21
-73.89999736299114
 31
0.0
  0
LINE
  5
40D
330
1F
100
AcDbEntity
  8
16
  6
Continuous
 62
     3
370
    25
100
AcDbLine
 10
-85.3916678460937
 20
-72.23333064665394
 30
0.0
 11
-85.22500117445998
 21
-72.06666397502022
 31
0.0
  0
LINE
  5
40E
330
1F
100
AcDbEntity
  8
16
  6
Continuous
 62
     3
370
    25
100
AcDbLine
 10
-85.22500117445998
 20
-72.06666397502022
 30
0.0
 11
-81.65833446507665
 21
-72.06666397502022
 31
0.0
  0
LINE
  5
40F
330
1F
100
AcDbEntity
  8
16
  6
Continuous
 62
     3
370
    25
100
AcDbLine
 10
-81.65833446507665
 20
-72.06666397502022
 30
0.0
 11
-81.49166779344293
 21
-72.23333064665394
 31
0.0
  0
LINE
  5
410
330
1F
100
AcDbEntity
  8
16
  6
Continuous
 62
     3
370
    25
100
AcDbLine
 10
-81.49166779344293
 20
-73.89999736299114
 30
0.0
 11
-81.65833446507665
 21
-74.06666403462486
 31
0.0
  0
LINE
  5
411
330
1F
100
AcDbEntity
  8
16
  6
Continuous
 62
     3
370
    25
100
AcDbLine
 10
-81.65833446507665
 20
-74.06666403462486
 30
0.0
 11
-85.22500117445998
 21
-74.06666403462486
 31
0.0
  0
LINE
  5
412
330
1F
100
AcDbEntity
  8
16
  6
Continuous
 62
     3
370
    25
100
AcDbLine
 10
-85.22500117445998
 20
-74.06666403462486
 30
0.0
 11
-85.3916678460937
 21
-73.89999736299114
 31
0.0
  0
LINE
  5
413
330
1F
100
AcDbEntity
  8
16
  6
Continuous
 62
     3
370
    25
100
AcDbLine
 10
-80.74166363850236
 20
-72.23333064665394
 30
0.0
 11
-80.57499696686864
 21
-72.06666397502022
 31
0.0
  0
LINE
  5
414
330
1F
100
AcDbEntity
  8
16
  6
Continuous
 62
     3
370
    25
100
AcDbLine
 10
-80.57499696686864
 20
-72.06666397502022
 30
0.0
 11
-77.00833025748531
 21
-72.06666397502022
 31
0.0
  0
LINE
  5
415
330
1F
100
AcDbEntity
  8
16
  6
Continuous
 62
     3
370
    25
100
AcDbLine
 10
-77.00833025748531
 20
-72.06666397502022
 30
0.0
 11
-76.84166358585159
 21
-72.23333064665394
 31
0.0
  0
LINE
  5
416
330
1F
100
AcDbEntity
  8
16
  6
Continuous
 62
     3
370
    25
100
AcDbLine
 10
-76.84166358585159
 20
-73.89999736299114
 30
0.0
 11
-77.00833025748531
 21
-74.06666403462486
 31
0.0
  0
LINE
  5
417
330
1F
100
AcDbEntity
  8
16
  6
Continuous
 62
     3
370
    25
100
AcDbLine
 10
-77.00833025748531
 20
-74.06666403462486
 30
0.0
 11
-80.57499696686864
 21
-74.06666403462486
 31
0.0
  0
LINE
  5
418
330
1F
100
AcDbEntity
  8
16
  6
Continuous
 62
     3
370
    25
100
AcDbLine
 10
-80.57499696686864
 20
-74.06666403462486
 30
0.0
 11
-80.74166363850236
 21
-73.89999736299114
 31
0.0
  0
LINE
  5
419
330
1F
100
AcDbEntity
  8
16
  6
Continuous
 62
     3
370
    25
100
AcDbLine
 10
-76.09165943091102
 20
-72.23333064665394
 30
0.0
 11
-75.9249927592773
 21
-72.06666397502022
 31
0.0
  0
LINE
  5
41A
330
1F
100
AcDbEntity
  8
16
  6
Continuous
 62
     3
370
    25
100
AcDbLine
 10
-75.9249927592773
 20
-72.06666397502022
 30
0.0
 11
-72.35832604989398
 21
-72.06666397502022
 31
0.0
  0
LINE
  5
41B
330
1F
100
AcDbEntity
  8
16
  6
Continuous
 62
     3
370
    25
100
AcDbLine
 10
-72.35832604989398
 20
-72.06666397502022
 30
0.0
 11
-72.19165937826025
 21
-72.23333064665394
 31
0.0
  0
LINE
  5
41C
330
1F
100
AcDbEntity
  8
16
  6
Continuous
 62
     3
370
    25
100
AcDbLine
 10
-72.19165937826025
 20
-73.89999736299114
 30
0.0
 11
-72.35832604989398
 21
-74.06666403462486
 31
0.0
  0
LINE
  5
41D
330
1F
100
AcDbEntity
  8
16
  6
Continuous
 62
     3
370
    25
100
AcDbLine
 10
-72.35832604989398
 20
-74.06666403462486
 30
0.0
 11
-75.9249927592773
 21
-74.06666403462486
 31
0.0
  0
LINE
  5
41E
330
1F
100
AcDbEntity
  8
16
  6
Continuous
 62
     3
370
    25
100
AcDbLine
 10
-75.9249927592773
 20
-74.06666403462486
 30
0.0
 11
-76.09165943091102
 21
-73.89999736299114
 31
0.0
  0
LINE
  5
41F
330
1F
100
AcDbEntity
  8
16
  6
Continuous
 62
     3
370
    25
100
AcDbLine
 10
-71.44166539584603
 20
-72.23333064665394
 30
0.0
 11
-71.27499872421231
 21
-72.06666397502022
 31
0.0
  0
LINE
  5
420
330
1F
100
AcDbEntity
  8
16
  6
Continuous
 62
     3
370
    25
100
AcDbLine
 10
-71.27499872421231
 20
-72.06666397502022
 30
0.0
 11
-67.70833201482898
 21
-72.06666397502022
 31
0.0
  0
LINE
  5
421
330
1F
100
AcDbEntity
  8
16
  6
Continuous
 62
     3
370
    25
100
AcDbLine
 10
-67.70833201482898
 20
-72.06666397502022
 30
0.0
 11
-67.54166534319526
 21
-72.23333064665394
 31
0.0
  0
LINE
  5
422
330
1F
100
AcDbEntity
  8
16
  6
Continuous
 62
     3
370
    25
100
AcDbLine
 10
-67.54166534319526
 20
-73.89999736299114
 30
0.0
 11
-67.70833201482898
 21
-74.06666403462486
 31
0.0
  0
LINE
  5
423
330
1F
100
AcDbEntity
  8
16
  6
Continuous
 62
     3
370
    25
100
AcDbLine
 10
-67.70833201482898
 20
-74.06666403462486
 30
0.0
 11
-71.27499872421231
 21
-74.06666403462486
 31
0.0
  0
LINE
  5
424
330
1F
100
AcDbEntity
  8
16
  6
Continuous
 62
     3
370
    25
100
AcDbLine
 10
-71.27499872421231
 20
-74.06666403462486
 30
0.0
 11
-71.44166539584603
 21
-73.89999736299114
 31
0.0
  0
LINE
  5
425
330
1F
100
AcDbEntity
  8
16
  6
Continuous
 62
     3
370
    25
100
AcDbLine
 10
-66.7916611882547
 20
-72.23333064665394
 30
0.0
 11
-66.62499451662097
 21
-72.06666397502022
 31
0.0
  0
LINE
  5
426
330
1F
100
AcDbEntity
  8
16
  6
Continuous
 62
     3
370
    25
100
AcDbLine
 10
-66.62499451662097
 20
-72.06666397502022
 30
0.0
 11
-63.17499428664639
 21
-72.06666397502022
 31
0.0
  0
LINE
  5
427
330
1F
100
AcDbEntity
  8
16
  6
Continuous
 62
     3
370
    25
100
AcDbLine
 10
-63.17499428664639
 20
-72.06666397502022
 30
0.0
 11
-63.00832761501267
 21
-72.23333064665394
 31
0.0
  0
LINE
  5
428
330
1F
100
AcDbEntity
  8
16
  6
Continuous
 62
     3
370
    25
100
AcDbLine
 10
-63.00832761501267
 20
-73.89999736299114
 30
0.0
 11
-63.17499428664639
 21
-74.06666403462486
 31
0.0
  0
LINE
  5
429
330
1F
100
AcDbEntity
  8
16
  6
Continuous
 62
     3
370
    25
100
AcDbLine
 10
-63.17499428664639
 20
-74.06666403462486
 30
0.0
 11
-66.62499451662097
 21
-74.06666403462486
 31
0.0
  0
LINE
  5
42A
330
1F
100
AcDbEntity
  8
16
  6
Continuous
 62
     3
370
    25
100
AcDbLine
 10
-66.62499451662097
 20
-74.06666403462486
 30
0.0
 11
-66.7916611882547
 21
-73.89999736299114
 31
0.0
  0
LINE
  5
42B
330
1F
100
AcDbEntity
  8
16
  6
Continuous
 62
     3
370
    25
100
AcDbLine
 10
-123.5083326137315
 20
-72.0666639452179
 30
0.0
 11
-123.8416659520319
 21
-72.0666639452179
 31
0.0
  0
LINE
  5
42C
330
1F
100
AcDbEntity
  8
16
  6
Continuous
 62
     3
370
    25
100
AcDbLine
 10
-123.8416659520319
 20
-72.0666639452179
 30
0.0
 11
-123.8416659520319
 21
-74.06666397502022
 31
0.0
  0
LINE
  5
42D
330
1F
100
AcDbEntity
  8
16
  6
Continuous
 62
     3
370
    25
100
AcDbLine
 10
-123.3416659445812
 20
-72.23333061436809
 30
0.0
 11
-123.5083326137315
 21
-72.0666639452179
 31
0.0
  0
LINE
  5
42E
330
1F
100
AcDbEntity
  8
16
  6
Continuous
 62
     3
370
    25
100
AcDbLine
 10
-123.5083326137315
 20
-74.06666397502022
 30
0.0
 11
-123.3416659445812
 21
-73.89999730587002
 31
0.0
  0
LINE
  5
42F
330
1F
100
AcDbEntity
  8
16
  6
Continuous
 62
     3
370
    25
100
AcDbLine
 10
-123.8416659520319
 20
-74.06666397502022
 30
0.0
 11
-123.5083326137315
 21
-74.06666397502022
 31
0.0
  0
LINE
  5
430
330
1F
100
AcDbEntity
  8
16
  6
Continuous
 62
     3
370
    25
100
AcDbLine
 10
-62.09165899691471
 20
-72.06666394521788
 30
0.0
 11
-61.75832565861432
 21
-72.06666394521788
 31
0.0
  0
LINE
  5
431
330
1F
100
AcDbEntity
  8
16
  6
Continuous
 62
     3
370
    25
100
AcDbLine
 10
-61.75832565861432
 20
-72.06666394521788
 30
0.0
 11
-61.75832565861432
 21
-74.06666397502022
 31
0.0
  0
LINE
  5
432
330
1F
100
AcDbEntity
  8
16
  6
Continuous
 62
     3
370
    25
100
AcDbLine
 10
-61.75832565861432
 20
-74.06666397502022
 30
0.0
 11
-62.09165899691471
 21
-74.06666397502022
 31
0.0
  0
LINE
  5
433
330
1F
100
AcDbEntity
  8
16
  6
Continuous
 62
     3
370
    25
100
AcDbLine
 10
-62.25832566606491
 20
-72.23333061436809
 30
0.0
 11
-62.09165899691471
 21
-72.06666394521788
 31
0.0
  0
LINE
  5
434
330
1F
100
AcDbEntity
  8
16
  6
Continuous
 62
     3
370
    25
100
AcDbLine
 10
-62.09165899691471
 20
-74.06666397502022
 30
0.0
 11
-62.25832566606491
 21
-73.89999730587002
 31
0.0
  0
LINE
  5
435
330
1F
100
AcDbEntity
  8
22
  6
Continuous
 62
     4
370
    25
100
AcDbLine
 10
91.20000407099724
 20
95.70000328421591
 30
0.0
 11
86.20000399649143
 21
95.70000328421591
 31
0.0
  0
LINE
  5
436
330
1F
100
AcDbEntity
  8
22
  6
Continuous
 62
     4
370
    25
100
AcDbLine
 10
86.20000399649143
 20
95.70000328421591
 30
0.0
 11
86.20000399649143
 21
91.70000322461127
 31
0.0
  0
LINE
  5
437
330
1F
100
AcDbEntity
  8
22
  6
Continuous
 62
     4
370
    25
100
AcDbLine
 10
86.20000399649143
 20
91.70000322461127
 30
0.0
 11
144.2000048607588
 21
91.70000322461127
 31
0.0
  0
LINE
  5
438
330
1F
100
AcDbEntity
  8
22
  6
Continuous
 62
     4
370
    25
100
AcDbLine
 10
144.2000048607588
 20
91.70000322461127
 30
0.0
 11
144.2000048607588
 21
95.70000328421591
 31
0.0
  0
LINE
  5
439
330
1F
100
AcDbEntity
  8
22
  6
Continuous
 62
     4
370
    25
100
AcDbLine
 10
144.2000048607588
 20
95.70000328421591
 30
0.0
 11
139.200004786253
 21
95.70000328421591
 31
0.0
  0
LINE
  5
43A
330
1F
100
AcDbEntity
  8
22
  6
Continuous
 62
     4
370
    25
100
AcDbLine
 10
68.20000372827053
 20
27.20000226348639
 30
0.0
 11
67.20000371336937
 21
27.20000226348639
 31
0.0
  0
LINE
  5
43B
330
1F
100
AcDbEntity
  8
22
  6
Continuous
 62
     4
370
    25
100
AcDbLine
 10
67.20000371336937
 20
27.20000226348639
 30
0.0
 11
67.20000371336937
 21
24.70000222623348
 31
0.0
  0
LINE
  5
43C
330
1F
100
AcDbEntity
  8
22
  6
Continuous
 62
     4
370
    25
100
AcDbLine
 10
67.20000371336937
 20
24.70000222623348
 30
0.0
 11
81.20000392198563
 21
24.70000222623348
 31
0.0
  0
LINE
  5
43D
330
1F
100
AcDbEntity
  8
22
  6
Continuous
 62
     4
370
    25
100
AcDbLine
 10
81.20000392198563
 20
24.70000222623348
 30
0.0
 11
81.20000392198563
 21
27.20000226348639
 31
0.0
  0
LINE
  5
43E
330
1F
100
AcDbEntity
  8
22
  6
Continuous
 62
     4
370
    25
100
AcDbLine
 10
81.20000392198563
 20
27.20000226348639
 30
0.0
 11
80.20000390708447
 21
27.20000226348639
 31
0.0
  0
LINE
  5
43F
330
1F
100
AcDbEntity
  8
22
  6
Continuous
 62
     4
370
    25
100
AcDbLine
 10
79.2000038921833
 20
17.20000211447477
 30
0.0
 11
93.20000410079956
 21
17.20000211447477
 31
0.0
  0
LINE
  5
440
330
1F
100
AcDbEntity
  8
22
  6
Continuous
 62
     4
370
    25
100
AcDbLine
 10
98.70000418275595
 20
17.20000211447477
 30
0.0
 11
127.7000046148896
 21
17.20000211447477
 31
0.0
  0
LINE
  5
441
330
1F
100
AcDbEntity
  8
22
  6
Continuous
 62
     4
370
    25
100
AcDbLine
 10
82.20000393688679
 20
-59.29999902546405
 30
0.0
 11
130.2000046521425
 21
-59.29999902546405
 31
0.0
  0
LINE
  5
442
330
1F
100
AcDbEntity
  8
22
  6
Continuous
 62
     4
370
    25
100
AcDbLine
 10
-182.0
 20
-128.5
 30
0.0
 11
-178.9999999552965
 21
-128.5
 31
0.0
  0
LINE
  5
443
330
1F
100
AcDbEntity
  8
22
  6
Continuous
 62
     4
370
    25
100
AcDbLine
 10
-178.9999999552965
 20
-128.5
 30
0.0
 11
-178.9999999552965
 21
-125.4999999552965
 31
0.0
  0
LINE
  5
444
330
1F
100
AcDbEntity
  8
22
  6
Continuous
 62
     4
370
    25
100
AcDbLine
 10
-178.9999999552965
 20
-125.4999999552965
 30
0.0
 11
-182.0
 21
-125.4999999552965
 31
0.0
  0
LINE
  5
445
330
1F
100
AcDbEntity
  8
22
  6
Continuous
 62
     4
370
    25
100
AcDbLine
 10
-182.0
 20
-125.4999999552965
 30
0.0
 11
-182.0
 21
-128.5
 31
0.0
  0
LINE
  5
446
330
1F
100
AcDbEntity
  8
22
  6
Continuous
 62
     4
370
    25
100
AcDbLine
 10
-182.0
 20
-128.5
 30
0.0
 11
-178.9999999552965
 21
-128.5
 31
0.0
  0
LINE
  5
447
330
1F
100
AcDbEntity
  8
22
  6
Continuous
 62
     4
370
    25
100
AcDbLine
 10
-178.9999999552965
 20
-128.5
 30
0.0
 11
-178.9999999552965
 21
-125.4999999552965
 31
0.0
  0
LINE
  5
448
330
1F
100
AcDbEntity
  8
22
  6
Continuous
 62
     4
370
    25
100
AcDbLine
 10
-178.9999999552965
 20
-125.4999999552965
 30
0.0
 11
-182.0
 21
-125.4999999552965
 31
0.0
  0
LINE
  5
449
330
1F
100
AcDbEntity
  8
22
  6
Continuous
 62
     4
370
    25
100
AcDbLine
 10
-182.0
 20
-125.4999999552965
 30
0.0
 11
-182.0
 21
-128.5
 31
0.0
  0
LINE
  5
44A
330
1F
100
AcDbEntity
  8
22
  6
Continuous
 62
     4
370
    25
100
AcDbLine
 10
-182.0
 20
-128.5
 30
0.0
 11
-178.9999999552965
 21
-128.5
 31
0.0
  0
LINE
  5
44B
330
1F
100
AcDbEntity
  8
22
  6
Continuous
 62
     4
370
    25
100
AcDbLine
 10
-178.9999999552965
 20
-128.5
 30
0.0
 11
-178.9999999552965
 21
-125.4999999552965
 31
0.0
  0
LINE
  5
44C
330
1F
100
AcDbEntity
  8
22
  6
Continuous
 62
     4
370
    25
100
AcDbLine
 10
-178.9999999552965
 20
-125.4999999552965
 30
0.0
 11
-182.0
 21
-125.4999999552965
 31
0.0
  0
LINE
  5
44D
330
1F
100
AcDbEntity
  8
22
  6
Continuous
 62
     4
370
    25
100
AcDbLine
 10
-182.0
 20
-125.4999999552965
 30
0.0
 11
-182.0
 21
-128.5
 31
0.0
  0
ARC
  5
44E
330
1F
100
AcDbEntity
  8
22
  6
Continuous
 62
     4
370
    25
100
AcDbCircle
 10
59.20000359416008
 20
102.700003388524
 30
0.0
 40
5.000000074505806
100
AcDbArc
 50
270.0000000000006
 51
0.0000000000008142
  0
LINE
  5
44F
330
1F
100
AcDbEntity
  8
22
  6
Continuous
 62
     4
370
    25
100
AcDbLine
 10
59.20000522813459
 20
97.7000033140185
 30
0.0
 11
59.20000359416008
 21
-57.29999899566172
 31
0.0
  0
ARC
  5
450
330
1F
100
AcDbEntity
  8
22
  6
Continuous
 62
     4
370
    25
100
AcDbCircle
 10
59.20000196018556
 20
-62.29999907016727
 30
0.0
 40
5.000000074505806
100
AcDbArc
 50
0.0
 51
90.0000000000002
  0
LINE
  5
451
330
1F
100
AcDbEntity
  8
22
  6
Continuous
 62
     4
370
    25
100
AcDbLine
 10
64.20000203469138
 20
-62.29999907016727
 30
0.0
 11
164.200005158782
 21
-62.29999907016754
 31
0.0
  0
ARC
  5
452
330
1F
100
AcDbEntity
  8
22
  6
Continuous
 62
     4
370
    25
100
AcDbCircle
 10
169.2000052332867
 20
-62.30000233811655
 30
0.0
 40
5.000000074505806
100
AcDbArc
 50
90.0000000000002
 51
180.0000000000004
  0
LINE
  5
453
330
1F
100
AcDbEntity
  8
22
  6
Continuous
 62
     4
370
    25
100
AcDbLine
 10
169.2000068672612
 20
-57.30000226361101
 30
0.0
 11
169.2000052332878
 21
97.70000331401823
 31
0.0
  0
ARC
  5
454
330
1F
100
AcDbEntity
  8
22
  6
Continuous
 62
     4
370
    25
100
AcDbCircle
 10
169.2000101352113
 20
102.7000033885216
 30
0.0
 40
5.000000074505806
100
AcDbArc
 50
180.0000000000004
 51
270.0000000000006
  0
LINE
  5
455
330
1F
100
AcDbEntity
  8
22
  6
Continuous
 62
     4
370
    25
100
AcDbLine
 10
164.2000100607066
 20
102.7000066564706
 30
0.0
 11
64.20000366866589
 21
102.700003388524
 31
0.0
  0
LINE
  5
456
330
1F
100
AcDbEntity
  8
22
  6
Continuous
 62
     4
370
    25
100
AcDbLine
 10
-121.2999991978208
 20
33.10000073959418
 30
0.0
 11
-120.9999991933505
 21
34.56000079949685
 31
0.0
  0
LINE
  5
457
330
1F
100
AcDbEntity
  8
22
  6
Continuous
 62
     4
370
    25
100
AcDbLine
 10
-121.2999991978208
 20
33.10000073959418
 30
0.0
 11
-120.2999991829197
 21
34.20000075598546
 31
0.0
  0
LINE
  5
458
330
1F
100
AcDbEntity
  8
22
  6
Continuous
 62
     4
370
    25
100
AcDbLine
 10
-121.2999991978208
 20
33.10000073959418
 30
0.0
 11
-95.008299587294
 21
85.68330230439642
 31
0.0
  0
LINE
  5
459
330
1F
100
AcDbEntity
  8
22
  6
Continuous
 62
     4
370
    25
100
AcDbLine
 10
-95.008299587294
 20
85.68330230439642
 30
0.0
 11
-49.0082989018406
 21
85.68330230439642
 31
0.0
  0
LINE
  5
45A
330
1F
100
AcDbEntity
  8
22
  6
Continuous
 62
     4
370
    25
100
AcDbLine
 10
-111.341665567706
 20
41.4333343212802
 30
0.0
 11
-111.0416655632357
 21
42.89333438118287
 31
0.0
  0
LINE
  5
45B
330
1F
100
AcDbEntity
  8
22
  6
Continuous
 62
     4
370
    25
100
AcDbLine
 10
-111.341665567706
 20
41.4333343212802
 30
0.0
 11
-110.3416655528049
 21
42.53333433767148
 31
0.0
  0
LINE
  5
45C
330
1F
100
AcDbEntity
  8
22
  6
Continuous
 62
     4
370
    25
100
AcDbLine
 10
-111.341665567706
 20
41.4333343212802
 30
0.0
 11
-91.29996452443254
 21
81.51663569981793
 31
0.0
  0
LINE
  5
45D
330
1F
100
AcDbEntity
  8
22
  6
Continuous
 62
     4
370
    25
100
AcDbLine
 10
-91.29996452443254
 20
81.51663569981793
 30
0.0
 11
-47.29996386878145
 21
81.51663569981793
 31
0.0
  0
LINE
  5
45E
330
1F
100
AcDbEntity
  8
22
  6
Continuous
 62
     4
370
    25
100
AcDbLine
 10
-97.39166311745839
 20
57.51666813393422
 30
0.0
 11
-97.09166311298804
 21
58.97666819383689
 31
0.0
  0
LINE
  5
45F
330
1F
100
AcDbEntity
  8
22
  6
Continuous
 62
     4
370
    25
100
AcDbLine
 10
-97.39166311745839
 20
57.51666813393422
 30
0.0
 11
-96.39166310255723
 21
58.61666815032548
 31
0.0
  0
LINE
  5
460
330
1F
100
AcDbEntity
  8
22
  6
Continuous
 62
     4
370
    25
100
AcDbLine
 10
-97.39166311745839
 20
57.51666813393422
 30
0.0
 11
-87.76666297403472
 21
76.76666842078157
 31
0.0
  0
LINE
  5
461
330
1F
100
AcDbEntity
  8
22
  6
Continuous
 62
     4
370
    25
100
AcDbLine
 10
-87.76666297403472
 20
76.76666842078157
 30
0.0
 11
-45.76666234818595
 21
76.76666842078157
 31
0.0
  0
LINE
  5
462
330
1F
100
AcDbEntity
  8
22
  6
Continuous
 62
     4
370
    25
100
AcDbLine
 10
-127.6333327199022
 20
59.433334857722
 30
0.0
 11
-127.6333327199022
 21
71.43333503653594
 31
0.0
  0
LINE
  5
463
330
1F
100
AcDbEntity
  8
22
  6
Continuous
 62
     4
370
    25
100
AcDbLine
 10
-127.6333327199022
 20
70.43333502163478
 30
0.0
 11
-129.133332742254
 21
70.83333502759524
 31
0.0
  0
LINE
  5
464
330
1F
100
AcDbEntity
  8
22
  6
Continuous
 62
     4
370
    25
100
AcDbLine
 10
-129.133332742254
 20
70.03333501567431
 30
0.0
 11
-127.6333327199022
 21
70.43333502163478
 31
0.0
  0
LINE
  5
465
330
1F
100
AcDbEntity
  8
22
  6
Continuous
 62
     4
370
    25
100
AcDbLine
 10
-134.6333328242103
 20
70.43333502163478
 30
0.0
 11
-127.6333327199022
 21
70.43333502163478
 31
0.0
  0
LINE
  5
466
330
1F
100
AcDbEntity
  8
22
  6
Continuous
 62
     4
370
    25
100
AcDbLine
 10
-127.6333327199022
 20
70.43333502163478
 30
0.0
 11
-121.3000024711093
 21
70.43333502163478
 31
0.0
  0
LINE
  5
467
330
1F
100
AcDbEntity
  8
22
  6
Continuous
 62
     4
370
    25
100
AcDbLine
 10
-121.3000024711093
 20
70.43333502163478
 30
0.0
 11
-119.8000024487576
 21
70.83333502759524
 31
0.0
  0
LINE
  5
468
330
1F
100
AcDbEntity
  8
22
  6
Continuous
 62
     4
370
    25
100
AcDbLine
 10
-119.8000024487576
 20
70.03333501567431
 30
0.0
 11
-121.3000024711093
 21
70.43333502163478
 31
0.0
  0
LINE
  5
469
330
1F
100
AcDbEntity
  8
22
  6
Continuous
 62
     4
370
    25
100
AcDbLine
 10
-121.3000024711093
 20
70.43333502163478
 30
0.0
 11
-118.3000024264058
 21
70.43333502163478
 31
0.0
  0
LINE
  5
46A
330
1F
100
AcDbEntity
  8
22
  6
Continuous
 62
     4
370
    25
100
AcDbLine
 10
-121.3000024711093
 20
64.98299848486477
 30
0.0
 11
-121.3000024711093
 21
71.43333503653594
 31
0.0
  0
LINE
  5
46B
330
1F
100
AcDbEntity
  8
22
  6
Continuous
 62
     4
370
    25
100
AcDbLine
 10
-119.4666658098499
 20
64.51666834255047
 30
0.0
 11
-119.1666658053796
 21
65.97666840245314
 31
0.0
  0
LINE
  5
46C
330
1F
100
AcDbEntity
  8
22
  6
Continuous
 62
     4
370
    25
100
AcDbLine
 10
-119.4666658098499
 20
64.51666834255047
 30
0.0
 11
-118.4666657949488
 21
65.61666835894175
 31
0.0
  0
LINE
  5
46D
330
1F
100
AcDbEntity
  8
22
  6
Continuous
 62
     4
370
    25
100
AcDbLine
 10
-119.4666658098499
 20
64.51666834255047
 30
0.0
 11
-110.7583359071365
 21
81.93336934670845
 31
0.0
  0
LINE
  5
46E
330
1F
100
AcDbEntity
  8
22
  6
Continuous
 62
     4
370
    25
100
AcDbLine
 10
-122.7583360859504
 20
81.93336934670845
 30
0.0
 11
-110.7583359071365
 21
81.93336934670845
 31
0.0
  0
LINE
  5
46F
330
1F
100
AcDbEntity
  8
22
  6
Continuous
 62
     4
370
    25
100
AcDbLine
 10
-127.6333327199022
 20
-58.56666373660164
 30
0.0
 11
-129.133332742254
 21
-58.16666373064116
 31
0.0
  0
LINE
  5
470
330
1F
100
AcDbEntity
  8
22
  6
Continuous
 62
     4
370
    25
100
AcDbLine
 10
-129.133332742254
 20
-58.96666374256209
 30
0.0
 11
-127.6333327199022
 21
-58.56666373660164
 31
0.0
  0
LINE
  5
471
330
1F
100
AcDbEntity
  8
22
  6
Continuous
 62
     4
370
    25
100
AcDbLine
 10
-134.6333328242103
 20
-58.56666373660164
 30
0.0
 11
-127.6333327199022
 21
-58.56666373660164
 31
0.0
  0
LINE
  5
472
330
1F
100
AcDbEntity
  8
22
  6
Continuous
 62
     4
370
    25
100
AcDbLine
 10
-127.6333327199022
 20
-58.56666373660164
 30
0.0
 11
-124.6333326751987
 21
-58.56666373660164
 31
0.0
  0
LINE
  5
473
330
1F
100
AcDbEntity
  8
22
  6
Continuous
 62
     4
370
    25
100
AcDbLine
 10
-124.6333326304952
 20
-58.56666373660164
 30
0.0
 11
-123.1333326081435
 21
-58.16666373064116
 31
0.0
  0
LINE
  5
474
330
1F
100
AcDbEntity
  8
22
  6
Continuous
 62
     4
370
    25
100
AcDbLine
 10
-123.1333326081435
 20
-58.96666374256209
 30
0.0
 11
-124.6333326304952
 21
-58.56666373660164
 31
0.0
  0
LINE
  5
475
330
1F
100
AcDbEntity
  8
22
  6
Continuous
 62
     4
370
    25
100
AcDbLine
 10
-124.6333326304952
 20
-58.56666373660164
 30
0.0
 11
-60.96663246303752
 21
-58.56666373660164
 31
0.0
  0
LINE
  5
476
330
1F
100
AcDbEntity
  8
22
  6
Continuous
 62
     4
370
    25
100
AcDbLine
 10
-60.96663246303752
 20
-58.56666373660164
 30
0.0
 11
-62.46663248538926
 21
-58.16666373064116
 31
0.0
  0
LINE
  5
477
330
1F
100
AcDbEntity
  8
22
  6
Continuous
 62
     4
370
    25
100
AcDbLine
 10
-62.46663248538926
 20
-58.96666374256209
 30
0.0
 11
-60.96663246303752
 21
-58.56666373660164
 31
0.0
  0
LINE
  5
478
330
1F
100
AcDbEntity
  8
22
  6
Continuous
 62
     4
370
    25
100
AcDbLine
 10
-60.9666589801509
 20
-58.56666373660164
 30
0.0
 11
-57.96665893544742
 21
-58.56666373660164
 31
0.0
  0
LINE
  5
479
330
1F
100
AcDbEntity
  8
22
  6
Continuous
 62
     4
370
    25
100
AcDbLine
 10
-57.96665893544742
 20
-58.56666373660164
 30
0.0
 11
-56.46665891309568
 21
-58.16666373064116
 31
0.0
  0
LINE
  5
47A
330
1F
100
AcDbEntity
  8
22
  6
Continuous
 62
     4
370
    25
100
AcDbLine
 10
-56.46665891309568
 20
-58.96666374256209
 30
0.0
 11
-57.96665893544742
 21
-58.56666373660164
 31
0.0
  0
LINE
  5
47B
330
1F
100
AcDbEntity
  8
22
  6
Continuous
 62
     4
370
    25
100
AcDbLine
 10
-57.96665893544742
 20
-58.56666373660164
 30
0.0
 11
-50.96665883113929
 21
-58.56666373660164
 31
0.0
  0
LINE
  5
47C
330
1F
100
AcDbEntity
  8
22
  6
Continuous
 62
     4
370
    25
100
AcDbLine
 10
-127.6333327199022
 20
-51.56666363229351
 30
0.0
 11
-126.1333326975505
 21
-51.16666362633305
 31
0.0
  0
LINE
  5
47D
330
1F
100
AcDbEntity
  8
22
  6
Continuous
 62
     4
370
    25
100
AcDbLine
 10
-126.1333326975505
 20
-51.96666363825398
 30
0.0
 11
-127.6333327199022
 21
-51.56666363229351
 31
0.0
  0
LINE
  5
47E
330
1F
100
AcDbEntity
  8
22
  6
Continuous
 62
     4
370
    25
100
AcDbLine
 10
-127.6333327199022
 20
-51.56666363229351
 30
0.0
 11
-57.96663246303752
 21
-51.56666363229351
 31
0.0
  0
LINE
  5
47F
330
1F
100
AcDbEntity
  8
22
  6
Continuous
 62
     4
370
    25
100
AcDbLine
 10
-57.96663246303752
 20
-51.56666363229351
 30
0.0
 11
-59.46663248538926
 21
-51.16666362633305
 31
0.0
  0
LINE
  5
480
330
1F
100
AcDbEntity
  8
22
  6
Continuous
 62
     4
370
    25
100
AcDbLine
 10
-59.46663248538926
 20
-51.96666363825398
 30
0.0
 11
-57.96663246303752
 21
-51.56666363229351
 31
0.0
  0
LINE
  5
481
330
1F
100
AcDbEntity
  8
22
  6
Continuous
 62
     4
370
    25
100
AcDbLine
 10
-105.716665310661
 20
-57.56666372915106
 30
0.0
 11
-108.2166653479139
 21
-52.56666365464524
 31
0.0
  0
LINE
  5
482
330
1F
100
AcDbEntity
  8
22
  6
Continuous
 62
     4
370
    25
100
AcDbLine
 10
-109.2166653628151
 20
-50.56666362484293
 30
0.0
 11
-111.716665400068
 21
-45.56666355033713
 31
0.0
  0
LINE
  5
483
330
1F
100
AcDbEntity
  8
22
  6
Continuous
 62
     4
370
    25
100
AcDbLine
 10
-133.7166657278935
 20
-45.56666355033713
 30
0.0
 11
-111.716665400068
 21
-45.56666355033713
 31
0.0
  0
LINE
  5
484
330
1F
100
AcDbEntity
  8
22
  6
Continuous
 62
     4
370
    25
100
AcDbLine
 10
-16.46665765394756
 20
57.51666813393422
 30
0.0
 11
-21.46665772845336
 21
57.51666813393422
 31
0.0
  0
LINE
  5
485
330
1F
100
AcDbEntity
  8
22
  6
Continuous
 62
     4
370
    25
100
AcDbLine
 10
-20.46665771355219
 20
57.51666813393422
 30
0.0
 11
-20.86665771951267
 21
56.01666811158246
 31
0.0
  0
LINE
  5
486
330
1F
100
AcDbEntity
  8
22
  6
Continuous
 62
     4
370
    25
100
AcDbLine
 10
-20.06665770759174
 20
56.01666811158246
 30
0.0
 11
-20.46665771355219
 21
57.51666813393422
 31
0.0
  0
LINE
  5
487
330
1F
100
AcDbEntity
  8
22
  6
Continuous
 62
     4
370
    25
100
AcDbLine
 10
-20.46665771355219
 20
57.51666813393422
 30
0.0
 11
-20.46665771355219
 21
40.84996714095212
 31
0.0
  0
LINE
  5
488
330
1F
100
AcDbEntity
  8
22
  6
Continuous
 62
     4
370
    25
100
AcDbLine
 10
-20.46665771355219
 20
40.84996714095212
 30
0.0
 11
-20.86665771951267
 21
42.34996716330386
 31
0.0
  0
LINE
  5
489
330
1F
100
AcDbEntity
  8
22
  6
Continuous
 62
     4
370
    25
100
AcDbLine
 10
-20.06665770759174
 20
42.34996716330386
 30
0.0
 11
-20.46665771355219
 21
40.84996714095212
 31
0.0
  0
LINE
  5
48A
330
1F
100
AcDbEntity
  8
22
  6
Continuous
 62
     4
370
    25
100
AcDbLine
 10
-21.46665772845336
 20
40.84996714095212
 30
0.0
 11
-16.46665765394756
 21
40.84996714095212
 31
0.0
  0
LINE
  5
48B
330
1F
100
AcDbEntity
  8
22
  6
Continuous
 62
     4
370
    25
100
AcDbLine
 10
-20.46665771355219
 20
40.85000097056218
 30
0.0
 11
-20.86665771951267
 21
39.35000094821044
 31
0.0
  0
LINE
  5
48C
330
1F
100
AcDbEntity
  8
22
  6
Continuous
 62
     4
370
    25
100
AcDbLine
 10
-20.06665770759174
 20
39.35000094821044
 30
0.0
 11
-20.46665771355219
 21
40.85000097056218
 31
0.0
  0
LINE
  5
48D
330
1F
100
AcDbEntity
  8
22
  6
Continuous
 62
     4
370
    25
100
AcDbLine
 10
-20.46665771355219
 20
40.85000097056218
 30
0.0
 11
-20.46665771355219
 21
24.18329997758008
 31
0.0
  0
LINE
  5
48E
330
1F
100
AcDbEntity
  8
22
  6
Continuous
 62
     4
370
    25
100
AcDbLine
 10
-20.46665771355219
 20
24.18329997758008
 30
0.0
 11
-20.86665771951267
 21
25.68329999993182
 31
0.0
  0
LINE
  5
48F
330
1F
100
AcDbEntity
  8
22
  6
Continuous
 62
     4
370
    25
100
AcDbLine
 10
-20.06665770759174
 20
25.68329999993182
 30
0.0
 11
-20.46665771355219
 21
24.18329997758008
 31
0.0
  0
LINE
  5
490
330
1F
100
AcDbEntity
  8
22
  6
Continuous
 62
     4
370
    25
100
AcDbLine
 10
-21.46665772845336
 20
24.18329997758008
 30
0.0
 11
-16.46665765394756
 21
24.18329997758008
 31
0.0
  0
LINE
  5
491
330
1F
100
AcDbEntity
  8
22
  6
Continuous
 62
     4
370
    25
100
AcDbLine
 10
-16.46665765394756
 20
59.18333485027142
 30
0.0
 11
-28.46665783276149
 21
59.18333485027142
 31
0.0
  0
LINE
  5
492
330
1F
100
AcDbEntity
  8
22
  6
Continuous
 62
     4
370
    25
100
AcDbLine
 10
-27.46665781786033
 20
59.18333485027142
 30
0.0
 11
-27.86665782382079
 21
60.68333487262316
 31
0.0
  0
LINE
  5
493
330
1F
100
AcDbEntity
  8
22
  6
Continuous
 62
     4
370
    25
100
AcDbLine
 10
-27.06665781189987
 20
60.68333487262316
 30
0.0
 11
-27.46665781786033
 21
59.18333485027142
 31
0.0
  0
LINE
  5
494
330
1F
100
AcDbEntity
  8
22
  6
Continuous
 62
     4
370
    25
100
AcDbLine
 10
-27.46665781786033
 20
59.18333485027142
 30
0.0
 11
-27.46665781786033
 21
66.18333495457955
 31
0.0
  0
LINE
  5
495
330
1F
100
AcDbEntity
  8
22
  6
Continuous
 62
     4
370
    25
100
AcDbLine
 10
-27.46665781786033
 20
59.18333485027142
 30
0.0
 11
-27.46665781786033
 21
57.51666478912018
 31
0.0
  0
LINE
  5
496
330
1F
100
AcDbEntity
  8
22
  6
Continuous
 62
     4
370
    25
100
AcDbLine
 10
-28.46665783276149
 20
57.51666478912018
 30
0.0
 11
-16.46665765394756
 21
57.51666478912018
 31
0.0
  0
LINE
  5
497
330
1F
100
AcDbEntity
  8
22
  6
Continuous
 62
     4
370
    25
100
AcDbLine
 10
-27.86665782382079
 20
56.01666811158246
 30
0.0
 11
-27.46665781786033
 21
57.51666813393422
 31
0.0
  0
LINE
  5
498
330
1F
100
AcDbEntity
  8
22
  6
Continuous
 62
     4
370
    25
100
AcDbLine
 10
-27.06665781189987
 20
56.01666811158246
 30
0.0
 11
-27.46665781786033
 21
57.51666813393422
 31
0.0
  0
LINE
  5
499
330
1F
100
AcDbEntity
  8
22
  6
Continuous
 62
     4
370
    25
100
AcDbLine
 10
-27.46665781786033
 20
-25.81663388907873
 30
0.0
 11
-27.46665781786033
 21
57.51666813393422
 31
0.0
  0
LINE
  5
49A
330
1F
100
AcDbEntity
  8
22
  6
Continuous
 62
     4
370
    25
100
AcDbLine
 10
-27.46665781786033
 20
-25.81663388907873
 30
0.0
 11
-27.86665782382079
 21
-24.31663386672699
 31
0.0
  0
LINE
  5
49B
330
1F
100
AcDbEntity
  8
22
  6
Continuous
 62
     4
370
    25
100
AcDbLine
 10
-27.46665781786033
 20
-25.81663388907873
 30
0.0
 11
-27.06665781189987
 21
-24.31663386672699
 31
0.0
  0
LINE
  5
49C
330
1F
100
AcDbEntity
  8
22
  6
Continuous
 62
     4
370
    25
100
AcDbLine
 10
-28.46665783276149
 20
-25.81663388907873
 30
0.0
 11
-16.46665765394756
 21
-25.81663388907873
 31
0.0
  0
LINE
  5
49D
330
1F
100
AcDbEntity
  8
22
  6
Continuous
 62
     4
370
    25
100
AcDbLine
 10
-27.46665781786033
 20
-27.48333774407722
 30
0.0
 11
-27.46665781786033
 21
-25.81666768292598
 31
0.0
  0
LINE
  5
49E
330
1F
100
AcDbEntity
  8
22
  6
Continuous
 62
     4
370
    25
100
AcDbLine
 10
-27.86665782382079
 20
-28.98333776642896
 30
0.0
 11
-27.46665781786033
 21
-27.48333774407722
 31
0.0
  0
LINE
  5
49F
330
1F
100
AcDbEntity
  8
22
  6
Continuous
 62
     4
370
    25
100
AcDbLine
 10
-27.06665781189987
 20
-28.98333776642896
 30
0.0
 11
-27.46665781786033
 21
-27.48333774407722
 31
0.0
  0
LINE
  5
4A0
330
1F
100
AcDbEntity
  8
22
  6
Continuous
 62
     4
370
    25
100
AcDbLine
 10
-27.46665781786033
 20
-34.48333784838535
 30
0.0
 11
-27.46665781786033
 21
-27.48333774407722
 31
0.0
  0
LINE
  5
4A1
330
1F
100
AcDbEntity
  8
22
  6
Continuous
 62
     4
370
    25
100
AcDbLine
 10
-28.46665783276149
 20
-27.48333774407722
 30
0.0
 11
-16.46665765394756
 21
-27.48333774407722
 31
0.0
  0
LINE
  5
4A2
330
1F
100
AcDbEntity
  8
22
  6
Continuous
 62
     4
370
    25
100
AcDbLine
 10
-35.46665793706962
 20
59.18333485027142
 30
0.0
 11
-16.46665765394756
 21
59.18333485027142
 31
0.0
  0
LINE
  5
4A3
330
1F
100
AcDbEntity
  8
22
  6
Continuous
 62
     4
370
    25
100
AcDbLine
 10
-34.86665792812892
 20
57.68333482791968
 30
0.0
 11
-34.46665792216846
 21
59.18333485027142
 31
0.0
  0
LINE
  5
4A4
330
1F
100
AcDbEntity
  8
22
  6
Continuous
 62
     4
370
    25
100
AcDbLine
 10
-34.06665791620799
 20
57.68333482791968
 30
0.0
 11
-34.46665792216846
 21
59.18333485027142
 31
0.0
  0
LINE
  5
4A5
330
1F
100
AcDbEntity
  8
22
  6
Continuous
 62
     4
370
    25
100
AcDbLine
 10
-34.46665792216846
 20
-27.48336565991303
 30
0.0
 11
-34.46665792216846
 21
59.18333485027142
 31
0.0
  0
LINE
  5
4A6
330
1F
100
AcDbEntity
  8
22
  6
Continuous
 62
     4
370
    25
100
AcDbLine
 10
-34.46665792216846
 20
-27.48336565991303
 30
0.0
 11
-34.86665792812892
 21
-25.98336563756128
 31
0.0
  0
LINE
  5
4A7
330
1F
100
AcDbEntity
  8
22
  6
Continuous
 62
     4
370
    25
100
AcDbLine
 10
-34.46665792216846
 20
-27.48336565991303
 30
0.0
 11
-34.06665791620799
 21
-25.98336563756128
 31
0.0
  0
LINE
  5
4A8
330
1F
100
AcDbEntity
  8
22
  6
Continuous
 62
     4
370
    25
100
AcDbLine
 10
-35.46665793706962
 20
-27.48336565991303
 30
0.0
 11
-16.46665765394756
 21
-27.48336565991303
 31
0.0
  0
LINE
  5
4A9
330
1F
100
AcDbEntity
  8
22
  6
Continuous
 62
     4
370
    25
100
AcDbLine
 10
-8.633324087162697
 20
59.18333485027142
 30
0.0
 11
14.06667625109366
 21
59.18333485027142
 31
0.0
  0
LINE
  5
4AA
330
1F
100
AcDbEntity
  8
22
  6
Continuous
 62
     4
370
    25
100
AcDbLine
 10
12.66667623023203
 20
57.68333482791968
 30
0.0
 11
13.0666762361925
 21
59.18333485027142
 31
0.0
  0
LINE
  5
4AB
330
1F
100
AcDbEntity
  8
22
  6
Continuous
 62
     4
370
    25
100
AcDbLine
 10
13.46667624215296
 20
57.68333482791968
 30
0.0
 11
13.0666762361925
 21
59.18333485027142
 31
0.0
  0
LINE
  5
4AC
330
1F
100
AcDbEntity
  8
22
  6
Continuous
 62
     4
370
    25
100
AcDbLine
 10
13.0666762361925
 20
49.18333470125981
 30
0.0
 11
13.0666762361925
 21
59.18333485027142
 31
0.0
  0
LINE
  5
4AD
330
1F
100
AcDbEntity
  8
22
  6
Continuous
 62
     4
370
    25
100
AcDbLine
 10
13.0666762361925
 20
49.18333470125981
 30
0.0
 11
12.66667623023203
 21
50.68333472361155
 31
0.0
  0
LINE
  5
4AE
330
1F
100
AcDbEntity
  8
22
  6
Continuous
 62
     4
370
    25
100
AcDbLine
 10
13.0666762361925
 20
49.18333470125981
 30
0.0
 11
13.46667624215296
 21
50.68333472361155
 31
0.0
  0
LINE
  5
4AF
330
1F
100
AcDbEntity
  8
22
  6
Continuous
 62
     4
370
    25
100
AcDbLine
 10
-8.633324087162697
 20
49.18333470125981
 30
0.0
 11
14.06667625109366
 21
49.18333470125981
 31
0.0
  0
LINE
  5
4B0
330
1F
100
AcDbEntity
  8
22
  6
Continuous
 62
     4
370
    25
100
AcDbLine
 10
12.66667623023203
 20
47.68333452989646
 30
0.0
 11
13.0666762361925
 21
49.1833345522482
 31
0.0
  0
LINE
  5
4B1
330
1F
100
AcDbEntity
  8
22
  6
Continuous
 62
     4
370
    25
100
AcDbLine
 10
13.46667624215296
 20
47.68333452989646
 30
0.0
 11
13.0666762361925
 21
49.1833345522482
 31
0.0
  0
LINE
  5
4B2
330
1F
100
AcDbEntity
  8
22
  6
Continuous
 62
     4
370
    25
100
AcDbLine
 10
13.0666762361925
 20
-17.48336565991303
 30
0.0
 11
13.0666762361925
 21
49.1833345522482
 31
0.0
  0
LINE
  5
4B3
330
1F
100
AcDbEntity
  8
22
  6
Continuous
 62
     4
370
    25
100
AcDbLine
 10
13.0666762361925
 20
-17.48336565991303
 30
0.0
 11
12.66667623023203
 21
-15.98336563756129
 31
0.0
  0
LINE
  5
4B4
330
1F
100
AcDbEntity
  8
22
  6
Continuous
 62
     4
370
    25
100
AcDbLine
 10
13.0666762361925
 20
-17.48336565991303
 30
0.0
 11
13.46667624215296
 21
-15.98336563756129
 31
0.0
  0
LINE
  5
4B5
330
1F
100
AcDbEntity
  8
22
  6
Continuous
 62
     4
370
    25
100
AcDbLine
 10
-8.633324087162697
 20
-17.48336565991303
 30
0.0
 11
14.06667625109366
 21
-17.48336565991303
 31
0.0
  0
LINE
  5
4B6
330
1F
100
AcDbEntity
  8
22
  6
Continuous
 62
     4
370
    25
100
AcDbLine
 10
12.66667623023203
 20
-18.9833341235917
 30
0.0
 11
13.0666762361925
 21
-17.48333410123996
 31
0.0
  0
LINE
  5
4B7
330
1F
100
AcDbEntity
  8
22
  6
Continuous
 62
     4
370
    25
100
AcDbLine
 10
13.46667624215296
 20
-18.9833341235917
 30
0.0
 11
13.0666762361925
 21
-17.48333410123996
 31
0.0
  0
LINE
  5
4B8
330
1F
100
AcDbEntity
  8
22
  6
Continuous
 62
     4
370
    25
100
AcDbLine
 10
13.0666762361925
 20
-27.48333425025157
 30
0.0
 11
13.0666762361925
 21
-17.48333410123996
 31
0.0
  0
LINE
  5
4B9
330
1F
100
AcDbEntity
  8
22
  6
Continuous
 62
     4
370
    25
100
AcDbLine
 10
13.0666762361925
 20
-27.48333425025157
 30
0.0
 11
12.66667623023203
 21
-25.98333422789983
 31
0.0
  0
LINE
  5
4BA
330
1F
100
AcDbEntity
  8
22
  6
Continuous
 62
     4
370
    25
100
AcDbLine
 10
13.0666762361925
 20
-27.48333425025157
 30
0.0
 11
13.46667624215296
 21
-25.98333422789983
 31
0.0
  0
LINE
  5
4BB
330
1F
100
AcDbEntity
  8
22
  6
Continuous
 62
     4
370
    25
100
AcDbLine
 10
-8.633324087162697
 20
-27.48333425025157
 30
0.0
 11
14.06667625109366
 21
-27.48333425025157
 31
0.0
  0
LINE
  5
4BC
330
1F
100
AcDbEntity
  8
22
  6
Continuous
 62
     4
370
    25
100
AcDbLine
 10
7.200009718040739
 20
68.8500018050272
 30
0.0
 11
7.500009722511088
 21
70.31000186492987
 31
0.0
  0
LINE
  5
4BD
330
1F
100
AcDbEntity
  8
22
  6
Continuous
 62
     4
370
    25
100
AcDbLine
 10
7.200009718040739
 20
68.8500018050272
 30
0.0
 11
8.2000097329419
 21
69.95000182141848
 31
0.0
  0
LINE
  5
4BE
330
1F
100
AcDbEntity
  8
22
  6
Continuous
 62
     4
370
    25
100
AcDbLine
 10
7.200009718040739
 20
68.8500018050272
 30
0.0
 11
12.36667964061117
 21
79.18330197731592
 31
0.0
  0
LINE
  5
4BF
330
1F
100
AcDbEntity
  8
22
  6
Continuous
 62
     4
370
    25
100
AcDbLine
 10
-3.633320597807405
 20
79.18330197731592
 30
0.0
 11
12.36667964061117
 21
79.18330197731592
 31
0.0
  0
LINE
  5
4C0
330
1F
100
AcDbEntity
  8
22
  6
Continuous
 62
     4
370
    25
100
AcDbLine
 10
-15.9666576390464
 20
-43.98333465258293
 30
0.0
 11
-15.9666576390464
 21
-27.98333441416435
 31
0.0
  0
LINE
  5
4C1
330
1F
100
AcDbEntity
  8
22
  6
Continuous
 62
     4
370
    25
100
AcDbLine
 10
-15.9666576390464
 20
-42.98333463768175
 30
0.0
 11
-17.46665766139814
 21
-42.5833346317213
 31
0.0
  0
LINE
  5
4C2
330
1F
100
AcDbEntity
  8
22
  6
Continuous
 62
     4
370
    25
100
AcDbLine
 10
-17.46665766139814
 20
-43.38333464364223
 30
0.0
 11
-15.9666576390464
 21
-42.98333463768175
 31
0.0
  0
LINE
  5
4C3
330
1F
100
AcDbEntity
  8
22
  6
Continuous
 62
     4
370
    25
100
AcDbLine
 10
-22.96665774335452
 20
-42.98333463768175
 30
0.0
 11
-15.9666576390464
 21
-42.98333463768175
 31
0.0
  0
LINE
  5
4C4
330
1F
100
AcDbEntity
  8
22
  6
Continuous
 62
     4
370
    25
100
AcDbLine
 10
-15.9666576390464
 20
-42.98333463768175
 30
0.0
 11
-10.63332740515464
 21
-42.98333463768175
 31
0.0
  0
LINE
  5
4C5
330
1F
100
AcDbEntity
  8
22
  6
Continuous
 62
     4
370
    25
100
AcDbLine
 10
-10.63332740515464
 20
-42.98333463768175
 30
0.0
 11
-9.133327382802896
 21
-42.5833346317213
 31
0.0
  0
LINE
  5
4C6
330
1F
100
AcDbEntity
  8
22
  6
Continuous
 62
     4
370
    25
100
AcDbLine
 10
-9.133327382802896
 20
-43.38333464364223
 30
0.0
 11
-10.63332740515464
 21
-42.98333463768175
 31
0.0
  0
LINE
  5
4C7
330
1F
100
AcDbEntity
  8
22
  6
Continuous
 62
     4
370
    25
100
AcDbLine
 10
-10.63332740515464
 20
-42.98333463768175
 30
0.0
 11
-7.633327360451155
 21
-42.98333463768175
 31
0.0
  0
LINE
  5
4C8
330
1F
100
AcDbEntity
  8
22
  6
Continuous
 62
     4
370
    25
100
AcDbLine
 10
-10.63332740515464
 20
-43.98333465258293
 30
0.0
 11
-10.63332740515464
 21
-29.71669775048939
 31
0.0
  0
LINE
  5
4C9
330
1F
100
AcDbEntity
  8
22
  6
Continuous
 62
     4
370
    25
100
AcDbLine
 10
-15.9666576390464
 20
-50.98333475689104
 30
0.0
 11
-15.9666576390464
 21
-27.98333441416435
 31
0.0
  0
LINE
  5
4CA
330
1F
100
AcDbEntity
  8
22
  6
Continuous
 62
     4
370
    25
100
AcDbLine
 10
-15.9666576390464
 20
-49.98333474198989
 30
0.0
 11
-17.46665766139814
 21
-49.58333473602943
 31
0.0
  0
LINE
  5
4CB
330
1F
100
AcDbEntity
  8
22
  6
Continuous
 62
     4
370
    25
100
AcDbLine
 10
-17.46665766139814
 20
-50.38333474795036
 30
0.0
 11
-15.9666576390464
 21
-49.98333474198989
 31
0.0
  0
LINE
  5
4CC
330
1F
100
AcDbEntity
  8
22
  6
Continuous
 62
     4
370
    25
100
AcDbLine
 10
-22.96665774335452
 20
-49.98333474198989
 30
0.0
 11
-15.9666576390464
 21
-49.98333474198989
 31
0.0
  0
LINE
  5
4CD
330
1F
100
AcDbEntity
  8
22
  6
Continuous
 62
     4
370
    25
100
AcDbLine
 10
-15.9666576390464
 20
-49.98333474198989
 30
0.0
 11
-9.633327390253477
 21
-49.98333474198989
 31
0.0
  0
LINE
  5
4CE
330
1F
100
AcDbEntity
  8
22
  6
Continuous
 62
     4
370
    25
100
AcDbLine
 10
-9.633327390253477
 20
-49.98333474198989
 30
0.0
 11
-8.133327367901735
 21
-49.58333473602943
 31
0.0
  0
LINE
  5
4CF
330
1F
100
AcDbEntity
  8
22
  6
Continuous
 62
     4
370
    25
100
AcDbLine
 10
-8.133327367901735
 20
-50.38333474795036
 30
0.0
 11
-9.633327390253477
 21
-49.98333474198989
 31
0.0
  0
LINE
  5
4D0
330
1F
100
AcDbEntity
  8
22
  6
Continuous
 62
     4
370
    25
100
AcDbLine
 10
-9.633327390253477
 20
-49.98333474198989
 30
0.0
 11
-6.633327345549992
 21
-49.98333474198989
 31
0.0
  0
LINE
  5
4D1
330
1F
100
AcDbEntity
  8
22
  6
Continuous
 62
     4
370
    25
100
AcDbLine
 10
-9.633327390253477
 20
-50.98333475689104
 30
0.0
 11
-9.633327390253477
 21
-43.98329952557833
 31
0.0
  0
LINE
  5
4D2
330
1F
100
AcDbEntity
  8
22
  6
Continuous
 62
     4
370
    25
100
AcDbLine
 10
-9.633327390253477
 20
-41.98329949577601
 30
0.0
 11
-9.633327390253477
 21
-29.71669775048939
 31
0.0
  0
LINE
  5
4D3
330
1F
100
AcDbEntity
  8
22
  6
Continuous
 62
     4
370
    25
100
AcDbLine
 10
-15.9666576390464
 20
59.68333486517258
 30
0.0
 11
-15.9666576390464
 21
70.68333502908536
 31
0.0
  0
LINE
  5
4D4
330
1F
100
AcDbEntity
  8
22
  6
Continuous
 62
     4
370
    25
100
AcDbLine
 10
-15.9666576390464
 20
69.6833350141842
 30
0.0
 11
-17.46665766139814
 21
70.08333502014466
 31
0.0
  0
LINE
  5
4D5
330
1F
100
AcDbEntity
  8
22
  6
Continuous
 62
     4
370
    25
100
AcDbLine
 10
-17.46665766139814
 20
69.28333500822373
 30
0.0
 11
-15.9666576390464
 21
69.6833350141842
 31
0.0
  0
LINE
  5
4D6
330
1F
100
AcDbEntity
  8
22
  6
Continuous
 62
     4
370
    25
100
AcDbLine
 10
-22.96665774335452
 20
69.6833350141842
 30
0.0
 11
-15.9666576390464
 21
69.6833350141842
 31
0.0
  0
LINE
  5
4D7
330
1F
100
AcDbEntity
  8
22
  6
Continuous
 62
     4
370
    25
100
AcDbLine
 10
-15.9666576390464
 20
69.6833350141842
 30
0.0
 11
-13.13332763314241
 21
69.6833350141842
 31
0.0
  0
LINE
  5
4D8
330
1F
100
AcDbEntity
  8
22
  6
Continuous
 62
     4
370
    25
100
AcDbLine
 10
-13.13332763314241
 20
69.6833350141842
 30
0.0
 11
-11.63332761079067
 21
70.08333502014466
 31
0.0
  0
LINE
  5
4D9
330
1F
100
AcDbEntity
  8
22
  6
Continuous
 62
     4
370
    25
100
AcDbLine
 10
-11.63332761079067
 20
69.28333500822373
 30
0.0
 11
-13.13332763314241
 21
69.6833350141842
 31
0.0
  0
LINE
  5
4DA
330
1F
100
AcDbEntity
  8
22
  6
Continuous
 62
     4
370
    25
100
AcDbLine
 10
-13.13332763314241
 20
69.6833350141842
 30
0.0
 11
-10.13332758843892
 21
69.6833350141842
 31
0.0
  0
LINE
  5
4DB
330
1F
100
AcDbEntity
  8
22
  6
Continuous
 62
     4
370
    25
100
AcDbLine
 10
-13.13332763314241
 20
64.98299848486477
 30
0.0
 11
-13.13332763314241
 21
70.68333502908536
 31
0.0
  0
LINE
  5
4DC
330
1F
100
AcDbEntity
  8
22
  6
Continuous
 62
     4
370
    25
100
AcDbLine
 10
-17.76665766586849
 20
-28.78333441863469
 30
0.0
 11
-16.46665764649698
 21
-27.98333440671377
 31
0.0
  0
LINE
  5
4DD
330
1F
100
AcDbEntity
  8
22
  6
Continuous
 62
     4
370
    25
100
AcDbLine
 10
-17.26665765841791
 20
-29.28333442608528
 30
0.0
 11
-16.46665764649698
 21
-27.98333440671377
 31
0.0
  0
LINE
  5
4DE
330
1F
100
AcDbEntity
  8
22
  6
Continuous
 62
     4
370
    25
100
AcDbLine
 10
-31.46665787001439
 20
-42.98333463023117
 30
0.0
 11
-16.46665764649698
 21
-27.98333440671377
 31
0.0
  0
LINE
  5
4DF
330
1F
100
AcDbEntity
  8
22
  6
Continuous
 62
     4
370
    25
100
AcDbLine
 10
-51.46665816803762
 20
-42.98333463023117
 30
0.0
 11
-31.46665787001439
 21
-42.98333463023117
 31
0.0
  0
LINE
  5
4E0
330
1F
100
AcDbEntity
  8
22
  6
Continuous
 62
     4
370
    25
100
AcDbLine
 10
-95.0666660999259
 20
-69.56666390051441
 30
0.0
 11
-95.0666660999259
 21
-64.56666382600861
 31
0.0
  0
LINE
  5
4E1
330
1F
100
AcDbEntity
  8
22
  6
Continuous
 62
     4
370
    25
100
AcDbLine
 10
-95.0666660999259
 20
-65.56666384090977
 30
0.0
 11
-96.56666612227764
 21
-65.1666638349493
 31
0.0
  0
LINE
  5
4E2
330
1F
100
AcDbEntity
  8
22
  6
Continuous
 62
     4
370
    25
100
AcDbLine
 10
-96.56666612227764
 20
-65.96666384687023
 30
0.0
 11
-95.0666660999259
 21
-65.56666384090977
 31
0.0
  0
LINE
  5
4E3
330
1F
100
AcDbEntity
  8
22
  6
Continuous
 62
     4
370
    25
100
AcDbLine
 10
-95.0666660999259
 20
-65.56666384090977
 30
0.0
 11
-98.06666614462938
 21
-65.56666384090977
 31
0.0
  0
LINE
  5
4E4
330
1F
100
AcDbEntity
  8
22
  6
Continuous
 62
     4
370
    25
100
AcDbLine
 10
-95.0666660999259
 20
-65.56666384090977
 30
0.0
 11
-90.4166660306355
 21
-65.56666384090977
 31
0.0
  0
LINE
  5
4E5
330
1F
100
AcDbEntity
  8
22
  6
Continuous
 62
     4
370
    25
100
AcDbLine
 10
-90.4166660306355
 20
-65.56666384090977
 30
0.0
 11
-88.91666600828376
 21
-65.1666638349493
 31
0.0
  0
LINE
  5
4E6
330
1F
100
AcDbEntity
  8
22
  6
Continuous
 62
     4
370
    25
100
AcDbLine
 10
-88.91666600828376
 20
-65.96666384687023
 30
0.0
 11
-90.4166660306355
 21
-65.56666384090977
 31
0.0
  0
LINE
  5
4E7
330
1F
100
AcDbEntity
  8
22
  6
Continuous
 62
     4
370
    25
100
AcDbLine
 10
-90.4166660306355
 20
-65.56666384090977
 30
0.0
 11
-78.41666585182156
 21
-65.56666384090977
 31
0.0
  0
LINE
  5
4E8
330
1F
100
AcDbEntity
  8
22
  6
Continuous
 62
     4
370
    25
100
AcDbLine
 10
-90.4166660306355
 20
-64.56666382600861
 30
0.0
 11
-90.4166660306355
 21
-69.56666390051441
 31
0.0
  0
LINE
  5
4E9
330
1F
100
AcDbEntity
  8
22
  6
Continuous
 62
     4
370
    25
100
AcDbLine
 10
-127.6333327199022
 20
-69.56666390051441
 30
0.0
 11
-127.6333327199022
 21
-57.56666372170048
 31
0.0
  0
LINE
  5
4EA
330
1F
100
AcDbEntity
  8
22
  6
Continuous
 62
     4
370
    25
100
AcDbLine
 10
-124.6333326751987
 20
-69.56666390051441
 30
0.0
 11
-124.6333326751987
 21
-57.56666372170048
 31
0.0
  0
LINE
  5
4EB
330
1F
100
AcDbEntity
  8
22
  6
Continuous
 62
     4
370
    25
100
AcDbLine
 10
-60.96663246303752
 20
-69.56666390051441
 30
0.0
 11
-60.96663246303752
 21
-57.56666372170048
 31
0.0
  0
LINE
  5
4EC
330
1F
100
AcDbEntity
  8
22
  6
Continuous
 62
     4
370
    25
100
AcDbLine
 10
-57.96665893544742
 20
-69.56666390051441
 30
0.0
 11
-57.96665893544742
 21
-57.56666372170048
 31
0.0
  0
LINE
  5
4ED
330
1F
100
AcDbEntity
  8
22
  6
Continuous
 62
     4
370
    25
100
AcDbLine
 10
-127.6333327199022
 20
-69.56666390051441
 30
0.0
 11
-127.6333327199022
 21
-50.56666361739235
 31
0.0
  0
LINE
  5
4EE
330
1F
100
AcDbEntity
  8
22
  6
Continuous
 62
     4
370
    25
100
AcDbLine
 10
-57.96663246303752
 20
-69.56666390051441
 30
0.0
 11
-57.96663246303752
 21
-50.56666361739235
 31
0.0
  0
LINE
  5
4EF
330
1F
100
AcDbEntity
  8
22
  6
Continuous
 62
     4
370
    25
100
AcDbLine
 10
-57.46665888329336
 20
-69.56666390051441
 30
0.0
 11
-57.16665887882301
 21
-68.10666384061173
 31
0.0
  0
LINE
  5
4F0
330
1F
100
AcDbEntity
  8
22
  6
Continuous
 62
     4
370
    25
100
AcDbLine
 10
-57.46665888329336
 20
-69.56666390051441
 30
0.0
 11
-56.46665886839219
 21
-68.46666388412314
 31
0.0
  0
LINE
  5
4F1
330
1F
100
AcDbEntity
  8
22
  6
Continuous
 62
     4
370
    25
100
AcDbLine
 10
-57.46665888329336
 20
-69.56666390051441
 30
0.0
 11
-54.46665883858987
 21
-63.56666381110743
 31
0.0
  0
LINE
  5
4F2
330
1F
100
AcDbEntity
  8
22
  6
Continuous
 62
     4
370
    25
100
AcDbLine
 10
-54.46665883858987
 20
-63.56666381110743
 30
0.0
 11
-38.46665860017129
 21
-63.56666381110743
 31
0.0
  0
LINE
  5
4F3
330
1F
100
AcDbEntity
  8
22
  6
Continuous
 62
     4
370
    25
100
AcDbLine
 10
-99.71666522125406
 20
-69.566663907965
 30
0.0
 11
-100.0166652257244
 21
-68.10666384806231
 31
0.0
  0
LINE
  5
4F4
330
1F
100
AcDbEntity
  8
22
  6
Continuous
 62
     4
370
    25
100
AcDbLine
 10
-99.71666522125406
 20
-69.566663907965
 30
0.0
 11
-100.7166652361552
 21
-68.46666389157372
 31
0.0
  0
LINE
  5
4F5
330
1F
100
AcDbEntity
  8
22
  6
Continuous
 62
     4
370
    25
100
AcDbLine
 10
-99.71666522125406
 20
-69.566663907965
 30
0.0
 11
-104.7166652957599
 21
-59.56666375895338
 31
0.0
  0
LINE
  5
4F6
330
1F
100
AcDbEntity
  8
19
  6
Continuous
 62
     6
370
    25
100
AcDbLine
 10
-127.6333327199022
 20
59.18333485027142
 30
0.0
 11
-57.96666397700711
 21
59.18333485027142
 31
0.0
  0
LINE
  5
4F7
330
1F
100
AcDbEntity
  8
19
  6
Continuous
 62
     6
370
    25
100
AcDbLine
 10
-57.96666397700711
 20
-27.48333439926317
 30
0.0
 11
-57.96666397700711
 21
59.18333485027142
 31
0.0
  0
LINE
  5
4F8
330
1F
100
AcDbEntity
  8
19
  6
Continuous
 62
     6
370
    25
100
AcDbLine
 10
-127.6333327199022
 20
-27.48333439926317
 30
0.0
 11
-57.96666397700711
 21
-27.48333439926317
 31
0.0
  0
LINE
  5
4F9
330
1F
100
AcDbEntity
  8
19
  6
Continuous
 62
     6
370
    25
100
AcDbLine
 10
-127.6333327199022
 20
-27.48333439926317
 30
0.0
 11
-127.6333327199022
 21
59.18333485027142
 31
0.0
  0
LINE
  5
4FA
330
1F
100
AcDbEntity
  8
19
  6
Continuous
 62
     6
370
    25
100
AcDbLine
 10
-127.6333327199022
 20
58.1833348204691
 30
0.0
 11
-57.96666397700711
 21
58.1833348204691
 31
0.0
  0
LINE
  5
4FB
330
1F
100
AcDbEntity
  8
19
  6
Continuous
 62
     6
370
    25
100
AcDbLine
 10
-59.46666402171059
 20
-26.48333436946086
 30
0.0
 11
-59.46666402171059
 21
58.1833348204691
 31
0.0
  0
LINE
  5
4FC
330
1F
100
AcDbEntity
  8
19
  6
Continuous
 62
     6
370
    25
100
AcDbLine
 10
-127.6333327199022
 20
-26.48333436946086
 30
0.0
 11
-57.96666397700711
 21
-26.48333436946086
 31
0.0
  0
LINE
  5
4FD
330
1F
100
AcDbEntity
  8
19
  6
Continuous
 62
     6
370
    25
100
AcDbLine
 10
-126.1333326751987
 20
-26.48333436946086
 30
0.0
 11
-126.1333326751987
 21
58.1833348204691
 31
0.0
  0
LINE
  5
4FE
330
1F
100
AcDbEntity
  8
19
  6
Continuous
 62
     6
370
    25
100
AcDbLine
 10
-126.1333326751987
 20
49.1833345522482
 30
0.0
 11
-124.6333326304952
 21
49.1833345522482
 31
0.0
  0
LINE
  5
4FF
330
1F
100
AcDbEntity
  8
19
  6
Continuous
 62
     6
370
    25
100
AcDbLine
 10
-126.1333326751987
 20
-17.48333410123996
 30
0.0
 11
-124.6333326304952
 21
-17.48333410123996
 31
0.0
  0
LINE
  5
500
330
1F
100
AcDbEntity
  8
19
  6
Continuous
 62
     6
370
    25
100
AcDbLine
 10
-60.9666589801509
 20
49.1833345522482
 30
0.0
 11
-59.46665893544742
 21
49.1833345522482
 31
0.0
  0
LINE
  5
501
330
1F
100
AcDbEntity
  8
19
  6
Continuous
 62
     6
370
    25
100
AcDbLine
 10
-60.9666589801509
 20
-17.48333410123996
 30
0.0
 11
-59.46665893544742
 21
-17.48333410123996
 31
0.0
  0
LINE
  5
502
330
1F
100
AcDbEntity
  8
19
  6
Continuous
 62
     6
370
    25
100
AcDbLine
 10
-121.2999991978208
 20
49.1833345522482
 30
0.0
 11
-119.9833335091671
 21
49.1833345522482
 31
0.0
  0
LINE
  5
503
330
1F
100
AcDbEntity
  8
19
  6
Continuous
 62
     6
370
    25
100
AcDbLine
 10
-116.6500000764927
 20
49.1833345522482
 30
0.0
 11
-115.3333333546917
 21
49.1833345522482
 31
0.0
  0
LINE
  5
504
330
1F
100
AcDbEntity
  8
19
  6
Continuous
 62
     6
370
    25
100
AcDbLine
 10
-111.9999958689013
 20
49.1833345522482
 30
0.0
 11
-110.6833291471004
 21
49.1833345522482
 31
0.0
  0
LINE
  5
505
330
1F
100
AcDbEntity
  8
19
  6
Continuous
 62
     6
370
    25
100
AcDbLine
 10
-107.3499967475732
 20
49.1833345522482
 30
0.0
 11
-106.0333300257722
 21
49.1833345522482
 31
0.0
  0
LINE
  5
506
330
1F
100
AcDbEntity
  8
19
  6
Continuous
 62
     6
370
    25
100
AcDbLine
 10
-102.699997626245
 20
49.1833345522482
 30
0.0
 11
-101.383330904444
 21
49.1833345522482
 31
0.0
  0
LINE
  5
507
330
1F
100
AcDbEntity
  8
19
  6
Continuous
 62
     6
370
    25
100
AcDbLine
 10
-98.04999850491686
 20
49.1833345522482
 30
0.0
 11
-96.73333178311589
 21
49.1833345522482
 31
0.0
  0
LINE
  5
508
330
1F
100
AcDbEntity
  8
19
  6
Continuous
 62
     6
370
    25
100
AcDbLine
 10
-93.39999938358869
 20
49.1833345522482
 30
0.0
 11
-92.08333266178774
 21
49.1833345522482
 31
0.0
  0
LINE
  5
509
330
1F
100
AcDbEntity
  8
19
  6
Continuous
 62
     6
370
    25
100
AcDbLine
 10
-88.74999517599736
 20
49.1833345522482
 30
0.0
 11
-87.4333284541964
 21
49.1833345522482
 31
0.0
  0
LINE
  5
50A
330
1F
100
AcDbEntity
  8
19
  6
Continuous
 62
     6
370
    25
100
AcDbLine
 10
-84.10000114093236
 20
49.1833345522482
 30
0.0
 11
-82.78333441913142
 21
49.1833345522482
 31
0.0
  0
LINE
  5
50B
330
1F
100
AcDbEntity
  8
19
  6
Continuous
 62
     6
370
    25
100
AcDbLine
 10
-79.44999693334103
 20
49.1833345522482
 30
0.0
 11
-78.24999486307297
 21
49.1833345522482
 31
0.0
  0
LINE
  5
50C
330
1F
100
AcDbEntity
  8
19
  6
Continuous
 62
     6
370
    25
100
AcDbLine
 10
-74.79999272574969
 20
49.1833345522482
 30
0.0
 11
-73.60000082800798
 21
49.1833345522482
 31
0.0
  0
LINE
  5
50D
330
1F
100
AcDbEntity
  8
19
  6
Continuous
 62
     6
370
    25
100
AcDbLine
 10
-70.1499986906847
 20
49.1833345522482
 30
0.0
 11
-68.94999662041664
 21
49.1833345522482
 31
0.0
  0
LINE
  5
50E
330
1F
100
AcDbEntity
  8
19
  6
Continuous
 62
     6
370
    25
100
AcDbLine
 10
-65.49999448309336
 20
49.1833345522482
 30
0.0
 11
-64.2999924128253
 21
49.1833345522482
 31
0.0
  0
LINE
  5
50F
330
1F
100
AcDbEntity
  8
19
  6
Continuous
 62
     6
370
    25
100
AcDbLine
 10
-121.2999991978208
 20
-17.48333410123996
 30
0.0
 11
-119.9833335091671
 21
-17.48333410123996
 31
0.0
  0
LINE
  5
510
330
1F
100
AcDbEntity
  8
19
  6
Continuous
 62
     6
370
    25
100
AcDbLine
 10
-116.6500000764927
 20
-17.48333410123996
 30
0.0
 11
-115.3333333546917
 21
-17.48333410123996
 31
0.0
  0
LINE
  5
511
330
1F
100
AcDbEntity
  8
19
  6
Continuous
 62
     6
370
    25
100
AcDbLine
 10
-111.9999958689013
 20
-17.48333410123996
 30
0.0
 11
-110.6833291471004
 21
-17.48333410123996
 31
0.0
  0
LINE
  5
512
330
1F
100
AcDbEntity
  8
19
  6
Continuous
 62
     6
370
    25
100
AcDbLine
 10
-107.3499967475732
 20
-17.48333410123996
 30
0.0
 11
-106.0333300257722
 21
-17.48333410123996
 31
0.0
  0
LINE
  5
513
330
1F
100
AcDbEntity
  8
19
  6
Continuous
 62
     6
370
    25
100
AcDbLine
 10
-102.699997626245
 20
-17.48333410123996
 30
0.0
 11
-101.383330904444
 21
-17.48333410123996
 31
0.0
  0
LINE
  5
514
330
1F
100
AcDbEntity
  8
19
  6
Continuous
 62
     6
370
    25
100
AcDbLine
 10
-98.04999850491686
 20
-17.48333410123996
 30
0.0
 11
-96.73333178311589
 21
-17.48333410123996
 31
0.0
  0
LINE
  5
515
330
1F
100
AcDbEntity
  8
19
  6
Continuous
 62
     6
370
    25
100
AcDbLine
 10
-93.39999938358869
 20
-17.48333410123996
 30
0.0
 11
-92.08333266178774
 21
-17.48333410123996
 31
0.0
  0
LINE
  5
516
330
1F
100
AcDbEntity
  8
19
  6
Continuous
 62
     6
370
    25
100
AcDbLine
 10
-88.74999517599736
 20
-17.48333410123996
 30
0.0
 11
-87.4333284541964
 21
-17.48333410123996
 31
0.0
  0
LINE
  5
517
330
1F
100
AcDbEntity
  8
19
  6
Continuous
 62
     6
370
    25
100
AcDbLine
 10
-84.10000114093236
 20
-17.48333410123996
 30
0.0
 11
-82.78333441913142
 21
-17.48333410123996
 31
0.0
  0
LINE
  5
518
330
1F
100
AcDbEntity
  8
19
  6
Continuous
 62
     6
370
    25
100
AcDbLine
 10
-79.44999693334103
 20
-17.48333410123996
 30
0.0
 11
-78.24999486307297
 21
-17.48333410123996
 31
0.0
  0
LINE
  5
519
330
1F
100
AcDbEntity
  8
19
  6
Continuous
 62
     6
370
    25
100
AcDbLine
 10
-74.79999272574969
 20
-17.48333410123996
 30
0.0
 11
-73.60000082800798
 21
-17.48333410123996
 31
0.0
  0
LINE
  5
51A
330
1F
100
AcDbEntity
  8
19
  6
Continuous
 62
     6
370
    25
100
AcDbLine
 10
-70.1499986906847
 20
-17.48333410123996
 30
0.0
 11
-68.94999662041664
 21
-17.48333410123996
 31
0.0
  0
LINE
  5
51B
330
1F
100
AcDbEntity
  8
19
  6
Continuous
 62
     6
370
    25
100
AcDbLine
 10
-65.49999448309336
 20
-17.48333410123996
 30
0.0
 11
-64.2999924128253
 21
-17.48333410123996
 31
0.0
  0
LINE
  5
51C
330
1F
100
AcDbEntity
  8
19
  6
Continuous
 62
     6
370
    25
100
AcDbLine
 10
-123.1333325857918
 20
59.18333485027142
 30
0.0
 11
-123.1333325857918
 21
64.51666834255047
 31
0.0
  0
LINE
  5
51D
330
1F
100
AcDbEntity
  8
19
  6
Continuous
 62
     6
370
    25
100
AcDbLine
 10
-123.1333325857918
 20
64.51666834255047
 30
0.0
 11
-119.4666658098499
 21
64.51666834255047
 31
0.0
  0
LINE
  5
51E
330
1F
100
AcDbEntity
  8
19
  6
Continuous
 62
     6
370
    25
100
AcDbLine
 10
-119.4666658098499
 20
64.51666834255047
 30
0.0
 11
-119.4666658098499
 21
59.18333485027142
 31
0.0
  0
LINE
  5
51F
330
1F
100
AcDbEntity
  8
19
  6
Continuous
 62
     6
370
    25
100
AcDbLine
 10
-120.2999991680185
 20
57.51666813393422
 30
0.0
 11
-120.2999991680185
 21
58.1833348204691
 31
0.0
  0
LINE
  5
520
330
1F
100
AcDbEntity
  8
19
  6
Continuous
 62
     6
370
    25
100
AcDbLine
 10
-120.2999991680185
 20
54.18333470125981
 30
0.0
 11
-120.2999991680185
 21
56.76666811158248
 31
0.0
  0
LINE
  5
521
330
1F
100
AcDbEntity
  8
19
  6
Continuous
 62
     6
370
    25
100
AcDbLine
 10
-121.2999991978208
 20
54.18333470125981
 30
0.0
 11
-120.2999991680185
 21
54.18333470125981
 31
0.0
  0
LINE
  5
522
330
1F
100
AcDbEntity
  8
19
  6
Continuous
 62
     6
370
    25
100
AcDbLine
 10
-122.2999992276232
 20
57.51666813393422
 30
0.0
 11
-122.2999992276232
 21
58.1833348204691
 31
0.0
  0
LINE
  5
523
330
1F
100
AcDbEntity
  8
19
  6
Continuous
 62
     6
370
    25
100
AcDbLine
 10
-122.6333325708906
 20
-28.15000108579807
 30
0.0
 11
-122.6333325708906
 21
-27.48333439926317
 31
0.0
  0
LINE
  5
524
330
1F
100
AcDbEntity
  8
19
  6
Continuous
 62
     6
370
    25
100
AcDbLine
 10
-122.6333325708906
 20
-28.15000108579807
 30
0.0
 11
-119.9666658247511
 21
-28.15000108579807
 31
0.0
  0
LINE
  5
525
330
1F
100
AcDbEntity
  8
19
  6
Continuous
 62
     6
370
    25
100
AcDbLine
 10
-119.9666658247511
 20
-28.15000108579807
 30
0.0
 11
-119.9666658247511
 21
-27.48333439926317
 31
0.0
  0
LINE
  5
526
330
1F
100
AcDbEntity
  8
19
  6
Continuous
 62
     6
370
    25
100
AcDbLine
 10
-120.2999991680185
 20
-26.48333436946086
 30
0.0
 11
-120.2999991680185
 21
-25.81666768292598
 31
0.0
  0
LINE
  5
527
330
1F
100
AcDbEntity
  8
19
  6
Continuous
 62
     6
370
    25
100
AcDbLine
 10
-120.2999991680185
 20
-25.06666766057424
 30
0.0
 11
-120.2999991680185
 21
-22.48333425025157
 31
0.0
  0
LINE
  5
528
330
1F
100
AcDbEntity
  8
19
  6
Continuous
 62
     6
370
    25
100
AcDbLine
 10
-121.2999991978208
 20
-22.48333425025157
 30
0.0
 11
-120.2999991680185
 21
-22.48333425025157
 31
0.0
  0
LINE
  5
529
330
1F
100
AcDbEntity
  8
19
  6
Continuous
 62
     6
370
    25
100
AcDbLine
 10
-122.2999992276232
 20
-26.48333436946086
 30
0.0
 11
-122.2999992276232
 21
-25.81666768292598
 31
0.0
  0
CIRCLE
  5
52A
330
1F
100
AcDbEntity
  8
19
  6
Continuous
 62
     6
370
    25
100
AcDbCircle
 10
-117.633332421879
 20
60.35000155170745
 30
0.0
 40
1.166666701436043
  0
LINE
  5
52B
330
1F
100
AcDbEntity
  8
19
  6
Continuous
 62
     6
370
    25
100
AcDbLine
 10
-118.799999123315
 20
60.35000155170745
 30
0.0
 11
-118.799999123315
 21
68.68333513339348
 31
0.0
  0
LINE
  5
52C
330
1F
100
AcDbEntity
  8
19
  6
Continuous
 62
     6
370
    25
100
AcDbLine
 10
-118.799999123315
 20
68.68333513339348
 30
0.0
 11
-116.4666657204429
 21
68.68333513339348
 31
0.0
  0
LINE
  5
52D
330
1F
100
AcDbEntity
  8
19
  6
Continuous
 62
     6
370
    25
100
AcDbLine
 10
-116.4666657204429
 20
60.35000155170745
 30
0.0
 11
-116.4666657204429
 21
68.68333513339348
 31
0.0
  0
ARC
  5
52E
330
1F
100
AcDbEntity
  8
19
  6
Continuous
 62
     6
370
    25
100
AcDbCircle
 10
-117.633332421879
 20
65.35000170071908
 30
0.0
 40
1.166666701436043
100
AcDbArc
 50
0.0
 51
180.0000000000004
  0
CIRCLE
  5
52F
330
1F
100
AcDbEntity
  8
19
  6
Continuous
 62
     6
370
    25
100
AcDbCircle
 10
-67.96665918876715
 20
60.35000155170745
 30
0.0
 40
1.166666701436043
  0
LINE
  5
530
330
1F
100
AcDbEntity
  8
19
  6
Continuous
 62
     6
370
    25
100
AcDbLine
 10
-69.1333258902032
 20
60.35000155170745
 30
0.0
 11
-69.1333258902032
 21
68.68333513339348
 31
0.0
  0
LINE
  5
531
330
1F
100
AcDbEntity
  8
19
  6
Continuous
 62
     6
370
    25
100
AcDbLine
 10
-69.1333258902032
 20
68.68333513339348
 30
0.0
 11
-66.79999248733111
 21
68.68333513339348
 31
0.0
  0
LINE
  5
532
330
1F
100
AcDbEntity
  8
19
  6
Continuous
 62
     6
370
    25
100
AcDbLine
 10
-66.79999248733111
 20
60.35000155170745
 30
0.0
 11
-66.79999248733111
 21
68.68333513339348
 31
0.0
  0
ARC
  5
533
330
1F
100
AcDbEntity
  8
19
  6
Continuous
 62
     6
370
    25
100
AcDbCircle
 10
-67.96665918876715
 20
65.35000170071908
 30
0.0
 40
1.166666701436043
100
AcDbArc
 50
0.0
 51
180.0000000000004
  0
CIRCLE
  5
534
330
1F
100
AcDbEntity
  8
19
  6
Continuous
 62
     6
370
    25
100
AcDbCircle
 10
-117.633332421879
 20
-28.65000110069923
 30
0.0
 40
1.166666701436043
  0
LINE
  5
535
330
1F
100
AcDbEntity
  8
19
  6
Continuous
 62
     6
370
    25
100
AcDbLine
 10
-118.799999123315
 20
-36.98333468238525
 30
0.0
 11
-118.799999123315
 21
-28.65000110069923
 31
0.0
  0
LINE
  5
536
330
1F
100
AcDbEntity
  8
19
  6
Continuous
 62
     6
370
    25
100
AcDbLine
 10
-118.799999123315
 20
-36.98333468238525
 30
0.0
 11
-116.4666657204429
 21
-36.98333468238525
 31
0.0
  0
LINE
  5
537
330
1F
100
AcDbEntity
  8
19
  6
Continuous
 62
     6
370
    25
100
AcDbLine
 10
-116.4666657204429
 20
-36.98333468238525
 30
0.0
 11
-116.4666657204429
 21
-28.65000110069923
 31
0.0
  0
ARC
  5
538
330
1F
100
AcDbEntity
  8
19
  6
Continuous
 62
     6
370
    25
100
AcDbCircle
 10
-117.633332421879
 20
-33.65000124971084
 30
0.0
 40
1.166666701436043
100
AcDbArc
 50
180.0000000000004
 51
0.0000000000008142
  0
CIRCLE
  5
539
330
1F
100
AcDbEntity
  8
19
  6
Continuous
 62
     6
370
    25
100
AcDbCircle
 10
-67.96665918876715
 20
-28.65000110069923
 30
0.0
 40
1.166666701436043
  0
LINE
  5
53A
330
1F
100
AcDbEntity
  8
19
  6
Continuous
 62
     6
370
    25
100
AcDbLine
 10
-69.1333258902032
 20
-36.98333468238525
 30
0.0
 11
-69.1333258902032
 21
-28.65000110069923
 31
0.0
  0
LINE
  5
53B
330
1F
100
AcDbEntity
  8
19
  6
Continuous
 62
     6
370
    25
100
AcDbLine
 10
-69.1333258902032
 20
-36.98333468238525
 30
0.0
 11
-66.79999248733111
 21
-36.98333468238525
 31
0.0
  0
LINE
  5
53C
330
1F
100
AcDbEntity
  8
19
  6
Continuous
 62
     6
370
    25
100
AcDbLine
 10
-66.79999248733111
 20
-36.98333468238525
 30
0.0
 11
-66.79999248733111
 21
-28.65000110069923
 31
0.0
  0
ARC
  5
53D
330
1F
100
AcDbEntity
  8
19
  6
Continuous
 62
     6
370
    25
100
AcDbCircle
 10
-67.96665918876715
 20
-33.65000124971084
 30
0.0
 40
1.166666701436043
100
AcDbArc
 50
180.0000000000004
 51
0.0000000000008142
  0
LINE
  5
53E
330
1F
100
AcDbEntity
  8
19
  6
Continuous
 62
     6
370
    25
100
AcDbLine
 10
-15.9666576390464
 20
57.51666813393422
 30
0.0
 11
-15.9666576390464
 21
59.18333485027142
 31
0.0
  0
LINE
  5
53F
330
1F
100
AcDbEntity
  8
19
  6
Continuous
 62
     6
370
    25
100
AcDbLine
 10
-15.9666576390464
 20
58.1833348204691
 30
0.0
 11
-15.9666576390464
 21
59.18333485027142
 31
0.0
  0
LINE
  5
540
330
1F
100
AcDbEntity
  8
19
  6
Continuous
 62
     6
370
    25
100
AcDbLine
 10
-15.9666576390464
 20
59.18333485027142
 30
0.0
 11
-9.799990788598741
 21
59.18333485027142
 31
0.0
  0
LINE
  5
541
330
1F
100
AcDbEntity
  8
19
  6
Continuous
 62
     6
370
    25
100
AcDbLine
 10
-9.799990788598741
 20
59.18333485027142
 30
0.0
 11
-9.63332411696502
 21
59.0166681786377
 31
0.0
  0
LINE
  5
542
330
1F
100
AcDbEntity
  8
19
  6
Continuous
 62
     6
370
    25
100
AcDbLine
 10
-9.63332411696502
 20
59.0166681786377
 30
0.0
 11
-9.63332411696502
 21
49.1833345522482
 31
0.0
  0
LINE
  5
543
330
1F
100
AcDbEntity
  8
19
  6
Continuous
 62
     6
370
    25
100
AcDbLine
 10
-9.63332411696502
 20
49.1833345522482
 30
0.0
 11
-10.63332414676734
 21
49.1833345522482
 31
0.0
  0
LINE
  5
544
330
1F
100
AcDbEntity
  8
19
  6
Continuous
 62
     6
370
    25
100
AcDbLine
 10
-10.63332414676734
 20
49.1833345522482
 30
0.0
 11
-10.63332414676734
 21
58.1833348204691
 31
0.0
  0
LINE
  5
545
330
1F
100
AcDbEntity
  8
19
  6
Continuous
 62
     6
370
    25
100
AcDbLine
 10
-10.63332414676734
 20
58.1833348204691
 30
0.0
 11
-15.9666576390464
 21
58.1833348204691
 31
0.0
  0
LINE
  5
546
330
1F
100
AcDbEntity
  8
19
  6
Continuous
 62
     6
370
    25
100
AcDbLine
 10
-15.9666576390464
 20
-26.48333436946086
 30
0.0
 11
-15.9666576390464
 21
-27.48333439926317
 31
0.0
  0
LINE
  5
547
330
1F
100
AcDbEntity
  8
19
  6
Continuous
 62
     6
370
    25
100
AcDbLine
 10
-15.9666576390464
 20
-27.48333439926317
 30
0.0
 11
-9.799990788598741
 21
-27.48333439926317
 31
0.0
  0
LINE
  5
548
330
1F
100
AcDbEntity
  8
19
  6
Continuous
 62
     6
370
    25
100
AcDbLine
 10
-9.799990788598741
 20
-27.48333439926317
 30
0.0
 11
-9.63332411696502
 21
-27.31666772762946
 31
0.0
  0
LINE
  5
549
330
1F
100
AcDbEntity
  8
19
  6
Continuous
 62
     6
370
    25
100
AcDbLine
 10
-9.63332411696502
 20
-27.31666772762946
 30
0.0
 11
-9.63332411696502
 21
-17.48333410123996
 31
0.0
  0
LINE
  5
54A
330
1F
100
AcDbEntity
  8
19
  6
Continuous
 62
     6
370
    25
100
AcDbLine
 10
-9.63332411696502
 20
-17.48333410123996
 30
0.0
 11
-10.63332414676734
 21
-17.48333410123996
 31
0.0
  0
LINE
  5
54B
330
1F
100
AcDbEntity
  8
19
  6
Continuous
 62
     6
370
    25
100
AcDbLine
 10
-10.63332414676734
 20
-17.48333410123996
 30
0.0
 11
-10.63332414676734
 21
-26.48333436946086
 31
0.0
  0
LINE
  5
54C
330
1F
100
AcDbEntity
  8
19
  6
Continuous
 62
     6
370
    25
100
AcDbLine
 10
-10.63332414676734
 20
-26.48333436946086
 30
0.0
 11
-15.9666576390464
 21
-26.48333436946086
 31
0.0
  0
LINE
  5
54D
330
1F
100
AcDbEntity
  8
19
  6
Continuous
 62
     6
370
    25
100
AcDbLine
 10
-15.9666576390464
 20
-26.48333436946086
 30
0.0
 11
-15.9666576390464
 21
-24.81666765312366
 31
0.0
  0
LINE
  5
54E
330
1F
100
AcDbEntity
  8
19
  6
Continuous
 62
     6
370
    25
100
AcDbLine
 10
-13.79999090780803
 20
-27.48333439926317
 30
0.0
 11
-9.63332411696502
 21
-27.48333439926317
 31
0.0
  0
LINE
  5
54F
330
1F
100
AcDbEntity
  8
19
  6
Continuous
 62
     6
370
    25
100
AcDbLine
 10
-9.63332411696502
 20
-27.48333439926317
 30
0.0
 11
7.200009718040739
 21
-31.98333453337364
 31
0.0
  0
LINE
  5
550
330
1F
100
AcDbEntity
  8
19
  6
Continuous
 62
     6
370
    25
100
AcDbLine
 10
7.200009718040739
 20
-37.15000135401897
 30
0.0
 11
7.200009718040739
 21
-31.98333453337364
 31
0.0
  0
LINE
  5
551
330
1F
100
AcDbEntity
  8
19
  6
Continuous
 62
     6
370
    25
100
AcDbLine
 10
4.866676315168654
 20
-37.15000135401897
 30
0.0
 11
7.200009718040739
 21
-37.15000135401897
 31
0.0
  0
LINE
  5
552
330
1F
100
AcDbEntity
  8
19
  6
Continuous
 62
     6
370
    25
100
AcDbLine
 10
4.866676315168654
 20
-37.15000135401897
 30
0.0
 11
4.866676315168654
 21
-33.81666792134456
 31
0.0
  0
LINE
  5
553
330
1F
100
AcDbEntity
  8
19
  6
Continuous
 62
     6
370
    25
100
AcDbLine
 10
4.866676315168654
 20
-33.81666792134456
 30
0.0
 11
-9.966657460232462
 21
-29.81666780213527
 31
0.0
  0
LINE
  5
554
330
1F
100
AcDbEntity
  8
19
  6
Continuous
 62
     6
370
    25
100
AcDbLine
 10
-13.79999090780803
 20
-29.81666780213527
 30
0.0
 11
-9.966657460232462
 21
-29.81666780213527
 31
0.0
  0
LINE
  5
555
330
1F
100
AcDbEntity
  8
19
  6
Continuous
 62
     6
370
    25
100
AcDbLine
 10
-13.79999090780803
 20
-29.81666780213527
 30
0.0
 11
-13.79999090780803
 21
-27.48333439926317
 31
0.0
  0
LINE
  5
556
330
1F
100
AcDbEntity
  8
19
  6
Continuous
 62
     6
370
    25
100
AcDbLine
 10
-13.79999090780803
 20
59.18333485027142
 30
0.0
 11
-9.63332411696502
 21
59.18333485027142
 31
0.0
  0
LINE
  5
557
330
1F
100
AcDbEntity
  8
19
  6
Continuous
 62
     6
370
    25
100
AcDbLine
 10
-9.63332411696502
 20
59.18333485027142
 30
0.0
 11
7.200009718040739
 21
63.68333498438187
 31
0.0
  0
LINE
  5
558
330
1F
100
AcDbEntity
  8
19
  6
Continuous
 62
     6
370
    25
100
AcDbLine
 10
7.200009718040739
 20
63.68333498438187
 30
0.0
 11
7.200009718040739
 21
68.8500018050272
 31
0.0
  0
LINE
  5
559
330
1F
100
AcDbEntity
  8
19
  6
Continuous
 62
     6
370
    25
100
AcDbLine
 10
4.866676315168654
 20
68.8500018050272
 30
0.0
 11
7.200009718040739
 21
68.8500018050272
 31
0.0
  0
LINE
  5
55A
330
1F
100
AcDbEntity
  8
19
  6
Continuous
 62
     6
370
    25
100
AcDbLine
 10
4.866676315168654
 20
65.5166683723528
 30
0.0
 11
4.866676315168654
 21
68.8500018050272
 31
0.0
  0
LINE
  5
55B
330
1F
100
AcDbEntity
  8
19
  6
Continuous
 62
     6
370
    25
100
AcDbLine
 10
4.866676315168654
 20
65.5166683723528
 30
0.0
 11
-9.966657460232462
 21
61.51666825314351
 31
0.0
  0
LINE
  5
55C
330
1F
100
AcDbEntity
  8
19
  6
Continuous
 62
     6
370
    25
100
AcDbLine
 10
-13.79999090780803
 20
61.51666825314351
 30
0.0
 11
-9.966657460232462
 21
61.51666825314351
 31
0.0
  0
LINE
  5
55D
330
1F
100
AcDbEntity
  8
19
  6
Continuous
 62
     6
370
    25
100
AcDbLine
 10
-13.79999090780803
 20
59.18333485027142
 30
0.0
 11
-13.79999090780803
 21
61.51666825314351
 31
0.0
  0
LINE
  5
55E
330
1F
100
AcDbEntity
  8
19
  6
Continuous
 62
     6
370
    25
100
AcDbLine
 10
-14.96665760924407
 20
59.18333485027142
 30
0.0
 11
-14.96665760924407
 21
64.51666834255047
 31
0.0
  0
LINE
  5
55F
330
1F
100
AcDbEntity
  8
19
  6
Continuous
 62
     6
370
    25
100
AcDbLine
 10
-14.96665760924407
 20
64.51666834255047
 30
0.0
 11
-11.29999083330222
 21
64.51666834255047
 31
0.0
  0
LINE
  5
560
330
1F
100
AcDbEntity
  8
19
  6
Continuous
 62
     6
370
    25
100
AcDbLine
 10
-11.29999083330222
 20
64.51666834255047
 30
0.0
 11
-11.29999083330222
 21
59.18333485027142
 31
0.0
  0
LINE
  5
561
330
1F
100
AcDbEntity
  8
19
  6
Continuous
 62
     6
370
    25
100
AcDbLine
 10
-14.13332425107547
 20
57.51666813393422
 30
0.0
 11
-14.13332425107547
 21
58.1833348204691
 31
0.0
  0
LINE
  5
562
330
1F
100
AcDbEntity
  8
19
  6
Continuous
 62
     6
370
    25
100
AcDbLine
 10
-12.13332419147083
 20
58.1833348204691
 30
0.0
 11
-12.13332419147083
 21
57.51666813393422
 31
0.0
  0
LINE
  5
563
330
1F
100
AcDbEntity
  8
19
  6
Continuous
 62
     6
370
    25
100
AcDbLine
 10
-14.46665759434291
 20
-27.48333439926317
 30
0.0
 11
-14.46665759434291
 21
-28.15000108579807
 31
0.0
  0
LINE
  5
564
330
1F
100
AcDbEntity
  8
19
  6
Continuous
 62
     6
370
    25
100
AcDbLine
 10
-14.46665759434291
 20
-28.15000108579807
 30
0.0
 11
-11.79999084820339
 21
-28.15000108579807
 31
0.0
  0
LINE
  5
565
330
1F
100
AcDbEntity
  8
19
  6
Continuous
 62
     6
370
    25
100
AcDbLine
 10
-11.79999084820339
 20
-28.15000108579807
 30
0.0
 11
-11.79999084820339
 21
-27.48333439926317
 31
0.0
  0
LINE
  5
566
330
1F
100
AcDbEntity
  8
19
  6
Continuous
 62
     6
370
    25
100
AcDbLine
 10
-14.13332425107547
 20
-25.81666768292598
 30
0.0
 11
-14.13332425107547
 21
-26.48333436946086
 31
0.0
  0
LINE
  5
567
330
1F
100
AcDbEntity
  8
19
  6
Continuous
 62
     6
370
    25
100
AcDbLine
 10
-12.13332419147083
 20
-26.48333436946086
 30
0.0
 11
-12.13332419147083
 21
-25.81666768292598
 31
0.0
  0
LINE
  5
568
330
1F
100
AcDbEntity
  8
19
  6
Continuous
 62
     6
370
    25
100
AcDbLine
 10
-124.6333326304952
 20
-70.06666391541557
 30
0.0
 11
-127.6333327199022
 21
-70.06666391541557
 31
0.0
  0
LINE
  5
569
330
1F
100
AcDbEntity
  8
19
  6
Continuous
 62
     6
370
    25
100
AcDbLine
 10
-127.6333327199022
 20
-70.06666391541557
 30
0.0
 11
-127.6333327199022
 21
-76.39999743749695
 31
0.0
  0
LINE
  5
56A
330
1F
100
AcDbEntity
  8
19
  6
Continuous
 62
     6
370
    25
100
AcDbLine
 10
-127.6333327199022
 20
-76.39999743749695
 30
0.0
 11
-57.96666397700711
 21
-76.39999743749695
 31
0.0
  0
LINE
  5
56B
330
1F
100
AcDbEntity
  8
19
  6
Continuous
 62
     6
370
    25
100
AcDbLine
 10
-57.96666397700711
 20
-76.39999743749695
 30
0.0
 11
-57.96666397700711
 21
-70.06666391541557
 31
0.0
  0
LINE
  5
56C
330
1F
100
AcDbEntity
  8
19
  6
Continuous
 62
     6
370
    25
100
AcDbLine
 10
-57.96666397700711
 20
-70.06666391541557
 30
0.0
 11
-60.96666406641407
 21
-70.06666391541557
 31
0.0
  0
LINE
  5
56D
330
1F
100
AcDbEntity
  8
19
  6
Continuous
 62
     6
370
    25
100
AcDbLine
 10
-59.46666402171059
 20
-70.06666391541557
 30
0.0
 11
-59.46666402171059
 21
-75.39999740769463
 31
0.0
  0
LINE
  5
56E
330
1F
100
AcDbEntity
  8
19
  6
Continuous
 62
     6
370
    25
100
AcDbLine
 10
-59.46666402171059
 20
-75.39999740769463
 30
0.0
 11
-126.1333326751987
 21
-75.39999740769463
 31
0.0
  0
LINE
  5
56F
330
1F
100
AcDbEntity
  8
19
  6
Continuous
 62
     6
370
    25
100
AcDbLine
 10
-126.1333326751987
 20
-75.39999740769463
 30
0.0
 11
-126.1333326751987
 21
-70.06666391541557
 31
0.0
  0
LINE
  5
570
330
1F
100
AcDbEntity
  8
19
  6
Continuous
 62
     6
370
    25
100
AcDbLine
 10
-126.1333326751987
 20
-75.39999740769463
 30
0.0
 11
-127.6333327199022
 21
-75.39999740769463
 31
0.0
  0
LINE
  5
571
330
1F
100
AcDbEntity
  8
19
  6
Continuous
 62
     6
370
    25
100
AcDbLine
 10
-59.46665893544742
 20
-75.39999740769463
 30
0.0
 11
-57.96665889074393
 21
-75.39999740769463
 31
0.0
  0
LINE
  5
572
330
1F
100
AcDbEntity
  8
19
  6
Continuous
 62
     6
370
    25
100
AcDbLine
 10
-118.799999123315
 20
-76.39999743749695
 30
0.0
 11
-118.799999123315
 21
-92.06666457106667
 31
0.0
  0
ARC
  5
573
330
1F
100
AcDbEntity
  8
19
  6
Continuous
 62
     6
370
    25
100
AcDbCircle
 10
-117.6333324218792
 20
-92.0666653335881
 30
0.0
 40
1.166666701436043
100
AcDbArc
 50
180.0000000000004
 51
0.0000000000008142
  0
LINE
  5
574
330
1F
100
AcDbEntity
  8
19
  6
Continuous
 62
     6
370
    25
100
AcDbLine
 10
-116.4666657204442
 20
-92.066666858631
 30
0.0
 11
-116.4666657204442
 21
-76.39999972506129
 31
0.0
  0
LINE
  5
575
330
1F
100
AcDbEntity
  8
19
  6
Continuous
 62
     6
370
    25
100
AcDbLine
 10
-69.1333258902032
 20
-76.39999743749695
 30
0.0
 11
-69.1333258902032
 21
-92.06666457106667
 31
0.0
  0
ARC
  5
576
330
1F
100
AcDbEntity
  8
19
  6
Continuous
 62
     6
370
    25
100
AcDbCircle
 10
-67.96665918876741
 20
-92.0666653335881
 30
0.0
 40
1.166666701436043
100
AcDbArc
 50
180.0000000000004
 51
0.0000000000008142
  0
LINE
  5
577
330
1F
100
AcDbEntity
  8
19
  6
Continuous
 62
     6
370
    25
100
AcDbLine
 10
-66.79999248733235
 20
-92.066666858631
 30
0.0
 11
-66.79999248733235
 21
-76.39999972506129
 31
0.0
  0
LINE
  5
578
330
1F
100
AcDbEntity
  8
19
  6
CENTERX2
 62
     6
370
    25
100
AcDbLine
 10
-121.2999991978208
 20
65.01666835745164
 30
0.0
 11
-121.2999991978208
 21
53.68333468635865
 31
0.0
  0
LINE
  5
579
330
1F
100
AcDbEntity
  8
19
  6
CENTERX2
 62
     6
370
    25
100
AcDbLine
 10
-121.2999991978208
 20
-28.65000110069923
 30
0.0
 11
-121.2999991978208
 21
-21.98333423535041
 31
0.0
  0
LINE
  5
57A
330
1F
100
AcDbEntity
  8
19
  6
CENTERX2
 62
     6
370
    25
100
AcDbLine
 10
-13.13332422127315
 20
65.01666835745164
 30
0.0
 11
-13.13332422127315
 21
53.68333468635865
 31
0.0
  0
LINE
  5
57B
330
1F
100
AcDbEntity
  8
19
  6
CENTERX2
 62
     6
370
    25
100
AcDbLine
 10
-13.13332422127315
 20
-28.65000110069923
 30
0.0
 11
-13.13332422127315
 21
-21.98333423535041
 31
0.0
  0
LINE
  5
57C
330
1F
100
AcDbEntity
  8
0
  6
Continuous
 62
     4
370
    25
100
AcDbLine
 10
-139.6333328987161
 20
32.18330187971333
 30
0.0
 11
-140.0333329046766
 21
30.68330185736159
 31
0.0
  0
LINE
  5
57D
330
1F
100
AcDbEntity
  8
0
  6
Continuous
 62
     4
370
    25
100
AcDbLine
 10
-139.2333328927556
 20
30.68330185736159
 30
0.0
 11
-139.6333328987161
 21
32.18330187971333
 31
0.0
  0
LINE
  5
57E
330
1F
100
AcDbEntity
  8
0
  6
Continuous
 62
     4
370
    25
100
AcDbLine
 10
-139.6333328987161
 20
32.18330187971333
 30
0.0
 11
-139.6333328987161
 21
2.183301432678496
 31
0.0
  0
LINE
  5
57F
330
1F
100
AcDbEntity
  8
0
  6
Continuous
 62
     4
370
    25
100
AcDbLine
 10
-139.6333328987161
 20
2.183301432678496
 30
0.0
 11
-140.0333329046766
 21
3.683301455030238
 31
0.0
  0
LINE
  5
580
330
1F
100
AcDbEntity
  8
0
  6
Continuous
 62
     4
370
    25
100
AcDbLine
 10
-139.2333328927556
 20
3.683301455030238
 30
0.0
 11
-139.6333328987161
 21
2.183301432678496
 31
0.0
  0
TEXT
  5
581
330
1F
100
AcDbEntity
  8
0
 62
     2
100
AcDbText
 10
-140.3333329005072
 20
8.183301523480836
 30
0.0
 40
3.0
  1
車両進行方向
 50
90.0000001836389
 41
0.8333333352623459
  7
dcStyle0
 72
     5
 11
-140.333332958199
 21
26.18330177348084
 31
0.0
100
AcDbText
  0
VIEWPORT
  5
78
330
1B
100
AcDbEntity
 67
     1
  8
0
100
AcDbViewport
 10
-4.799997359514236
 20
-11.29999825358391
 30
0.0
 40
1063.200015842915
 41
703.2000104784966
 68
     1
 69
     1
 12
-4.799997359514236
 22
-11.29999825358391
 13
0.0
 23
0.0
 14
0.5
 24
0.5
 15
0.0
 25
0.0
 16
0.0
 26
0.0
 36
1.0
 17
0.0
 27
0.0
 37
0.0
 42
50.0
 43
0.0
 44
0.0
 45
703.2000104784966
 50
0.0
 51
0.0
 72
   100
 90
   557152
  1

281
     0
 71
     1
 74
     0
110
0.0
120
0.0
130
0.0
111
1.0
121
0.0
131
0.0
112
0.0
122
1.0
132
0.0
 79
     0
146
0.0
  0
ENDSEC
  0
SECTION
  2
OBJECTS
  0
DICTIONARY
  5
C
330
0
100
AcDbDictionary
281
     1
  3
ACAD_GROUP
350
D
  3
ACAD_LAYOUT
350
1A
  3
ACAD_MATERIAL
350
3B
  3
ACAD_MLEADERSTYLE
350
5A6
  3
ACAD_MLINESTYLE
350
17
  3
ACAD_PLOTSETTINGS
350
19
  3
ACAD_PLOTSTYLENAME
350
E
  3
ACAD_SCALELIST
350
582
  3
ACAD_VISUALSTYLE
350
2A
  3
AcDbVariableDictionary
350
5A4
  0
DICTIONARY
  5
D
102
{ACAD_REACTORS
330
C
102
}
330
C
100
AcDbDictionary
281
     1
  0
DICTIONARY
  5
1A
102
{ACAD_REACTORS
330
C
102
}
330
C
100
AcDbDictionary
281
     1
  3
Layout1
350
1E
  3
Layout2
350
26
  3
Model
350
22
  0
DICTIONARY
  5
3B
102
{ACAD_REACTORS
330
C
102
}
330
C
100
AcDbDictionary
281
     1
  3
ByBlock
350
3D
  3
ByLayer
350
3C
  3
Global
350
3E
  0
DICTIONARY
  5
5A6
102
{ACAD_REACTORS
330
C
102
}
330
C
100
AcDbDictionary
281
     1
  0
DICTIONARY
  5
17
102
{ACAD_REACTORS
330
C
102
}
330
C
100
AcDbDictionary
281
     1
  3
Standard
350
18
  0
DICTIONARY
  5
19
102
{ACAD_REACTORS
330
C
102
}
330
C
100
AcDbDictionary
281
     1
  0
ACDBDICTIONARYWDFLT
  5
E
102
{ACAD_REACTORS
330
C
102
}
330
C
100
AcDbDictionary
281
     1
  3
Normal
350
F
100
AcDbDictionaryWithDefault
340
F
  0
DICTIONARY
  5
582
102
{ACAD_REACTORS
330
C
102
}
330
C
100
AcDbDictionary
281
     1
  3
A0
350
583
  3
A1
350
584
  3
A2
350
585
  3
A3
350
586
  3
A4
350
587
  3
A5
350
588
  3
A6
350
589
  3
A7
350
58A
  3
A8
350
58B
  3
A9
350
58C
  3
B0
350
58D
  3
B1
350
58E
  3
B2
350
58F
  3
B3
350
590
  3
B4
350
591
  3
B5
350
592
  3
B6
350
593
  3
B7
350
594
  3
B8
350
595
  3
B9
350
596
  3
C0
350
597
  3
C1
350
598
  3
C2
350
599
  3
C3
350
59A
  3
C4
350
59B
  3
C5
350
59C
  3
C6
350
59D
  3
C7
350
59E
  3
C8
350
59F
  3
C9
350
5A0
  3
D0
350
5A1
  3
D1
350
5A2
  3
D2
350
5A3
  0
DICTIONARY
  5
2A
102
{ACAD_REACTORS
330
C
102
}
330
C
100
AcDbDictionary
281
     1
  3
2dWireframe
350
2F
  3
3D Hidden
350
31
  3
3dWireframe
350
30
  3
Basic
350
32
  3
Brighten
350
36
  3
ColorChange
350
3A
  3
Conceptual
350
34
  3
Dim
350
35
  3
Facepattern
350
39
  3
Flat
350
2B
  3
FlatWithEdges
350
2C
  3
Gouraud
350
2D
  3
GouraudWithEdges
350
2E
  3
Linepattern
350
38
  3
Realistic
350
33
  3
Thicken
350
37
  0
DICTIONARY
  5
5A4
102
{ACAD_REACTORS
330
C
102
}
330
C
100
AcDbDictionary
281
     1
  3
CANNOSCALE
350
5A7
  3
DIMASSOC
350
5A8
  3
HIDETEXT
350
5A9
  0
LAYOUT
  5
1E
102
{ACAD_REACTORS
330
1A
102
}
330
1A
100
AcDbPlotSettings
  1

  2
none_device
  4

  6

 40
0.0
 41
0.0
 42
0.0
 43
0.0
 44
0.0
 45
0.0
 46
0.0
 47
0.0
 48
0.0
 49
0.0
140
0.0
141
0.0
142
1.0
143
1.0
 70
   688
 72
     0
 73
     0
 74
     5
  7

 75
    16
147
1.0
148
0.0
149
0.0
100
AcDbLayout
  1
Layout1
 70
     0
 71
     1
 10
0.0
 20
0.0
 11
12.0
 21
9.0
 12
0.0
 22
0.0
 32
0.0
 14
1.000000000000000E+20
 24
1.000000000000000E+20
 34
1.000000000000000E+20
 15
-1.000000000000000E+20
 25
-1.000000000000000E+20
 35
-1.000000000000000E+20
146
0.0
 13
0.0
 23
0.0
 33
0.0
 16
1.0
 26
0.0
 36
0.0
 17
0.0
 27
1.0
 37
0.0
 76
     0
330
1B
331
78
  0
LAYOUT
  5
26
102
{ACAD_REACTORS
330
1A
102
}
330
1A
100
AcDbPlotSettings
  1

  2
none_device
  4

  6

 40
0.0
 41
0.0
 42
0.0
 43
0.0
 44
0.0
 45
0.0
 46
0.0
 47
0.0
 48
0.0
 49
0.0
140
0.0
141
0.0
142
1.0
143
1.0
 70
   688
 72
     0
 73
     0
 74
     5
  7

 75
    16
147
1.0
148
0.0
149
0.0
100
AcDbLayout
  1
Layout2
 70
     1
 71
     2
 10
0.0
 20
0.0
 11
0.0
 21
0.0
 12
0.0
 22
0.0
 32
0.0
 14
0.0
 24
0.0
 34
0.0
 15
0.0
 25
0.0
 35
0.0
146
0.0
 13
0.0
 23
0.0
 33
0.0
 16
1.0
 26
0.0
 36
0.0
 17
0.0
 27
1.0
 37
0.0
 76
     0
330
23
  0
LAYOUT
  5
22
102
{ACAD_REACTORS
330
1A
102
}
330
1A
100
AcDbPlotSettings
  1

  2
none_device
  4

  6

 40
0.0
 41
0.0
 42
0.0
 43
0.0
 44
0.0
 45
0.0
 46
0.0
 47
0.0
 48
0.0
 49
0.0
140
0.0
141
0.0
142
1.0
143
1.0
 70
  1712
 72
     0
 73
     0
 74
     0
  7

 75
     0
147
1.0
148
0.0
149
0.0
100
AcDbLayout
  1
Model
 70
     1
 71
     0
 10
-182.0
 20
-128.5
 11
182.0
 21
128.5
 12
0.0
 22
0.0
 32
0.0
 14
-536.4000052809715
 24
-362.9000034928322
 34
0.0
 15
526.800010561943
 25
340.3000069856644
 35
0.0
146
0.0
 13
0.0
 23
0.0
 33
0.0
 16
1.0
 26
0.0
 36
0.0
 17
0.0
 27
1.0
 37
0.0
 76
     0
330
1F
331
29
  0
MATERIAL
  5
3D
102
{ACAD_REACTORS
330
3B
102
}
102
{ACAD_XDICTIONARY
360
5CC
102
}
330
3B
100
AcDbMaterial
  1
ByBlock
  0
MATERIAL
  5
3C
102
{ACAD_REACTORS
330
3B
102
}
102
{ACAD_XDICTIONARY
360
5CA
102
}
330
3B
100
AcDbMaterial
  1
ByLayer
  0
MATERIAL
  5
3E
102
{ACAD_REACTORS
330
3B
102
}
102
{ACAD_XDICTIONARY
360
5CE
102
}
330
3B
100
AcDbMaterial
  1
Global
  0
MLINESTYLE
  5
18
102
{ACAD_REACTORS
330
17
102
}
330
17
100
AcDbMlineStyle
  2
Standard
 70
     0
  3

 62
   256
 51
90.0
 52
90.0
 71
     2
 49
0.5
 62
   256
  6
BYLAYER
 49
-0.5
 62
   256
  6
BYLAYER
  0
ACDBPLACEHOLDER
  5
F
102
{ACAD_REACTORS
330
E
102
}
330
E
  0
SCALE
  5
583
102
{ACAD_REACTORS
330
582
102
}
330
582
100
AcDbScale
 70
     0
300
1:1
140
1.0
141
1.0
290
     1
  0
SCALE
  5
584
102
{ACAD_REACTORS
330
582
102
}
330
582
100
AcDbScale
 70
     0
300
1:2
140
1.0
141
2.0
290
     0
  0
SCALE
  5
585
102
{ACAD_REACTORS
330
582
102
}
330
582
100
AcDbScale
 70
     0
300
1:4
140
1.0
141
4.0
290
     0
  0
SCALE
  5
586
102
{ACAD_REACTORS
330
582
102
}
330
582
100
AcDbScale
 70
     0
300
1:5
140
1.0
141
5.0
290
     0
  0
SCALE
  5
587
102
{ACAD_REACTORS
330
582
102
}
330
582
100
AcDbScale
 70
     0
300
1:8
140
1.0
141
8.0
290
     0
  0
SCALE
  5
588
102
{ACAD_REACTORS
330
582
102
}
330
582
100
AcDbScale
 70
     0
300
1:10
140
1.0
141
10.0
290
     0
  0
SCALE
  5
589
102
{ACAD_REACTORS
330
582
102
}
330
582
100
AcDbScale
 70
     0
300
1:16
140
1.0
141
16.0
290
     0
  0
SCALE
  5
58A
102
{ACAD_REACTORS
330
582
102
}
330
582
100
AcDbScale
 70
     0
300
1:20
140
1.0
141
20.0
290
     0
  0
SCALE
  5
58B
102
{ACAD_REACTORS
330
582
102
}
330
582
100
AcDbScale
 70
     0
300
1:30
140
1.0
141
30.0
290
     0
  0
SCALE
  5
58C
102
{ACAD_REACTORS
330
582
102
}
330
582
100
AcDbScale
 70
     0
300
1:40
140
1.0
141
40.0
290
     0
  0
SCALE
  5
58D
102
{ACAD_REACTORS
330
582
102
}
330
582
100
AcDbScale
 70
     0
300
1:50
140
1.0
141
50.0
290
     0
  0
SCALE
  5
58E
102
{ACAD_REACTORS
330
582
102
}
330
582
100
AcDbScale
 70
     0
300
1:100
140
1.0
141
100.0
290
     0
  0
SCALE
  5
58F
102
{ACAD_REACTORS
330
582
102
}
330
582
100
AcDbScale
 70
     0
300
2:1
140
2.0
141
1.0
290
     0
  0
SCALE
  5
590
102
{ACAD_REACTORS
330
582
102
}
330
582
100
AcDbScale
 70
     0
300
4:1
140
4.0
141
1.0
290
     0
  0
SCALE
  5
591
102
{ACAD_REACTORS
330
582
102
}
330
582
100
AcDbScale
 70
     0
300
8:1
140
8.0
141
1.0
290
     0
  0
SCALE
  5
592
102
{ACAD_REACTORS
330
582
102
}
330
582
100
AcDbScale
 70
     0
300
10:1
140
10.0
141
1.0
290
     0
  0
SCALE
  5
593
102
{ACAD_REACTORS
330
582
102
}
330
582
100
AcDbScale
 70
     0
300
100:1
140
100.0
141
1.0
290
     0
  0
SCALE
  5
594
102
{ACAD_REACTORS
330
582
102
}
330
582
100
AcDbScale
 70
     0
300
1/128" = 1'-0"
140
0.0078125
141
12.0
290
     0
  0
SCALE
  5
595
102
{ACAD_REACTORS
330
582
102
}
330
582
100
AcDbScale
 70
     0
300
1/64" = 1'-0"
140
0.015625
141
12.0
290
     0
  0
SCALE
  5
596
102
{ACAD_REACTORS
330
582
102
}
330
582
100
AcDbScale
 70
     0
300
1/32" = 1'-0"
140
0.03125
141
12.0
290
     0
  0
SCALE
  5
597
102
{ACAD_REACTORS
330
582
102
}
330
582
100
AcDbScale
 70
     0
300
1/16" = 1'-0"
140
0.0625
141
12.0
290
     0
  0
SCALE
  5
598
102
{ACAD_REACTORS
330
582
102
}
330
582
100
AcDbScale
 70
     0
300
3/32" = 1'-0"
140
0.09375
141
12.0
290
     0
  0
SCALE
  5
599
102
{ACAD_REACTORS
330
582
102
}
330
582
100
AcDbScale
 70
     0
300
1/8" = 1'-0"
140
0.125
141
12.0
290
     0
  0
SCALE
  5
59A
102
{ACAD_REACTORS
330
582
102
}
330
582
100
AcDbScale
 70
     0
300
3/16" = 1'-0"
140
0.1875
141
12.0
290
     0
  0
SCALE
  5
59B
102
{ACAD_REACTORS
330
582
102
}
330
582
100
AcDbScale
 70
     0
300
1/4" = 1'-0"
140
0.25
141
12.0
290
     0
  0
SCALE
  5
59C
102
{ACAD_REACTORS
330
582
102
}
330
582
100
AcDbScale
 70
     0
300
3/8" = 1'-0"
140
0.375
141
12.0
290
     0
  0
SCALE
  5
59D
102
{ACAD_REACTORS
330
582
102
}
330
582
100
AcDbScale
 70
     0
300
1/2" = 1'-0"
140
0.5
141
12.0
290
     0
  0
SCALE
  5
59E
102
{ACAD_REACTORS
330
582
102
}
330
582
100
AcDbScale
 70
     0
300
3/4" = 1'-0"
140
0.75
141
12.0
290
     0
  0
SCALE
  5
59F
102
{ACAD_REACTORS
330
582
102
}
330
582
100
AcDbScale
 70
     0
300
1" = 1'-0"
140
1.0
141
12.0
290
     0
  0
SCALE
  5
5A0
102
{ACAD_REACTORS
330
582
102
}
330
582
100
AcDbScale
 70
     0
300
1-1/2" = 1'-0"
140
1.5
141
12.0
290
     0
  0
SCALE
  5
5A1
102
{ACAD_REACTORS
330
582
102
}
330
582
100
AcDbScale
 70
     0
300
3" = 1'-0"
140
3.0
141
12.0
290
     0
  0
SCALE
  5
5A2
102
{ACAD_REACTORS
330
582
102
}
330
582
100
AcDbScale
 70
     0
300
6" = 1'-0"
140
6.0
141
12.0
290
     0
  0
SCALE
  5
5A3
102
{ACAD_REACTORS
330
582
102
}
330
582
100
AcDbScale
 70
     0
300
1'-0" = 1'-0"
140
12.0
141
12.0
290
     0
  0
VISUALSTYLE
  5
2F
102
{ACAD_REACTORS
330
2A
102
}
102
{ACAD_XDICTIONARY
360
5B2
102
}
330
2A
100
AcDbVisualStyle
  2
2dWireframe
 70
     4
 71
     0
 72
     2
 73
     0
 90
        0
 40
-0.6
 41
-30.0
 62
     5
 63
     7
 74
     1
 91
        4
 64
     7
 65
   257
 75
     1
175
     1
 42
1.0
 92
        0
 66
   257
 43
1.0
 76
     1
 77
     6
 78
     2
 67
     7
 79
     5
170
     0
171
     0
290
     0
174
     0
 93
        1
 44
0.0
173
     0
291
     0
 45
0.0
1001
ACAD
1000
AcDbSavedByObjectVersion
1070
     0
  0
VISUALSTYLE
  5
31
102
{ACAD_REACTORS
330
2A
102
}
102
{ACAD_XDICTIONARY
360
5B6
102
}
330
2A
100
AcDbVisualStyle
  2
3D Hidden
 70
     6
 71
     1
 72
     2
 73
     2
 90
        0
 40
-0.6
 41
-30.0
 62
     5
 63
     7
 74
     2
 91
        2
 64
     7
 65
   257
 75
     2
175
     1
 42
40.0
 92
        0
 66
   257
 43
1.0
 76
     1
 77
     6
 78
     2
 67
     7
 79
     3
170
     0
171
     0
290
     0
174
     0
 93
        1
 44
0.0
173
     0
291
     0
 45
0.0
1001
ACAD
1000
AcDbSavedByObjectVersion
1070
     0
  0
VISUALSTYLE
  5
30
102
{ACAD_REACTORS
330
2A
102
}
102
{ACAD_XDICTIONARY
360
5B4
102
}
330
2A
100
AcDbVisualStyle
  2
3dWireframe
 70
     5
 71
     0
 72
     2
 73
     0
 90
        0
 40
-0.6
 41
-30.0
 62
     5
 63
     7
 74
     1
 91
        4
 64
     7
 65
   257
 75
     1
175
     1
 42
1.0
 92
        0
 66
   257
 43
1.0
 76
     1
 77
     6
 78
     2
 67
     7
 79
     5
170
     0
171
     0
290
     0
174
     0
 93
        1
 44
0.0
173
     0
291
     0
 45
0.0
1001
ACAD
1000
AcDbSavedByObjectVersion
1070
     0
  0
VISUALSTYLE
  5
32
102
{ACAD_REACTORS
330
2A
102
}
102
{ACAD_XDICTIONARY
360
5B8
102
}
330
2A
100
AcDbVisualStyle
  2
Basic
 70
     7
 71
     1
 72
     0
 73
     1
 90
        0
 40
-0.6
 41
-30.0
 62
     5
 63
     7
 74
     0
 91
        4
 64
     7
 65
   257
 75
     1
175
     1
 42
1.0
 92
        8
 66
     7
 43
1.0
 76
     1
 77
     6
 78
     2
 67
     7
 79
     5
170
     0
171
     0
290
     0
174
     0
 93
        1
 44
0.0
173
     0
291
     1
 45
0.0
1001
ACAD
1000
AcDbSavedByObjectVersion
1070
     0
  0
VISUALSTYLE
  5
36
102
{ACAD_REACTORS
330
2A
102
}
102
{ACAD_XDICTIONARY
360
5C0
102
}
330
2A
100
AcDbVisualStyle
  2
Brighten
 70
    12
 71
     2
 72
     2
 73
     0
 90
        0
 40
-0.6
 41
-30.0
 62
     5
 63
     7
 74
     1
 91
        4
 64
     7
 65
   257
 75
     1
175
     1
 42
1.0
 92
        8
 66
     7
 43
1.0
 76
     1
 77
     6
 78
     2
 67
     7
 79
     5
170
     0
171
     0
290
     0
174
     0
 93
        1
 44
50.0
173
     0
291
     1
 45
0.0
1001
ACAD
1000
AcDbSavedByObjectVersion
1070
     0
  0
VISUALSTYLE
  5
3A
102
{ACAD_REACTORS
330
2A
102
}
102
{ACAD_XDICTIONARY
360
5C8
102
}
330
2A
100
AcDbVisualStyle
  2
ColorChange
 70
    16
 71
     2
 72
     2
 73
     3
 90
        0
 40
-0.6
 41
-30.0
 62
     5
 63
     8
 74
     1
 91
        4
 64
     7
 65
   257
 75
     1
175
     1
 42
1.0
 92
        8
 66
     8
 43
1.0
 76
     1
 77
     6
 78
     2
 67
     7
 79
     5
170
     0
171
     0
290
     0
174
     0
 93
        1
 44
0.0
173
     0
291
     1
 45
0.0
1001
ACAD
1000
AcDbSavedByObjectVersion
1070
     0
  0
VISUALSTYLE
  5
34
102
{ACAD_REACTORS
330
2A
102
}
102
{ACAD_XDICTIONARY
360
5BC
102
}
330
2A
100
AcDbVisualStyle
  2
Conceptual
 70
     9
 71
     3
 72
     2
 73
     0
 90
        0
 40
-0.6
 41
-30.0
 62
     5
 63
     7
 74
     2
 91
        2
 64
     7
 65
   257
 75
     1
175
     1
 42
40.0
 92
        8
 66
     7
 43
1.0
 76
     1
 77
     6
 78
     2
 67
     7
 79
     3
170
     0
171
     0
290
     0
174
     0
 93
        1
 44
0.0
173
     0
291
     0
 45
0.0
1001
ACAD
1000
AcDbSavedByObjectVersion
1070
     0
  0
VISUALSTYLE
  5
35
102
{ACAD_REACTORS
330
2A
102
}
102
{ACAD_XDICTIONARY
360
5BE
102
}
330
2A
100
AcDbVisualStyle
  2
Dim
 70
    11
 71
     2
 72
     2
 73
     0
 90
        0
 40
-0.6
 41
-30.0
 62
     5
 63
     7
 74
     1
 91
        4
 64
     7
 65
   257
 75
     1
175
     1
 42
1.0
 92
        8
 66
     7
 43
1.0
 76
     1
 77
     6
 78
     2
 67
     7
 79
     5
170
     0
171
     0
290
     0
174
     0
 93
        1
 44
-50.0
173
     0
291
     1
 45
0.0
1001
ACAD
1000
AcDbSavedByObjectVersion
1070
     0
  0
VISUALSTYLE
  5
39
102
{ACAD_REACTORS
330
2A
102
}
102
{ACAD_XDICTIONARY
360
5C6
102
}
330
2A
100
AcDbVisualStyle
  2
Facepattern
 70
    15
 71
     2
 72
     2
 73
     0
 90
        0
 40
-0.6
 41
-30.0
 62
     5
 63
     7
 74
     1
 91
        4
 64
     7
 65
   257
 75
     1
175
     1
 42
1.0
 92
        8
 66
     7
 43
1.0
 76
     1
 77
     6
 78
     2
 67
     7
 79
     5
170
     0
171
     0
290
     0
174
     0
 93
        1
 44
0.0
173
     0
291
     1
 45
0.0
1001
ACAD
1000
AcDbSavedByObjectVersion
1070
     0
  0
VISUALSTYLE
  5
2B
102
{ACAD_REACTORS
330
2A
102
}
102
{ACAD_XDICTIONARY
360
5AA
102
}
330
2A
100
AcDbVisualStyle
  2
Flat
 70
     0
 71
     2
 72
     1
 73
     1
 90
        2
 40
-0.6
 41
30.0
 62
     5
 63
     7
 74
     0
 91
        4
 64
     7
 65
   257
 75
     1
175
     1
 42
1.0
 92
        8
 66
     7
 43
1.0
 76
     1
 77
     6
 78
     2
 67
     7
 79
     5
170
     0
171
     0
290
     0
174
     0
 93
       13
 44
0.0
173
     0
291
     1
 45
0.0
1001
ACAD
1000
AcDbSavedByObjectVersion
1070
     0
  0
VISUALSTYLE
  5
2C
102
{ACAD_REACTORS
330
2A
102
}
102
{ACAD_XDICTIONARY
360
5AC
102
}
330
2A
100
AcDbVisualStyle
  2
FlatWithEdges
 70
     1
 71
     2
 72
     1
 73
     1
 90
        2
 40
-0.6
 41
30.0
 62
     5
 63
     7
 74
     1
 91
        4
 64
     7
 65
   257
 75
     1
175
     1
 42
1.0
 92
        0
 66
   257
 43
1.0
 76
     1
 77
     6
 78
     2
 67
     7
 79
     5
170
     0
171
     0
290
     0
174
     0
 93
       13
 44
0.0
173
     0
291
     1
 45
0.0
1001
ACAD
1000
AcDbSavedByObjectVersion
1070
     0
  0
VISUALSTYLE
  5
2D
102
{ACAD_REACTORS
330
2A
102
}
102
{ACAD_XDICTIONARY
360
5AE
102
}
330
2A
100
AcDbVisualStyle
  2
Gouraud
 70
     2
 71
     2
 72
     2
 73
     1
 90
        2
 40
-0.6
 41
30.0
 62
     5
 63
     7
 74
     0
 91
        4
 64
     7
 65
   257
 75
     1
175
     1
 42
1.0
 92
        0
 66
     7
 43
1.0
 76
     1
 77
     6
 78
     2
 67
     7
 79
     5
170
     0
171
     0
290
     0
174
     0
 93
       13
 44
0.0
173
     0
291
     1
 45
0.0
1001
ACAD
1000
AcDbSavedByObjectVersion
1070
     0
  0
VISUALSTYLE
  5
2E
102
{ACAD_REACTORS
330
2A
102
}
102
{ACAD_XDICTIONARY
360
5B0
102
}
330
2A
100
AcDbVisualStyle
  2
GouraudWithEdges
 70
     3
 71
     2
 72
     2
 73
     1
 90
        2
 40
-0.6
 41
30.0
 62
     5
 63
     7
 74
     1
 91
        4
 64
     7
 65
   257
 75
     1
175
     1
 42
1.0
 92
        0
 66
   257
 43
1.0
 76
     1
 77
     6
 78
     2
 67
     7
 79
     5
170
     0
171
     0
290
     0
174
     0
 93
       13
 44
0.0
173
     0
291
     1
 45
0.0
1001
ACAD
1000
AcDbSavedByObjectVersion
1070
     0
  0
VISUALSTYLE
  5
38
102
{ACAD_REACTORS
330
2A
102
}
102
{ACAD_XDICTIONARY
360
5C4
102
}
330
2A
100
AcDbVisualStyle
  2
Linepattern
 70
    14
 71
     2
 72
     2
 73
     0
 90
        0
 40
-0.6
 41
-30.0
 62
     5
 63
     7
 74
     1
 91
        4
 64
     7
 65
   257
 75
     7
175
     7
 42
1.0
 92
        8
 66
     7
 43
1.0
 76
     1
 77
     6
 78
     2
 67
     7
 79
     5
170
     0
171
     0
290
     0
174
     0
 93
        1
 44
0.0
173
     0
291
     1
 45
0.0
1001
ACAD
1000
AcDbSavedByObjectVersion
1070
     0
  0
VISUALSTYLE
  5
33
102
{ACAD_REACTORS
330
2A
102
}
102
{ACAD_XDICTIONARY
360
5BA
102
}
330
2A
100
AcDbVisualStyle
  2
Realistic
 70
     8
 71
     2
 72
     2
 73
     0
 90
        0
 40
-0.6
 41
-30.0
 62
     5
 63
     7
 74
     1
 91
        0
 64
     7
 65
   257
 75
     1
175
     1
 42
1.0
 92
        8
 66
     8
 43
1.0
 76
     1
 77
     6
 78
     2
 67
     7
 79
     5
170
     0
171
     0
290
     0
174
     0
 93
       13
 44
0.0
173
     0
291
     0
 45
0.0
1001
ACAD
1000
AcDbSavedByObjectVersion
1070
     0
  0
VISUALSTYLE
  5
37
102
{ACAD_REACTORS
330
2A
102
}
102
{ACAD_XDICTIONARY
360
5C2
102
}
330
2A
100
AcDbVisualStyle
  2
Thicken
 70
    13
 71
     2
 72
     2
 73
     0
 90
        0
 40
-0.6
 41
-30.0
 62
     5
 63
     7
 74
     1
 91
        4
 64
     7
 65
   257
 75
     1
175
     1
 42
1.0
 92
       12
 66
     7
 43
1.0
 76
     1
 77
     6
 78
     2
 67
     7
 79
     5
170
     0
171
     0
290
     0
174
     0
 93
        1
 44
0.0
173
     0
291
     1
 45
0.0
1001
ACAD
1000
AcDbSavedByObjectVersion
1070
     0
  0
DICTIONARYVAR
  5
5A7
102
{ACAD_REACTORS
330
5A4
102
}
330
5A4
100
DictionaryVariables
280
     0
  1
1:1
  0
DICTIONARYVAR
  5
5A8
102
{ACAD_REACTORS
330
5A4
102
}
330
5A4
100
DictionaryVariables
280
     0
  1
2
  0
DICTIONARYVAR
  5
5A9
102
{ACAD_REACTORS
330
5A4
102
}
330
5A4
100
DictionaryVariables
280
     0
  1
1
  0
DICTIONARY
  5
5CC
330
3D
100
AcDbDictionary
280
     1
281
     1
  3
ACAD_XREC_ROUNDTRIP
360
5CD
  0
DICTIONARY
  5
5CA
330
3C
100
AcDbDictionary
280
     1
281
     1
  3
ACAD_XREC_ROUNDTRIP
360
5CB
  0
DICTIONARY
  5
5CE
330
3E
100
AcDbDictionary
280
     1
281
     1
  3
ACAD_XREC_ROUNDTRIP
360
5CF
  0
DICTIONARY
  5
5B2
330
2F
100
AcDbDictionary
280
     1
281
     1
  3
ACAD_XREC_ROUNDTRIP
360
5B3
  0
DICTIONARY
  5
5B6
330
31
100
AcDbDictionary
280
     1
281
     1
  3
ACAD_XREC_ROUNDTRIP
360
5B7
  0
DICTIONARY
  5
5B4
330
30
100
AcDbDictionary
280
     1
281
     1
  3
ACAD_XREC_ROUNDTRIP
360
5B5
  0
DICTIONARY
  5
5B8
330
32
100
AcDbDictionary
280
     1
281
     1
  3
ACAD_XREC_ROUNDTRIP
360
5B9
  0
DICTIONARY
  5
5C0
330
36
100
AcDbDictionary
280
     1
281
     1
  3
ACAD_XREC_ROUNDTRIP
360
5C1
  0
DICTIONARY
  5
5C8
330
3A
100
AcDbDictionary
280
     1
281
     1
  3
ACAD_XREC_ROUNDTRIP
360
5C9
  0
DICTIONARY
  5
5BC
330
34
100
AcDbDictionary
280
     1
281
     1
  3
ACAD_XREC_ROUNDTRIP
360
5BD
  0
DICTIONARY
  5
5BE
330
35
100
AcDbDictionary
280
     1
281
     1
  3
ACAD_XREC_ROUNDTRIP
360
5BF
  0
DICTIONARY
  5
5C6
330
39
100
AcDbDictionary
280
     1
281
     1
  3
ACAD_XREC_ROUNDTRIP
360
5C7
  0
DICTIONARY
  5
5AA
330
2B
100
AcDbDictionary
280
     1
281
     1
  3
ACAD_XREC_ROUNDTRIP
360
5AB
  0
DICTIONARY
  5
5AC
330
2C
100
AcDbDictionary
280
     1
281
     1
  3
ACAD_XREC_ROUNDTRIP
360
5AD
  0
DICTIONARY
  5
5AE
330
2D
100
AcDbDictionary
280
     1
281
     1
  3
ACAD_XREC_ROUNDTRIP
360
5AF
  0
DICTIONARY
  5
5B0
330
2E
100
AcDbDictionary
280
     1
281
     1
  3
ACAD_XREC_ROUNDTRIP
360
5B1
  0
DICTIONARY
  5
5C4
330
38
100
AcDbDictionary
280
     1
281
     1
  3
ACAD_XREC_ROUNDTRIP
360
5C5
  0
DICTIONARY
  5
5BA
330
33
100
AcDbDictionary
280
     1
281
     1
  3
ACAD_XREC_ROUNDTRIP
360
5BB
  0
DICTIONARY
  5
5C2
330
37
100
AcDbDictionary
280
     1
281
     1
  3
ACAD_XREC_ROUNDTRIP
360
5C3
  0
XRECORD
  5
5CD
102
{ACAD_REACTORS
330
5CC
102
}
330
5CC
100
AcDbXrecord
280
     1
102
MATERIAL
148
0.0
149
0.0
149
0.0
 93
        0
 94
      127
282
     0
 72
     1
 77
     1
171
     1
175
     1
179
     1
273
     0
  0
XRECORD
  5
5CB
102
{ACAD_REACTORS
330
5CA
102
}
330
5CA
100
AcDbXrecord
280
     1
102
MATERIAL
148
0.0
149
0.0
149
0.0
 93
        0
 94
      127
282
     0
 72
     1
 77
     1
171
     1
175
     1
179
     1
273
     0
  0
XRECORD
  5
5CF
102
{ACAD_REACTORS
330
5CE
102
}
330
5CE
100
AcDbXrecord
280
     1
102
MATERIAL
148
0.0
149
0.0
149
0.0
 93
        0
 94
      127
282
     0
 72
     1
 77
     1
171
     1
175
     1
179
     1
273
     0
  0
XRECORD
  5
5B3
102
{ACAD_REACTORS
330
5B2
102
}
330
5B2
100
AcDbXrecord
280
     1
102
RTVSPropertyOp0
 70
     1
102
RTVSPropertyOp1
 70
     1
102
RTVSPropertyOp2
 70
     1
102
RTVSPropertyOp3
 70
     1
102
RTVSPropertyOp4
 70
     1
102
RTVSPropertyOp5
 70
     1
102
RTVSPropertyOp6
 70
     1
102
RTVSPropertyOp7
 70
     1
102
RTVSPropertyOp8
 70
     1
102
RTVSPropertyOp9
 70
     1
102
RTVSPropertyOp10
 70
     1
102
RTVSPropertyOp11
 70
     1
102
RTVSPropertyOp12
 70
     1
102
RTVSPropertyOp13
 70
     1
102
RTVSPropertyOp14
 70
     1
102
RTVSPropertyOp15
 70
     1
102
RTVSPropertyOp16
 70
     1
102
RTVSPropertyOp17
 70
     1
102
RTVSPropertyOp18
 70
     1
102
RTVSPropertyOp19
 70
     1
102
RTVSPropertyOp20
 70
     1
102
RTVSPropertyOp21
 70
     1
102
RTVSPropertyOp22
 70
     1
102
RTVSPropertyOp23
 70
     1
102
RTVSPropertyOp24
 70
     1
102
RTVSPropertyOp25
 70
     1
102
RTVSPropertyOp26
 70
     1
102
RTVSPropertyOp27
 70
     1
  0
XRECORD
  5
5B7
102
{ACAD_REACTORS
330
5B6
102
}
330
5B6
100
AcDbXrecord
280
     1
102
RTVSPropertyOp0
 70
     1
102
RTVSPropertyOp1
 70
     1
102
RTVSPropertyOp2
 70
     1
102
RTVSPropertyOp3
 70
     1
102
RTVSPropertyOp4
 70
     1
102
RTVSPropertyOp5
 70
     1
102
RTVSPropertyOp6
 70
     1
102
RTVSPropertyOp7
 70
     1
102
RTVSPropertyOp8
 70
     1
102
RTVSPropertyOp9
 70
     1
102
RTVSPropertyOp10
 70
     1
102
RTVSPropertyOp11
 70
     1
102
RTVSPropertyOp12
 70
     1
102
RTVSPropertyOp13
 70
     1
102
RTVSPropertyOp14
 70
     1
102
RTVSPropertyOp15
 70
     1
102
RTVSPropertyOp16
 70
     1
102
RTVSPropertyOp17
 70
     1
102
RTVSPropertyOp18
 70
     1
102
RTVSPropertyOp19
 70
     1
102
RTVSPropertyOp20
 70
     1
102
RTVSPropertyOp21
 70
     1
102
RTVSPropertyOp22
 70
     1
102
RTVSPropertyOp23
 70
     1
102
RTVSPropertyOp24
 70
     1
102
RTVSPropertyOp25
 70
     1
102
RTVSPropertyOp26
 70
     1
102
RTVSPropertyOp27
 70
     1
  0
XRECORD
  5
5B5
102
{ACAD_REACTORS
330
5B4
102
}
330
5B4
100
AcDbXrecord
280
     1
102
RTVSPropertyOp0
 70
     1
102
RTVSPropertyOp1
 70
     1
102
RTVSPropertyOp2
 70
     1
102
RTVSPropertyOp3
 70
     1
102
RTVSPropertyOp4
 70
     1
102
RTVSPropertyOp5
 70
     1
102
RTVSPropertyOp6
 70
     1
102
RTVSPropertyOp7
 70
     1
102
RTVSPropertyOp8
 70
     1
102
RTVSPropertyOp9
 70
     1
102
RTVSPropertyOp10
 70
     1
102
RTVSPropertyOp11
 70
     1
102
RTVSPropertyOp12
 70
     1
102
RTVSPropertyOp13
 70
     1
102
RTVSPropertyOp14
 70
     1
102
RTVSPropertyOp15
 70
     1
102
RTVSPropertyOp16
 70
     1
102
RTVSPropertyOp17
 70
     1
102
RTVSPropertyOp18
 70
     1
102
RTVSPropertyOp19
 70
     1
102
RTVSPropertyOp20
 70
     1
102
RTVSPropertyOp21
 70
     1
102
RTVSPropertyOp22
 70
     1
102
RTVSPropertyOp23
 70
     1
102
RTVSPropertyOp24
 70
     1
102
RTVSPropertyOp25
 70
     1
102
RTVSPropertyOp26
 70
     1
102
RTVSPropertyOp27
 70
     1
  0
XRECORD
  5
5B9
102
{ACAD_REACTORS
330
5B8
102
}
330
5B8
100
AcDbXrecord
280
     1
102
RTVSPropertyOp0
 70
     1
102
RTVSPropertyOp1
 70
     1
102
RTVSPropertyOp2
 70
     1
102
RTVSPropertyOp3
 70
     1
102
RTVSPropertyOp4
 70
     1
102
RTVSPropertyOp5
 70
     1
102
RTVSPropertyOp6
 70
     1
102
RTVSPropertyOp7
 70
     1
102
RTVSPropertyOp8
 70
     1
102
RTVSPropertyOp9
 70
     1
102
RTVSPropertyOp10
 70
     1
102
RTVSPropertyOp11
 70
     1
102
RTVSPropertyOp12
 70
     1
102
RTVSPropertyOp13
 70
     1
102
RTVSPropertyOp14
 70
     1
102
RTVSPropertyOp15
 70
     1
102
RTVSPropertyOp16
 70
     1
102
RTVSPropertyOp17
 70
     1
102
RTVSPropertyOp18
 70
     1
102
RTVSPropertyOp19
 70
     1
102
RTVSPropertyOp20
 70
     1
102
RTVSPropertyOp21
 70
     1
102
RTVSPropertyOp22
 70
     1
102
RTVSPropertyOp23
 70
     1
102
RTVSPropertyOp24
 70
     1
102
RTVSPropertyOp25
 70
     1
102
RTVSPropertyOp26
 70
     1
102
RTVSPropertyOp27
 70
     1
  0
XRECORD
  5
5C1
102
{ACAD_REACTORS
330
5C0
102
}
330
5C0
100
AcDbXrecord
280
     1
102
RTVSPropertyOp0
 70
     1
102
RTVSPropertyOp1
 70
     1
102
RTVSPropertyOp2
 70
     1
102
RTVSPropertyOp3
 70
     1
102
RTVSPropertyOp4
 70
     1
102
RTVSPropertyOp5
 70
     1
102
RTVSPropertyOp6
 70
     1
102
RTVSPropertyOp7
 70
     1
102
RTVSPropertyOp8
 70
     1
102
RTVSPropertyOp9
 70
     1
102
RTVSPropertyOp10
 70
     1
102
RTVSPropertyOp11
 70
     1
102
RTVSPropertyOp12
 70
     1
102
RTVSPropertyOp13
 70
     1
102
RTVSPropertyOp14
 70
     1
102
RTVSPropertyOp15
 70
     1
102
RTVSPropertyOp16
 70
     1
102
RTVSPropertyOp17
 70
     1
102
RTVSPropertyOp18
 70
     1
102
RTVSPropertyOp19
 70
     1
102
RTVSPropertyOp20
 70
     1
102
RTVSPropertyOp21
 70
     1
102
RTVSPropertyOp22
 70
     1
102
RTVSPropertyOp23
 70
     1
102
RTVSPropertyOp24
 70
     1
102
RTVSPropertyOp25
 70
     1
102
RTVSPropertyOp26
 70
     1
102
RTVSPropertyOp27
 70
     1
  0
XRECORD
  5
5C9
102
{ACAD_REACTORS
330
5C8
102
}
330
5C8
100
AcDbXrecord
280
     1
102
RTVSPropertyOp0
 70
     1
102
RTVSPropertyOp1
 70
     1
102
RTVSPropertyOp2
 70
     1
102
RTVSPropertyOp3
 70
     1
102
RTVSPropertyOp4
 70
     1
102
RTVSPropertyOp5
 70
     1
102
RTVSPropertyOp6
 70
     1
102
RTVSPropertyOp7
 70
     1
102
RTVSPropertyOp8
 70
     1
102
RTVSPropertyOp9
 70
     1
102
RTVSPropertyOp10
 70
     1
102
RTVSPropertyOp11
 70
     1
102
RTVSPropertyOp12
 70
     1
102
RTVSPropertyOp13
 70
     1
102
RTVSPropertyOp14
 70
     1
102
RTVSPropertyOp15
 70
     1
102
RTVSPropertyOp16
 70
     1
102
RTVSPropertyOp17
 70
     1
102
RTVSPropertyOp18
 70
     1
102
RTVSPropertyOp19
 70
     1
102
RTVSPropertyOp20
 70
     1
102
RTVSPropertyOp21
 70
     1
102
RTVSPropertyOp22
 70
     1
102
RTVSPropertyOp23
 70
     1
102
RTVSPropertyOp24
 70
     1
102
RTVSPropertyOp25
 70
     1
102
RTVSPropertyOp26
 70
     1
102
RTVSPropertyOp27
 70
     1
  0
XRECORD
  5
5BD
102
{ACAD_REACTORS
330
5BC
102
}
330
5BC
100
AcDbXrecord
280
     1
102
RTVSPropertyOp0
 70
     1
102
RTVSPropertyOp1
 70
     1
102
RTVSPropertyOp2
 70
     1
102
RTVSPropertyOp3
 70
     1
102
RTVSPropertyOp4
 70
     1
102
RTVSPropertyOp5
 70
     1
102
RTVSPropertyOp6
 70
     1
102
RTVSPropertyOp7
 70
     1
102
RTVSPropertyOp8
 70
     1
102
RTVSPropertyOp9
 70
     1
102
RTVSPropertyOp10
 70
     1
102
RTVSPropertyOp11
 70
     1
102
RTVSPropertyOp12
 70
     1
102
RTVSPropertyOp13
 70
     1
102
RTVSPropertyOp14
 70
     1
102
RTVSPropertyOp15
 70
     1
102
RTVSPropertyOp16
 70
     1
102
RTVSPropertyOp17
 70
     1
102
RTVSPropertyOp18
 70
     1
102
RTVSPropertyOp19
 70
     1
102
RTVSPropertyOp20
 70
     1
102
RTVSPropertyOp21
 70
     1
102
RTVSPropertyOp22
 70
     1
102
RTVSPropertyOp23
 70
     1
102
RTVSPropertyOp24
 70
     1
102
RTVSPropertyOp25
 70
     1
102
RTVSPropertyOp26
 70
     1
102
RTVSPropertyOp27
 70
     1
  0
XRECORD
  5
5BF
102
{ACAD_REACTORS
330
5BE
102
}
330
5BE
100
AcDbXrecord
280
     1
102
RTVSPropertyOp0
 70
     1
102
RTVSPropertyOp1
 70
     1
102
RTVSPropertyOp2
 70
     1
102
RTVSPropertyOp3
 70
     1
102
RTVSPropertyOp4
 70
     1
102
RTVSPropertyOp5
 70
     1
102
RTVSPropertyOp6
 70
     1
102
RTVSPropertyOp7
 70
     1
102
RTVSPropertyOp8
 70
     1
102
RTVSPropertyOp9
 70
     1
102
RTVSPropertyOp10
 70
     1
102
RTVSPropertyOp11
 70
     1
102
RTVSPropertyOp12
 70
     1
102
RTVSPropertyOp13
 70
     1
102
RTVSPropertyOp14
 70
     1
102
RTVSPropertyOp15
 70
     1
102
RTVSPropertyOp16
 70
     1
102
RTVSPropertyOp17
 70
     1
102
RTVSPropertyOp18
 70
     1
102
RTVSPropertyOp19
 70
     1
102
RTVSPropertyOp20
 70
     1
102
RTVSPropertyOp21
 70
     1
102
RTVSPropertyOp22
 70
     1
102
RTVSPropertyOp23
 70
     1
102
RTVSPropertyOp24
 70
     1
102
RTVSPropertyOp25
 70
     1
102
RTVSPropertyOp26
 70
     1
102
RTVSPropertyOp27
 70
     1
  0
XRECORD
  5
5C7
102
{ACAD_REACTORS
330
5C6
102
}
330
5C6
100
AcDbXrecord
280
     1
102
RTVSPropertyOp0
 70
     1
102
RTVSPropertyOp1
 70
     1
102
RTVSPropertyOp2
 70
     1
102
RTVSPropertyOp3
 70
     1
102
RTVSPropertyOp4
 70
     1
102
RTVSPropertyOp5
 70
     1
102
RTVSPropertyOp6
 70
     1
102
RTVSPropertyOp7
 70
     1
102
RTVSPropertyOp8
 70
     1
102
RTVSPropertyOp9
 70
     1
102
RTVSPropertyOp10
 70
     1
102
RTVSPropertyOp11
 70
     1
102
RTVSPropertyOp12
 70
     1
102
RTVSPropertyOp13
 70
     1
102
RTVSPropertyOp14
 70
     1
102
RTVSPropertyOp15
 70
     1
102
RTVSPropertyOp16
 70
     1
102
RTVSPropertyOp17
 70
     1
102
RTVSPropertyOp18
 70
     1
102
RTVSPropertyOp19
 70
     1
102
RTVSPropertyOp20
 70
     1
102
RTVSPropertyOp21
 70
     1
102
RTVSPropertyOp22
 70
     1
102
RTVSPropertyOp23
 70
     1
102
RTVSPropertyOp24
 70
     1
102
RTVSPropertyOp25
 70
     1
102
RTVSPropertyOp26
 70
     1
102
RTVSPropertyOp27
 70
     1
  0
XRECORD
  5
5AB
102
{ACAD_REACTORS
330
5AA
102
}
330
5AA
100
AcDbXrecord
280
     1
102
RTVSPropertyOp0
 70
     1
102
RTVSPropertyOp1
 70
     1
102
RTVSPropertyOp2
 70
     1
102
RTVSPropertyOp3
 70
     1
102
RTVSPropertyOp4
 70
     1
102
RTVSPropertyOp5
 70
     1
102
RTVSPropertyOp6
 70
     1
102
RTVSPropertyOp7
 70
     1
102
RTVSPropertyOp8
 70
     1
102
RTVSPropertyOp9
 70
     1
102
RTVSPropertyOp10
 70
     1
102
RTVSPropertyOp11
 70
     1
102
RTVSPropertyOp12
 70
     1
102
RTVSPropertyOp13
 70
     1
102
RTVSPropertyOp14
 70
     1
102
RTVSPropertyOp15
 70
     1
102
RTVSPropertyOp16
 70
     1
102
RTVSPropertyOp17
 70
     1
102
RTVSPropertyOp18
 70
     1
102
RTVSPropertyOp19
 70
     1
102
RTVSPropertyOp20
 70
     1
102
RTVSPropertyOp21
 70
     1
102
RTVSPropertyOp22
 70
     1
102
RTVSPropertyOp23
 70
     1
102
RTVSPropertyOp24
 70
     1
102
RTVSPropertyOp25
 70
     1
102
RTVSPropertyOp26
 70
     1
102
RTVSPropertyOp27
 70
     1
  0
XRECORD
  5
5AD
102
{ACAD_REACTORS
330
5AC
102
}
330
5AC
100
AcDbXrecord
280
     1
102
RTVSPropertyOp0
 70
     1
102
RTVSPropertyOp1
 70
     1
102
RTVSPropertyOp2
 70
     1
102
RTVSPropertyOp3
 70
     1
102
RTVSPropertyOp4
 70
     1
102
RTVSPropertyOp5
 70
     1
102
RTVSPropertyOp6
 70
     1
102
RTVSPropertyOp7
 70
     1
102
RTVSPropertyOp8
 70
     1
102
RTVSPropertyOp9
 70
     1
102
RTVSPropertyOp10
 70
     1
102
RTVSPropertyOp11
 70
     1
102
RTVSPropertyOp12
 70
     1
102
RTVSPropertyOp13
 70
     1
102
RTVSPropertyOp14
 70
     1
102
RTVSPropertyOp15
 70
     1
102
RTVSPropertyOp16
 70
     1
102
RTVSPropertyOp17
 70
     1
102
RTVSPropertyOp18
 70
     1
102
RTVSPropertyOp19
 70
     1
102
RTVSPropertyOp20
 70
     1
102
RTVSPropertyOp21
 70
     1
102
RTVSPropertyOp22
 70
     1
102
RTVSPropertyOp23
 70
     1
102
RTVSPropertyOp24
 70
     1
102
RTVSPropertyOp25
 70
     1
102
RTVSPropertyOp26
 70
     1
102
RTVSPropertyOp27
 70
     1
  0
XRECORD
  5
5AF
102
{ACAD_REACTORS
330
5AE
102
}
330
5AE
100
AcDbXrecord
280
     1
102
RTVSPropertyOp0
 70
     1
102
RTVSPropertyOp1
 70
     1
102
RTVSPropertyOp2
 70
     1
102
RTVSPropertyOp3
 70
     1
102
RTVSPropertyOp4
 70
     1
102
RTVSPropertyOp5
 70
     1
102
RTVSPropertyOp6
 70
     1
102
RTVSPropertyOp7
 70
     1
102
RTVSPropertyOp8
 70
     1
102
RTVSPropertyOp9
 70
     1
102
RTVSPropertyOp10
 70
     1
102
RTVSPropertyOp11
 70
     1
102
RTVSPropertyOp12
 70
     1
102
RTVSPropertyOp13
 70
     1
102
RTVSPropertyOp14
 70
     1
102
RTVSPropertyOp15
 70
     1
102
RTVSPropertyOp16
 70
     1
102
RTVSPropertyOp17
 70
     1
102
RTVSPropertyOp18
 70
     1
102
RTVSPropertyOp19
 70
     1
102
RTVSPropertyOp20
 70
     1
102
RTVSPropertyOp21
 70
     1
102
RTVSPropertyOp22
 70
     1
102
RTVSPropertyOp23
 70
     1
102
RTVSPropertyOp24
 70
     1
102
RTVSPropertyOp25
 70
     1
102
RTVSPropertyOp26
 70
     1
102
RTVSPropertyOp27
 70
     1
  0
XRECORD
  5
5B1
102
{ACAD_REACTORS
330
5B0
102
}
330
5B0
100
AcDbXrecord
280
     1
102
RTVSPropertyOp0
 70
     1
102
RTVSPropertyOp1
 70
     1
102
RTVSPropertyOp2
 70
     1
102
RTVSPropertyOp3
 70
     1
102
RTVSPropertyOp4
 70
     1
102
RTVSPropertyOp5
 70
     1
102
RTVSPropertyOp6
 70
     1
102
RTVSPropertyOp7
 70
     1
102
RTVSPropertyOp8
 70
     1
102
RTVSPropertyOp9
 70
     1
102
RTVSPropertyOp10
 70
     1
102
RTVSPropertyOp11
 70
     1
102
RTVSPropertyOp12
 70
     1
102
RTVSPropertyOp13
 70
     1
102
RTVSPropertyOp14
 70
     1
102
RTVSPropertyOp15
 70
     1
102
RTVSPropertyOp16
 70
     1
102
RTVSPropertyOp17
 70
     1
102
RTVSPropertyOp18
 70
     1
102
RTVSPropertyOp19
 70
     1
102
RTVSPropertyOp20
 70
     1
102
RTVSPropertyOp21
 70
     1
102
RTVSPropertyOp22
 70
     1
102
RTVSPropertyOp23
 70
     1
102
RTVSPropertyOp24
 70
     1
102
RTVSPropertyOp25
 70
     1
102
RTVSPropertyOp26
 70
     1
102
RTVSPropertyOp27
 70
     1
  0
XRECORD
  5
5C5
102
{ACAD_REACTORS
330
5C4
102
}
330
5C4
100
AcDbXrecord
280
     1
102
RTVSPropertyOp0
 70
     1
102
RTVSPropertyOp1
 70
     1
102
RTVSPropertyOp2
 70
     1
102
RTVSPropertyOp3
 70
     1
102
RTVSPropertyOp4
 70
     1
102
RTVSPropertyOp5
 70
     1
102
RTVSPropertyOp6
 70
     1
102
RTVSPropertyOp7
 70
     1
102
RTVSPropertyOp8
 70
     1
102
RTVSPropertyOp9
 70
     1
102
RTVSPropertyOp10
 70
     1
102
RTVSPropertyOp11
 70
     1
102
RTVSPropertyOp12
 70
     1
102
RTVSPropertyOp13
 70
     1
102
RTVSPropertyOp14
 70
     1
102
RTVSPropertyOp15
 70
     1
102
RTVSPropertyOp16
 70
     1
102
RTVSPropertyOp17
 70
     1
102
RTVSPropertyOp18
 70
     1
102
RTVSPropertyOp19
 70
     1
102
RTVSPropertyOp20
 70
     1
102
RTVSPropertyOp21
 70
     1
102
RTVSPropertyOp22
 70
     1
102
RTVSPropertyOp23
 70
     1
102
RTVSPropertyOp24
 70
     1
102
RTVSPropertyOp25
 70
     1
102
RTVSPropertyOp26
 70
     1
102
RTVSPropertyOp27
 70
     1
  0
XRECORD
  5
5BB
102
{ACAD_REACTORS
330
5BA
102
}
330
5BA
100
AcDbXrecord
280
     1
102
RTVSPropertyOp0
 70
     1
102
RTVSPropertyOp1
 70
     1
102
RTVSPropertyOp2
 70
     1
102
RTVSPropertyOp3
 70
     1
102
RTVSPropertyOp4
 70
     1
102
RTVSPropertyOp5
 70
     1
102
RTVSPropertyOp6
 70
     1
102
RTVSPropertyOp7
 70
     1
102
RTVSPropertyOp8
 70
     1
102
RTVSPropertyOp9
 70
     1
102
RTVSPropertyOp10
 70
     1
102
RTVSPropertyOp11
 70
     1
102
RTVSPropertyOp12
 70
     1
102
RTVSPropertyOp13
 70
     1
102
RTVSPropertyOp14
 70
     1
102
RTVSPropertyOp15
 70
     1
102
RTVSPropertyOp16
 70
     1
102
RTVSPropertyOp17
 70
     1
102
RTVSPropertyOp18
 70
     1
102
RTVSPropertyOp19
 70
     1
102
RTVSPropertyOp20
 70
     1
102
RTVSPropertyOp21
 70
     1
102
RTVSPropertyOp22
 70
     1
102
RTVSPropertyOp23
 70
     1
102
RTVSPropertyOp24
 70
     1
102
RTVSPropertyOp25
 70
     1
102
RTVSPropertyOp26
 70
     1
102
RTVSPropertyOp27
 70
     1
  0
XRECORD
  5
5C3
102
{ACAD_REACTORS
330
5C2
102
}
330
5C2
100
AcDbXrecord
280
     1
102
RTVSPropertyOp0
 70
     1
102
RTVSPropertyOp1
 70
     1
102
RTVSPropertyOp2
 70
     1
102
RTVSPropertyOp3
 70
     1
102
RTVSPropertyOp4
 70
     1
102
RTVSPropertyOp5
 70
     1
102
RTVSPropertyOp6
 70
     1
102
RTVSPropertyOp7
 70
     1
102
RTVSPropertyOp8
 70
     1
102
RTVSPropertyOp9
 70
     1
102
RTVSPropertyOp10
 70
     1
102
RTVSPropertyOp11
 70
     1
102
RTVSPropertyOp12
 70
     1
102
RTVSPropertyOp13
 70
     1
102
RTVSPropertyOp14
 70
     1
102
RTVSPropertyOp15
 70
     1
102
RTVSPropertyOp16
 70
     1
102
RTVSPropertyOp17
 70
     1
102
RTVSPropertyOp18
 70
     1
102
RTVSPropertyOp19
 70
     1
102
RTVSPropertyOp20
 70
     1
102
RTVSPropertyOp21
 70
     1
102
RTVSPropertyOp22
 70
     1
102
RTVSPropertyOp23
 70
     1
102
RTVSPropertyOp24
 70
     1
102
RTVSPropertyOp25
 70
     1
102
RTVSPropertyOp26
 70
     1
102
RTVSPropertyOp27
 70
     1
  0
ENDSEC
  0
EOF
