  0
SECTION
  2
HEADER
  9
$ACADVER
  1
AC1015
  9
$ACADMAINTVER
 70
     6
  9
$DWGCODEPAGE
  3
ANSI_932
  9
$INSBASE
 10
0.0
 20
0.0
 30
0.0
  9
$EXTMIN
 10
-537.6000052988529
 20
-361.3500034734607
 30
0.0
  9
$EXTMAX
 10
529.2000105977058
 20
337.9500069469214
 30
0.0
  9
$LIMMIN
 10
-182.0
 20
-128.5
  9
$LIMMAX
 10
182.0
 20
128.5
  9
$ORTHOMODE
 70
     0
  9
$REGENMODE
 70
     1
  9
$FILLMODE
 70
     1
  9
$QTEXTMODE
 70
     0
  9
$MIRRTEXT
 70
     1
  9
$LTSCALE
 40
0.25
  9
$ATTMODE
 70
     1
  9
$TEXTSIZE
 40
0.2
  9
$TRACEWID
 40
0.05
  9
$TEXTSTYLE
  7
Standard
  9
$CLAYER
  8
0
  9
$CELTYPE
  6
ByLayer
  9
$CECOLOR
 62
   256
  9
$CELTSCALE
 40
1.0
  9
$DISPSILH
 70
     0
  9
$DIMSCALE
 40
1.0
  9
$DIMASZ
 40
3.000001882570243
  9
$DIMEXO
 40
1.0
  9
$DIMDLI
 40
10.0
  9
$DIMRND
 40
0.0
  9
$DIMDLE
 40
0.0
  9
$DIMEXE
 40
1.0
  9
$DIMTP
 40
0.0
  9
$DIMTM
 40
0.0
  9
$DIMTXT
 40
3.0
  9
$DIMCEN
 40
0.0
  9
$DIMTSZ
 40
0.0
  9
$DIMTOL
 70
     0
  9
$DIMLIM
 70
     0
  9
$DIMTIH
 70
     0
  9
$DIMTOH
 70
     0
  9
$DIMSE1
 70
     0
  9
$DIMSE2
 70
     0
  9
$DIMTAD
 70
     1
  9
$DIMZIN
 70
     8
  9
$DIMBLK
  1

  9
$DIMASO
 70
     1
  9
$DIMSHO
 70
     1
  9
$DIMPOST
  1

  9
$DIMAPOST
  1

  9
$DIMALT
 70
     0
  9
$DIMALTD
 70
     2
  9
$DIMALTF
 40
25.4
  9
$DIMLFAC
 40
1.0
  9
$DIMTOFL
 70
     0
  9
$DIMTVP
 40
0.0
  9
$DIMTIX
 70
     0
  9
$DIMSOXD
 70
     0
  9
$DIMSAH
 70
     0
  9
$DIMBLK1
  1

  9
$DIMBLK2
  1

  9
$DIMSTYLE
  2
Standard
  9
$DIMCLRD
 70
     0
  9
$DIMCLRE
 70
     0
  9
$DIMCLRT
 70
     0
  9
$DIMTFAC
 40
0.65
  9
$DIMGAP
 40
0.09
  9
$DIMJUST
 70
     0
  9
$DIMSD1
 70
     0
  9
$DIMSD2
 70
     0
  9
$DIMTOLJ
 70
     0
  9
$DIMTZIN
 70
     0
  9
$DIMALTZ
 70
     0
  9
$DIMALTTZ
 70
     0
  9
$DIMUPT
 70
     0
  9
$DIMDEC
 70
     2
  9
$DIMTDEC
 70
     2
  9
$DIMALTU
 70
     2
  9
$DIMALTTD
 70
     2
  9
$DIMTXSTY
  7
Standard
  9
$DIMAUNIT
 70
     0
  9
$DIMADEC
 70
     2
  9
$DIMALTRND
 40
0.0
  9
$DIMAZIN
 70
     2
  9
$DIMDSEP
 70
    46
  9
$DIMATFIT
 70
     3
  9
$DIMFRAC
 70
     0
  9
$DIMLDRBLK
  1

  9
$DIMLUNIT
 70
     2
  9
$DIMLWD
 70
    -2
  9
$DIMLWE
 70
    -2
  9
$DIMTMOVE
 70
     0
  9
$LUNITS
 70
     2
  9
$LUPREC
 70
     4
  9
$SKETCHINC
 40
0.1
  9
$FILLETRAD
 40
0.5
  9
$AUNITS
 70
     0
  9
$AUPREC
 70
     0
  9
$MENU
  1
.
  9
$ELEVATION
 40
0.0
  9
$PELEVATION
 40
0.0
  9
$THICKNESS
 40
0.0
  9
$LIMCHECK
 70
     0
  9
$CHAMFERA
 40
0.5
  9
$CHAMFERB
 40
0.5
  9
$CHAMFERC
 40
1.0
  9
$CHAMFERD
 40
0.0
  9
$SKPOLY
 70
     0
  9
$TDCREATE
 40
2459607.016972928
  9
$TDUCREATE
 40
2459606.641972928
  9
$TDUPDATE
 40
2459607.01697294
  9
$TDUUPDATE
 40
2459606.64197294
  9
$TDINDWG
 40
0.0000000116
  9
$TDUSRTIMER
 40
0.0000000116
  9
$USRTIMER
 70
     1
  9
$ANGBASE
 50
0.0
  9
$ANGDIR
 70
     0
  9
$PDMODE
 70
     0
  9
$PDSIZE
 40
1.0
  9
$PLINEWID
 40
0.0
  9
$SPLFRAME
 70
     0
  9
$SPLINETYPE
 70
     6
  9
$SPLINESEGS
 70
     8
  9
$HANDSEED
  5
5D6
  9
$SURFTAB1
 70
     6
  9
$SURFTAB2
 70
     6
  9
$SURFTYPE
 70
     6
  9
$SURFU
 70
     6
  9
$SURFV
 70
     6
  9
$UCSBASE
  2

  9
$UCSNAME
  2

  9
$UCSORG
 10
0.0
 20
0.0
 30
0.0
  9
$UCSXDIR
 10
1.0
 20
0.0
 30
0.0
  9
$UCSYDIR
 10
0.0
 20
1.0
 30
0.0
  9
$UCSORTHOREF
  2

  9
$UCSORTHOVIEW
 70
     0
  9
$UCSORGTOP
 10
0.0
 20
0.0
 30
0.0
  9
$UCSORGBOTTOM
 10
0.0
 20
0.0
 30
0.0
  9
$UCSORGLEFT
 10
0.0
 20
0.0
 30
0.0
  9
$UCSORGRIGHT
 10
0.0
 20
0.0
 30
0.0
  9
$UCSORGFRONT
 10
0.0
 20
0.0
 30
0.0
  9
$UCSORGBACK
 10
0.0
 20
0.0
 30
0.0
  9
$PUCSBASE
  2

  9
$PUCSNAME
  2

  9
$PUCSORG
 10
0.0
 20
0.0
 30
0.0
  9
$PUCSXDIR
 10
1.0
 20
0.0
 30
0.0
  9
$PUCSYDIR
 10
0.0
 20
1.0
 30
0.0
  9
$PUCSORTHOREF
  2

  9
$PUCSORTHOVIEW
 70
     0
  9
$PUCSORGTOP
 10
0.0
 20
0.0
 30
0.0
  9
$PUCSORGBOTTOM
 10
0.0
 20
0.0
 30
0.0
  9
$PUCSORGLEFT
 10
0.0
 20
0.0
 30
0.0
  9
$PUCSORGRIGHT
 10
0.0
 20
0.0
 30
0.0
  9
$PUCSORGFRONT
 10
0.0
 20
0.0
 30
0.0
  9
$PUCSORGBACK
 10
0.0
 20
0.0
 30
0.0
  9
$USERI1
 70
     0
  9
$USERI2
 70
     0
  9
$USERI3
 70
     0
  9
$USERI4
 70
     0
  9
$USERI5
 70
     0
  9
$USERR1
 40
0.0
  9
$USERR2
 40
0.0
  9
$USERR3
 40
0.0
  9
$USERR4
 40
0.0
  9
$USERR5
 40
0.0
  9
$WORLDVIEW
 70
     1
  9
$SHADEDGE
 70
     3
  9
$SHADEDIF
 70
    70
  9
$TILEMODE
 70
     1
  9
$MAXACTVP
 70
    64
  9
$PINSBASE
 10
0.0
 20
0.0
 30
0.0
  9
$PLIMCHECK
 70
     0
  9
$PEXTMIN
 10
1.000000000000000E+20
 20
1.000000000000000E+20
 30
1.000000000000000E+20
  9
$PEXTMAX
 10
-1.000000000000000E+20
 20
-1.000000000000000E+20
 30
-1.000000000000000E+20
  9
$PLIMMIN
 10
0.0
 20
0.0
  9
$PLIMMAX
 10
12.0
 20
9.0
  9
$UNITMODE
 70
     0
  9
$VISRETAIN
 70
     0
  9
$PLINEGEN
 70
     1
  9
$PSLTSCALE
 70
     0
  9
$TREEDEPTH
 70
  3020
  9
$CMLSTYLE
  2
Standard
  9
$CMLJUST
 70
     0
  9
$CMLSCALE
 40
1.0
  9
$PROXYGRAPHICS
 70
     0
  9
$MEASUREMENT
 70
     1
  9
$CELWEIGHT
370
    -1
  9
$ENDCAPS
280
     0
  9
$JOINSTYLE
280
     0
  9
$LWDISPLAY
290
     1
  9
$INSUNITS
 70
     4
  9
$HYPERLINKBASE
  1

  9
$STYLESHEET
  1

  9
$XEDIT
290
     1
  9
$CEPSNTYPE
380
     0
  9
$PSTYLEMODE
290
     1
  9
$FINGERPRINTGUID
  2
{4F0FD6AC-9D24-4AEF-AFE9-3DF8A682C43F}
  9
$VERSIONGUID
  2
{FAEB1C32-E019-11D5-929B-00C0DF256EC4}
  9
$EXTNAMES
290
     1
  9
$PSVPSCALE
 40
0.0
  9
$OLESTARTUP
290
     0
  0
ENDSEC
  0
SECTION
  2
CLASSES
  0
CLASS
  1
ACDBDICTIONARYWDFLT
  2
AcDbDictionaryWithDefault
  3
ObjectDBX Classes
 90
        0
280
     0
281
     0
  0
CLASS
  1
VISUALSTYLE
  2
AcDbVisualStyle
  3
ObjectDBX Classes
 90
     4095
280
     0
281
     0
  0
CLASS
  1
MATERIAL
  2
AcDbMaterial
  3
ObjectDBX Classes
 90
     1153
280
     0
281
     0
  0
CLASS
  1
SCALE
  2
AcDbScale
  3
ObjectDBX Classes
 90
     1153
280
     0
281
     0
  0
CLASS
  1
DICTIONARYVAR
  2
AcDbDictionaryVar
  3
ObjectDBX Classes
 90
        0
280
     0
281
     0
  0
CLASS
  1
ACDBPLACEHOLDER
  2
AcDbPlaceHolder
  3
ObjectDBX Classes
 90
        0
280
     0
281
     0
  0
CLASS
  1
LAYOUT
  2
AcDbLayout
  3
ObjectDBX Classes
 90
        0
280
     0
281
     0
  0
ENDSEC
  0
SECTION
  2
TABLES
  0
TABLE
  2
VPORT
  5
8
330
0
100
AcDbSymbolTable
 70
     1
  0
VPORT
  5
29
330
8
100
AcDbSymbolTableRecord
100
AcDbViewportTableRecord
  2
*Active
 70
     0
 10
0.0
 20
0.0
 11
1.0
 21
1.0
 12
-4.199997350573543
 22
-11.69999826326965
 13
0.0
 23
0.0
 14
0.5
 24
0.5
 15
0.5
 25
0.5
 16
0.0
 26
0.0
 36
1.0
 17
0.0
 27
0.0
 37
0.0
 40
237.7620035429299
 41
1.525525525525525
 42
50.0
 43
0.0
 44
0.0
 50
0.0
 51
0.0
 71
     0
 72
  1000
 73
     1
 74
     1
 75
     0
 76
     0
 77
     0
 78
     0
281
     0
 65
     1
110
0.0
120
0.0
130
0.0
111
1.0
121
0.0
131
0.0
112
0.0
122
1.0
132
0.0
 79
     0
146
0.0
  0
ENDTAB
  0
TABLE
  2
LTYPE
  5
5
330
0
100
AcDbSymbolTable
 70
    53
  0
LTYPE
  5
14
330
5
100
AcDbSymbolTableRecord
100
AcDbLinetypeTableRecord
  2
ByBlock
 70
     0
  3

 72
    65
 73
     0
 40
0.0
  0
LTYPE
  5
15
330
5
100
AcDbSymbolTableRecord
100
AcDbLinetypeTableRecord
  2
ByLayer
 70
     0
  3

 72
    65
 73
     0
 40
0.0
  0
LTYPE
  5
16
330
5
100
AcDbSymbolTableRecord
100
AcDbLinetypeTableRecord
  2
Continuous
 70
     0
  3
Solid line
 72
    65
 73
     0
 40
0.0
  0
LTYPE
  5
40
330
5
100
AcDbSymbolTableRecord
100
AcDbLinetypeTableRecord
  2
HIDDENX2
 70
     0
  3
Hidden (2x) ____ ____ ____ ____ ____ ____ ____ 
 72
    65
 73
     2
 40
19.05
 49
12.7
 74
     0
 49
-6.35
 74
     0
  0
LTYPE
  5
41
330
5
100
AcDbSymbolTableRecord
100
AcDbLinetypeTableRecord
  2
HIDDEN
 70
     0
  3
Hidden __ __ __ __ __ __ __ __ __ __ __ __ __ __
 72
    65
 73
     2
 40
9.524999999999999
 49
6.35
 74
     0
 49
-3.175
 74
     0
  0
LTYPE
  5
42
330
5
100
AcDbSymbolTableRecord
100
AcDbLinetypeTableRecord
  2
HIDDEN2
 70
     0
  3
Hidden (.5x) _ _ _ _ _ _ _ _ _ _ _ _ _ _ _ _ _ 
 72
    65
 73
     2
 40
4.762499999999999
 49
3.175
 74
     0
 49
-1.5875
 74
     0
  0
LTYPE
  5
43
330
5
100
AcDbSymbolTableRecord
100
AcDbLinetypeTableRecord
  2
DASHED
 70
     0
  3
Dashed __ __ __ __ __ __ __ __ __ __ __ __ __ _
 72
    65
 73
     2
 40
19.05
 49
12.7
 74
     0
 49
-6.35
 74
     0
  0
LTYPE
  5
44
330
5
100
AcDbSymbolTableRecord
100
AcDbLinetypeTableRecord
  2
DASHED2
 70
     0
  3
Dashed (.5x) _ _ _ _ _ _ _ _ _ _ _ _ _ _ _ _ _ 
 72
    65
 73
     2
 40
9.524999999999999
 49
6.35
 74
     0
 49
-3.175
 74
     0
  0
LTYPE
  5
45
330
5
100
AcDbSymbolTableRecord
100
AcDbLinetypeTableRecord
  2
DASHEDX2
 70
     0
  3
Dashed (2x) ____  ____  ____  ____  ____  ___
 72
    65
 73
     2
 40
38.09999999999999
 49
25.4
 74
     0
 49
-12.7
 74
     0
  0
LTYPE
  5
46
330
5
100
AcDbSymbolTableRecord
100
AcDbLinetypeTableRecord
  2
DOTX2
 70
     0
  3
Dot (2x) .  .  .  .  .  .  .  .  .  .  .  .  .  .
 72
    65
 73
     2
 40
12.7
 49
0.0
 74
     0
 49
-12.7
 74
     0
  0
LTYPE
  5
47
330
5
100
AcDbSymbolTableRecord
100
AcDbLinetypeTableRecord
  2
DOT
 70
     0
  3
Dot . . . . . . . . . . . . . . . . . . . . . . . .
 72
    65
 73
     2
 40
6.35
 49
0.0
 74
     0
 49
-6.35
 74
     0
  0
LTYPE
  5
48
330
5
100
AcDbSymbolTableRecord
100
AcDbLinetypeTableRecord
  2
DOT2
 70
     0
  3
Dot (.5x) ........................................
 72
    65
 73
     2
 40
3.175
 49
0.0
 74
     0
 49
-3.175
 74
     0
  0
LTYPE
  5
49
330
5
100
AcDbSymbolTableRecord
100
AcDbLinetypeTableRecord
  2
CENTERX2
 70
     0
  3
Center (2x) ________  __  ________  __  _____
 72
    65
 73
     4
 40
101.6
 49
63.5
 74
     0
 49
-12.7
 74
     0
 49
12.7
 74
     0
 49
-12.7
 74
     0
  0
LTYPE
  5
4A
330
5
100
AcDbSymbolTableRecord
100
AcDbLinetypeTableRecord
  2
CENTER
 70
     0
  3
Center ____ _ ____ _ ____ _ ____ _ ____ _ ____
 72
    65
 73
     4
 40
50.8
 49
31.75
 74
     0
 49
-6.35
 74
     0
 49
6.35
 74
     0
 49
-6.35
 74
     0
  0
LTYPE
  5
4B
330
5
100
AcDbSymbolTableRecord
100
AcDbLinetypeTableRecord
  2
CENTER2
 70
     0
  3
Center (.5x) ___ _ ___ _ ___ _ ___ _ ___ _ ___
 72
    65
 73
     4
 40
28.575
 49
19.05
 74
     0
 49
-3.175
 74
     0
 49
3.175
 74
     0
 49
-3.175
 74
     0
  0
LTYPE
  5
4C
330
5
100
AcDbSymbolTableRecord
100
AcDbLinetypeTableRecord
  2
DASHDOTX2
 70
     0
  3
Dash dot (2x) ____  .  ____  .  ____  .  ___
 72
    65
 73
     4
 40
50.8
 49
25.4
 74
     0
 49
-12.7
 74
     0
 49
0.0
 74
     0
 49
-12.7
 74
     0
  0
LTYPE
  5
4D
330
5
100
AcDbSymbolTableRecord
100
AcDbLinetypeTableRecord
  2
DASHDOT
 70
     0
  3
Dash dot __ . __ . __ . __ . __ . __ . __ . __
 72
    65
 73
     4
 40
25.4
 49
12.7
 74
     0
 49
-6.35
 74
     0
 49
0.0
 74
     0
 49
-6.35
 74
     0
  0
LTYPE
  5
4E
330
5
100
AcDbSymbolTableRecord
100
AcDbLinetypeTableRecord
  2
DASHDOT2
 70
     0
  3
Dash dot (.5x) _._._._._._._._._._._._._._._.
 72
    65
 73
     4
 40
12.7
 49
6.35
 74
     0
 49
-3.175
 74
     0
 49
0.0
 74
     0
 49
-3.175
 74
     0
  0
LTYPE
  5
4F
330
5
100
AcDbSymbolTableRecord
100
AcDbLinetypeTableRecord
  2
DIVIDEX2
 70
     0
  3
Divide (2x) ________  .  .  ________  .  .  _
 72
    65
 73
     6
 40
63.5
 49
25.4
 74
     0
 49
-12.7
 74
     0
 49
0.0
 74
     0
 49
-12.7
 74
     0
 49
0.0
 74
     0
 49
-12.7
 74
     0
  0
LTYPE
  5
50
330
5
100
AcDbSymbolTableRecord
100
AcDbLinetypeTableRecord
  2
DIVIDE
 70
     0
  3
Divide ____ . . ____ . . ____ . . ____ . . ____
 72
    65
 73
     6
 40
31.75
 49
12.7
 74
     0
 49
-6.35
 74
     0
 49
0.0
 74
     0
 49
-6.35
 74
     0
 49
0.0
 74
     0
 49
-6.35
 74
     0
  0
LTYPE
  5
51
330
5
100
AcDbSymbolTableRecord
100
AcDbLinetypeTableRecord
  2
DIVIDE2
 70
     0
  3
Divide (.5x) __..__..__..__..__..__..__..__.._
 72
    65
 73
     6
 40
15.875
 49
6.35
 74
     0
 49
-3.175
 74
     0
 49
0.0
 74
     0
 49
-3.175
 74
     0
 49
0.0
 74
     0
 49
-3.175
 74
     0
  0
LTYPE
  5
52
330
5
100
AcDbSymbolTableRecord
100
AcDbLinetypeTableRecord
  2
BORDERX2
 70
     0
  3
Border (2x) ____  ____  .  ____  ____  .  ___
 72
    65
 73
     6
 40
88.89999999999999
 49
25.4
 74
     0
 49
-12.7
 74
     0
 49
25.4
 74
     0
 49
-12.7
 74
     0
 49
0.0
 74
     0
 49
-12.7
 74
     0
  0
LTYPE
  5
53
330
5
100
AcDbSymbolTableRecord
100
AcDbLinetypeTableRecord
  2
BORDER
 70
     0
  3
Border __ __ . __ __ . __ __ . __ __ . __ __ .
 72
    65
 73
     6
 40
44.45
 49
12.7
 74
     0
 49
-6.35
 74
     0
 49
12.7
 74
     0
 49
-6.35
 74
     0
 49
0.0
 74
     0
 49
-6.35
 74
     0
  0
LTYPE
  5
54
330
5
100
AcDbSymbolTableRecord
100
AcDbLinetypeTableRecord
  2
BORDER2
 70
     0
  3
Border (.5x) __.__.__.__.__.__.__.__.__.__.__.
 72
    65
 73
     6
 40
22.225
 49
6.35
 74
     0
 49
-3.175
 74
     0
 49
6.35
 74
     0
 49
-3.175
 74
     0
 49
0.0
 74
     0
 49
-3.175
 74
     0
  0
LTYPE
  5
55
330
5
100
AcDbSymbolTableRecord
100
AcDbLinetypeTableRecord
  2
PHANTOMX2
 70
     0
  3
Phantom (2x) ____________    ____    ____   _
 72
    65
 73
     6
 40
127.0
 49
63.5
 74
     0
 49
-12.7
 74
     0
 49
12.7
 74
     0
 49
-12.7
 74
     0
 49
12.7
 74
     0
 49
-12.7
 74
     0
  0
LTYPE
  5
56
330
5
100
AcDbSymbolTableRecord
100
AcDbLinetypeTableRecord
  2
PHANTOM
 70
     0
  3
Phantom ______  __  __  ______  __  __  ______ 
 72
    65
 73
     6
 40
63.5
 49
31.75
 74
     0
 49
-6.35
 74
     0
 49
6.35
 74
     0
 49
-6.35
 74
     0
 49
6.35
 74
     0
 49
-6.35
 74
     0
  0
LTYPE
  5
57
330
5
100
AcDbSymbolTableRecord
100
AcDbLinetypeTableRecord
  2
PHANTOM2
 70
     0
  3
Phantom (.5x) ___ _ _ ___ _ _ ___ _ _ ___ _ _
 72
    65
 73
     6
 40
31.75
 49
15.875
 74
     0
 49
-3.175
 74
     0
 49
3.175
 74
     0
 49
-3.175
 74
     0
 49
3.175
 74
     0
 49
-3.175
 74
     0
  0
LTYPE
  5
58
330
5
100
AcDbSymbolTableRecord
100
AcDbLinetypeTableRecord
  2
ACAD_ISO06W100
 70
     0
  3
ISO long-dash triple-dot ____ ... ____ ... ____
 72
    65
 73
     8
 40
36.0
 49
24.0
 74
     0
 49
-3.0
 74
     0
 49
0.0
 74
     0
 49
-3.0
 74
     0
 49
0.0
 74
     0
 49
-3.0
 74
     0
 49
0.0
 74
     0
 49
-3.0
 74
     0
  0
LTYPE
  5
59
330
5
100
AcDbSymbolTableRecord
100
AcDbLinetypeTableRecord
  2
ACAD_ISO13W100
 70
     0
  3
ISO double-dash double-dot __ __ . . __ __ . . _
 72
    65
 73
     8
 40
36.0
 49
12.0
 74
     0
 49
-3.0
 74
     0
 49
12.0
 74
     0
 49
-3.0
 74
     0
 49
0.0
 74
     0
 49
-3.0
 74
     0
 49
0.0
 74
     0
 49
-3.0
 74
     0
  0
LTYPE
  5
5A
330
5
100
AcDbSymbolTableRecord
100
AcDbLinetypeTableRecord
  2
ACAD_ISO14W100
 70
     0
  3
ISO dash triple-dot __ . . . __ . . . __ . . . _
 72
    65
 73
     8
 40
24.0
 49
12.0
 74
     0
 49
-3.0
 74
     0
 49
0.0
 74
     0
 49
-3.0
 74
     0
 49
0.0
 74
     0
 49
-3.0
 74
     0
 49
0.0
 74
     0
 49
-3.0
 74
     0
  0
LTYPE
  5
5B
330
5
100
AcDbSymbolTableRecord
100
AcDbLinetypeTableRecord
  2
ACAD_ISO02W100
 70
     0
  3
ISO dash __ __ __ __ __ __ __ __ __ __ __ __ __
 72
    65
 73
     2
 40
15.0
 49
12.0
 74
     0
 49
-3.0
 74
     0
  0
LTYPE
  5
5C
330
5
100
AcDbSymbolTableRecord
100
AcDbLinetypeTableRecord
  2
ACAD_ISO03W100
 70
     0
  3
ISO dash space __    __    __    __    __    __
 72
    65
 73
     2
 40
30.0
 49
12.0
 74
     0
 49
-18.0
 74
     0
  0
LTYPE
  5
5D
330
5
100
AcDbSymbolTableRecord
100
AcDbLinetypeTableRecord
  2
ACAD_ISO04W100
 70
     0
  3
ISO long-dash dot ____ . ____ . ____ . ____ . _
 72
    65
 73
     4
 40
30.0
 49
24.0
 74
     0
 49
-3.0
 74
     0
 49
0.0
 74
     0
 49
-3.0
 74
     0
  0
LTYPE
  5
5E
330
5
100
AcDbSymbolTableRecord
100
AcDbLinetypeTableRecord
  2
ACAD_ISO05W100
 70
     0
  3
ISO long-dash double-dot ____ .. ____ .. ____ . 
 72
    65
 73
     6
 40
33.0
 49
24.0
 74
     0
 49
-3.0
 74
     0
 49
0.0
 74
     0
 49
-3.0
 74
     0
 49
0.0
 74
     0
 49
-3.0
 74
     0
  0
LTYPE
  5
5F
330
5
100
AcDbSymbolTableRecord
100
AcDbLinetypeTableRecord
  2
ACAD_ISO07W100
 70
     0
  3
ISO dot . . . . . . . . . . . . . . . . . . . . 
 72
    65
 73
     2
 40
3.0
 49
0.0
 74
     0
 49
-3.0
 74
     0
  0
LTYPE
  5
60
330
5
100
AcDbSymbolTableRecord
100
AcDbLinetypeTableRecord
  2
ACAD_ISO08W100
 70
     0
  3
ISO long-dash short-dash ____ __ ____ __ ____ _
 72
    65
 73
     4
 40
36.0
 49
24.0
 74
     0
 49
-3.0
 74
     0
 49
6.0
 74
     0
 49
-3.0
 74
     0
  0
LTYPE
  5
61
330
5
100
AcDbSymbolTableRecord
100
AcDbLinetypeTableRecord
  2
ACAD_ISO09W100
 70
     0
  3
ISO long-dash double-short-dash ____ __ __ ____
 72
    65
 73
     6
 40
45.0
 49
24.0
 74
     0
 49
-3.0
 74
     0
 49
6.0
 74
     0
 49
-3.0
 74
     0
 49
6.0
 74
     0
 49
-3.0
 74
     0
  0
LTYPE
  5
62
330
5
100
AcDbSymbolTableRecord
100
AcDbLinetypeTableRecord
  2
ACAD_ISO10W100
 70
     0
  3
ISO dash dot __ . __ . __ . __ . __ . __ . __ . 
 72
    65
 73
     4
 40
18.0
 49
12.0
 74
     0
 49
-3.0
 74
     0
 49
0.0
 74
     0
 49
-3.0
 74
     0
  0
LTYPE
  5
63
330
5
100
AcDbSymbolTableRecord
100
AcDbLinetypeTableRecord
  2
ACAD_ISO11W100
 70
     0
  3
ISO double-dash dot __ __ . __ __ . __ __ . __ _
 72
    65
 73
     6
 40
33.0
 49
12.0
 74
     0
 49
-3.0
 74
     0
 49
12.0
 74
     0
 49
-3.0
 74
     0
 49
0.0
 74
     0
 49
-3.0
 74
     0
  0
LTYPE
  5
64
330
5
100
AcDbSymbolTableRecord
100
AcDbLinetypeTableRecord
  2
ACAD_ISO12W100
 70
     0
  3
ISO dash double-dot __ . . __ . . __ . . __ . . 
 72
    65
 73
     6
 40
21.0
 49
12.0
 74
     0
 49
-3.0
 74
     0
 49
0.0
 74
     0
 49
-3.0
 74
     0
 49
0.0
 74
     0
 49
-3.0
 74
     0
  0
LTYPE
  5
65
330
5
100
AcDbSymbolTableRecord
100
AcDbLinetypeTableRecord
  2
ACAD_ISO15W100
 70
     0
  3
ISO double-dash triple-dot __ __ . . . __ __ . .
 72
    65
 73
    10
 40
39.0
 49
12.0
 74
     0
 49
-3.0
 74
     0
 49
12.0
 74
     0
 49
-3.0
 74
     0
 49
0.0
 74
     0
 49
-3.0
 74
     0
 49
0.0
 74
     0
 49
-3.0
 74
     0
 49
0.0
 74
     0
 49
-3.0
 74
     0
  0
LTYPE
  5
66
330
5
100
AcDbSymbolTableRecord
100
AcDbLinetypeTableRecord
  2
JIS_02_0.7
 70
     0
  3
HIDDEN0.75 _ _ _ _ _ _ _ _ _ _ _ _ _ _ _ _ _ 
 72
    65
 73
     2
 40
1.35
 49
0.75
 74
     0
 49
-0.6
 74
     0
  0
LTYPE
  5
67
330
5
100
AcDbSymbolTableRecord
100
AcDbLinetypeTableRecord
  2
JIS_02_1.0
 70
     0
  3
HIDDEN01 _ _ _ _ _ _ _ _ _ _ _ _ _ _ _ _ _ 
 72
    65
 73
     2
 40
2.0
 49
1.0
 74
     0
 49
-1.0
 74
     0
  0
LTYPE
  5
68
330
5
100
AcDbSymbolTableRecord
100
AcDbLinetypeTableRecord
  2
JIS_02_1.2
 70
     0
  3
HIDDEN01.25  _ _ _ _ _ _ _ _ _ _ _ _ _ _ _ _ _ 
 72
    65
 73
     2
 40
2.5
 49
1.25
 74
     0
 49
-1.25
 74
     0
  0
LTYPE
  5
69
330
5
100
AcDbSymbolTableRecord
100
AcDbLinetypeTableRecord
  2
JIS_02_2.0
 70
     0
  3
HIDDEN02 __ __ __ __ __ __ __ __ __ __ __ 
 72
    65
 73
     2
 40
3.0
 49
2.0
 74
     0
 49
-1.0
 74
     0
  0
LTYPE
  5
6A
330
5
100
AcDbSymbolTableRecord
100
AcDbLinetypeTableRecord
  2
JIS_02_4.0
 70
     0
  3
HIDDEN04 ____ ____ ____ ____ ____ ____ ____ 
 72
    65
 73
     2
 40
5.5
 49
4.0
 74
     0
 49
-1.5
 74
     0
  0
LTYPE
  5
6B
330
5
100
AcDbSymbolTableRecord
100
AcDbLinetypeTableRecord
  2
JIS_08_11
 70
     0
  3
1SASEN11 ___ _ ___ _ ___ _ ___ _ ___ _ ___
 72
    65
 73
     4
 40
12.8
 49
11.0
 74
     0
 49
-0.6
 74
     0
 49
0.6
 74
     0
 49
-0.6
 74
     0
  0
LTYPE
  5
6C
330
5
100
AcDbSymbolTableRecord
100
AcDbLinetypeTableRecord
  2
JIS_08_15
 70
     0
  3
1SASEN15 ____ _ ____ _ ____ _ ____ _ ____ 
 72
    65
 73
     4
 40
17.25
 49
15.0
 74
     0
 49
-0.75
 74
     0
 49
0.75
 74
     0
 49
-0.75
 74
     0
  0
LTYPE
  5
6D
330
5
100
AcDbSymbolTableRecord
100
AcDbLinetypeTableRecord
  2
JIS_08_25
 70
     0
  3
1SASEN25 ________  __  ________  __  _____
 72
    65
 73
     4
 40
28.0
 49
25.0
 74
     0
 49
-1.125
 74
     0
 49
0.75
 74
     0
 49
-1.125
 74
     0
  0
LTYPE
  5
6E
330
5
100
AcDbSymbolTableRecord
100
AcDbLinetypeTableRecord
  2
JIS_08_37
 70
     0
  3
1SASEN37 ________  __  ________  __  _____
 72
    65
 73
     4
 40
40.5
 49
37.5
 74
     0
 49
-1.125
 74
     0
 49
0.75
 74
     0
 49
-1.125
 74
     0
  0
LTYPE
  5
6F
330
5
100
AcDbSymbolTableRecord
100
AcDbLinetypeTableRecord
  2
JIS_08_50
 70
     0
  3
1SASEN50 _______________  __  ____________
 72
    65
 73
     4
 40
53.0
 49
50.0
 74
     0
 49
-1.125
 74
     0
 49
0.75
 74
     0
 49
-1.125
 74
     0
  0
LTYPE
  5
70
330
5
100
AcDbSymbolTableRecord
100
AcDbLinetypeTableRecord
  2
JIS_09_08
 70
     0
  3
2SASEN8 __ _ _ __ _ _ __ _ _ __ _ _ __ _ _ 
 72
    65
 73
     6
 40
10.75
 49
8.0
 74
     0
 49
-0.55
 74
     0
 49
0.55
 74
     0
 49
-0.55
 74
     0
 49
0.55
 74
     0
 49
-0.55
 74
     0
  0
LTYPE
  5
71
330
5
100
AcDbSymbolTableRecord
100
AcDbLinetypeTableRecord
  2
JIS_09_15
 70
     0
  3
2SASEN15 ___ _ _ ___ _ _ ___ _ _ ___ _ _ ___ 
 72
    65
 73
     6
 40
18.9
 49
15.0
 74
     0
 49
-0.9
 74
     0
 49
0.6
 74
     0
 49
-0.9
 74
     0
 49
0.6
 74
     0
 49
-0.9
 74
     0
  0
LTYPE
  5
72
330
5
100
AcDbSymbolTableRecord
100
AcDbLinetypeTableRecord
  2
JIS_09_29
 70
     0
  3
2SASEN29 ______　__  __  ______　__  __  ___
 72
    65
 73
     6
 40
34.0
 49
29.0
 74
     0
 49
-1.2
 74
     0
 49
0.7
 74
     0
 49
-1.2
 74
     0
 49
0.7
 74
     0
 49
-1.2
 74
     0
  0
LTYPE
  5
73
330
5
100
AcDbSymbolTableRecord
100
AcDbLinetypeTableRecord
  2
JIS_09_50
 70
     0
  3
2SASEN50 ____________　__  __  _____________
 72
    65
 73
     6
 40
55.0
 49
50.0
 74
     0
 49
-1.2
 74
     0
 49
0.7
 74
     0
 49
-1.2
 74
     0
 49
0.7
 74
     0
 49
-1.2
 74
     0
  0
ENDTAB
  0
TABLE
  2
LAYER
  5
2
330
0
100
AcDbSymbolTable
 70
     5
  0
LAYER
  5
10
330
2
100
AcDbSymbolTableRecord
100
AcDbLayerTableRecord
  2
0
 70
     0
 62
     7
  6
Continuous
370
    -3
390
F
  0
LAYER
  5
74
330
2
100
AcDbSymbolTableRecord
100
AcDbLayerTableRecord
  2
16
 70
     0
 62
     7
  6
Continuous
370
    -3
390
F
  0
LAYER
  5
75
330
2
100
AcDbSymbolTableRecord
100
AcDbLayerTableRecord
  2
19
 70
     0
 62
     7
  6
Continuous
370
    -3
390
F
  0
LAYER
  5
76
330
2
100
AcDbSymbolTableRecord
100
AcDbLayerTableRecord
  2
22
 70
     0
 62
     7
  6
Continuous
370
    -3
390
F
  0
LAYER
  5
77
330
2
100
AcDbSymbolTableRecord
100
AcDbLayerTableRecord
  2
32
 70
     0
 62
     7
  6
Continuous
370
    -3
390
F
  0
ENDTAB
  0
TABLE
  2
STYLE
  5
3
330
0
100
AcDbSymbolTable
 70
     2
  0
STYLE
  5
11
330
3
100
AcDbSymbolTableRecord
100
AcDbTextStyleTableRecord
  2
Standard
 70
     0
 40
0.0
 41
1.0
 50
0.0
 71
     0
 42
0.2
  3
txt.shx
  4
bigfont.shx
  0
STYLE
  5
9B
330
3
100
AcDbSymbolTableRecord
100
AcDbTextStyleTableRecord
  2
dcStyle0
 70
     0
 40
0.0
 41
0.833333335493827
 50
0.0
 71
     0
 42
0.2
  3
txt.shx
  4
bigfont
  0
ENDTAB
  0
TABLE
  2
VIEW
  5
6
330
0
100
AcDbSymbolTable
 70
     0
  0
ENDTAB
  0
TABLE
  2
UCS
  5
7
330
0
100
AcDbSymbolTable
 70
     0
  0
ENDTAB
  0
TABLE
  2
APPID
  5
9
330
0
100
AcDbSymbolTable
 70
     2
  0
APPID
  5
12
330
9
100
AcDbSymbolTableRecord
100
AcDbRegAppTableRecord
  2
ACAD
 70
     0
  0
APPID
  5
3F
330
9
100
AcDbSymbolTableRecord
100
AcDbRegAppTableRecord
  2
DaFusionOut
 70
     0
  0
ENDTAB
  0
TABLE
  2
DIMSTYLE
  5
A
330
0
100
AcDbSymbolTable
 70
     1
100
AcDbDimStyleTable
  0
DIMSTYLE
105
27
330
A
100
AcDbSymbolTableRecord
100
AcDbDimStyleTableRecord
  2
Standard
 70
     0
178
     0
340
11
  0
ENDTAB
  0
TABLE
  2
BLOCK_RECORD
  5
1
330
0
100
AcDbSymbolTable
 70
     1
  0
BLOCK_RECORD
  5
1F
330
1
100
AcDbSymbolTableRecord
100
AcDbBlockTableRecord
  2
*Model_Space
340
22
  0
BLOCK_RECORD
  5
1B
330
1
100
AcDbSymbolTableRecord
100
AcDbBlockTableRecord
  2
*Paper_Space
340
1E
  0
BLOCK_RECORD
  5
23
330
1
100
AcDbSymbolTableRecord
100
AcDbBlockTableRecord
  2
*Paper_Space0
340
26
  0
ENDTAB
  0
ENDSEC
  0
SECTION
  2
BLOCKS
  0
BLOCK
  5
20
330
1F
100
AcDbEntity
  8
0
100
AcDbBlockBegin
  2
*Model_Space
 70
     0
 10
0.0
 20
0.0
 30
0.0
  3
*Model_Space
  1

  0
ENDBLK
  5
21
330
1F
100
AcDbEntity
  8
0
100
AcDbBlockEnd
  0
BLOCK
  5
1C
330
1B
100
AcDbEntity
 67
     1
  8
0
100
AcDbBlockBegin
  2
*Paper_Space
 70
     0
 10
0.0
 20
0.0
 30
0.0
  3
*Paper_Space
  1

  0
ENDBLK
  5
1D
330
1B
100
AcDbEntity
 67
     1
  8
0
100
AcDbBlockEnd
  0
BLOCK
  5
24
330
23
100
AcDbEntity
  8
0
100
AcDbBlockBegin
  2
*Paper_Space0
 70
     0
 10
0.0
 20
0.0
 30
0.0
  3
*Paper_Space0
  1

  0
ENDBLK
  5
25
330
23
100
AcDbEntity
  8
0
100
AcDbBlockEnd
  0
ENDSEC
  0
SECTION
  2
ENTITIES
  0
LINE
  5
79
330
1F
100
AcDbEntity
  8
0
  6
Continuous
 62
   150
370
    25
100
AcDbLine
 10
-172.3999998569489
 20
-115.1499998047948
 30
0.0
 11
-172.3999998569489
 21
104.8500034734607
 31
0.0
  0
LINE
  5
7A
330
1F
100
AcDbEntity
  8
0
  6
Continuous
 62
   150
370
    25
100
AcDbLine
 10
-172.3999998569489
 20
104.8500034734607
 30
0.0
 11
173.6000052988529
 21
104.8500034734607
 31
0.0
  0
LINE
  5
7B
330
1F
100
AcDbEntity
  8
0
  6
Continuous
 62
   150
370
    25
100
AcDbLine
 10
173.6000052988529
 20
104.8500034734607
 30
0.0
 11
173.6000052988529
 21
-115.1499998047948
 31
0.0
  0
LINE
  5
7C
330
1F
100
AcDbEntity
  8
0
  6
Continuous
 62
   150
370
    25
100
AcDbLine
 10
173.6000052988529
 20
-115.1499998047948
 30
0.0
 11
-172.3999998569489
 21
-115.1499998047948
 31
0.0
  0
LINE
  5
7D
330
1F
100
AcDbEntity
  8
0
  6
Continuous
 62
   150
370
    25
100
AcDbLine
 10
173.6000052988529
 20
-85.14999935775995
 30
0.0
 11
11.60000288486481
 21
-85.14999935775995
 31
0.0
  0
LINE
  5
7E
330
1F
100
AcDbEntity
  8
0
  6
Continuous
 62
   150
370
    25
100
AcDbLine
 10
11.60000288486481
 20
-85.14999935775995
 30
0.0
 11
11.60000288486481
 21
-115.1499998047948
 31
0.0
  0
LINE
  5
7F
330
1F
100
AcDbEntity
  8
0
  6
Continuous
 62
   150
370
    25
100
AcDbLine
 10
11.60000288486481
 20
-98.14999955147505
 30
0.0
 11
97.60000416636467
 21
-98.14999955147505
 31
0.0
  0
LINE
  5
80
330
1F
100
AcDbEntity
  8
0
  6
Continuous
 62
   150
370
    25
100
AcDbLine
 10
97.60000416636467
 20
-89.64999942481518
 30
0.0
 11
11.60000288486481
 21
-89.64999942481518
 31
0.0
  0
LINE
  5
81
330
1F
100
AcDbEntity
  8
0
  6
Continuous
 62
   150
370
    25
100
AcDbLine
 10
24.6000030785799
 20
-85.14999935775995
 30
0.0
 11
24.6000030785799
 21
-98.14999955147505
 31
0.0
  0
LINE
  5
82
330
1F
100
AcDbEntity
  8
0
  6
Continuous
 62
   150
370
    25
100
AcDbLine
 10
37.600003272295
 20
-98.14999955147505
 30
0.0
 11
37.600003272295
 21
-85.14999935775995
 31
0.0
  0
LINE
  5
83
330
1F
100
AcDbEntity
  8
0
  6
Continuous
 62
   150
370
    25
100
AcDbLine
 10
50.60000346601009
 20
-85.14999935775995
 30
0.0
 11
50.60000346601009
 21
-98.14999955147505
 31
0.0
  0
LINE
  5
84
330
1F
100
AcDbEntity
  8
0
  6
Continuous
 62
   150
370
    25
100
AcDbLine
 10
76.60000385344028
 20
-98.14999955147505
 30
0.0
 11
76.60000385344028
 21
-85.14999935775995
 31
0.0
  0
LINE
  5
85
330
1F
100
AcDbEntity
  8
0
  6
Continuous
 62
   150
370
    25
100
AcDbLine
 10
97.60000416636467
 20
-85.14999935775995
 30
0.0
 11
97.60000416636467
 21
-115.1499998047948
 31
0.0
  0
LINE
  5
86
330
1F
100
AcDbEntity
  8
0
  6
Continuous
 62
   150
370
    25
100
AcDbLine
 10
102.6000042408705
 20
-115.1499998047948
 30
0.0
 11
102.6000042408705
 21
-101.6499996036291
 31
0.0
  0
LINE
  5
87
330
1F
100
AcDbEntity
  8
0
  6
Continuous
 62
   150
370
    25
100
AcDbLine
 10
97.60000416636467
 20
-101.6499996036291
 30
0.0
 11
173.6000052988529
 21
-101.6499996036291
 31
0.0
  0
LINE
  5
88
330
1F
100
AcDbEntity
  8
0
  6
Continuous
 62
   150
370
    25
100
AcDbLine
 10
169.6000052392483
 20
-95.64999951422215
 30
0.0
 11
101.6000042259693
 21
-95.64999951422215
 31
0.0
  0
LINE
  5
89
330
1F
100
AcDbEntity
  8
0
  6
Continuous
 62
   150
370
    25
100
AcDbLine
 10
20.60000301897526
 20
-110.2499997317791
 30
0.0
 11
25.10000308603048
 21
-107.7499996945262
 31
0.0
  0
LINE
  5
8A
330
1F
100
AcDbEntity
  8
0
  6
Continuous
 62
   150
370
    25
100
AcDbLine
 10
25.10000308603048
 20
-107.7499996945262
 30
0.0
 11
29.60000315308571
 21
-110.2499997317791
 31
0.0
  0
LINE
  5
8B
330
1F
100
AcDbEntity
  8
0
  6
Continuous
 62
   150
370
    25
100
AcDbLine
 10
29.60000315308571
 20
-110.2499997317791
 30
0.0
 11
25.10000308603048
 21
-112.749999769032
 31
0.0
  0
LINE
  5
8C
330
1F
100
AcDbEntity
  8
0
  6
Continuous
 62
   150
370
    25
100
AcDbLine
 10
25.10000308603048
 20
-112.749999769032
 30
0.0
 11
20.60000301897526
 21
-110.2499997317791
 31
0.0
  0
LINE
  5
8D
330
1F
100
AcDbEntity
  8
0
  6
Continuous
 62
   150
370
    25
100
AcDbLine
 10
24.6000030785799
 20
-108.7499997094274
 30
0.0
 11
25.60000309348106
 21
-108.7499997094274
 31
0.0
  0
LINE
  5
8E
330
1F
100
AcDbEntity
  8
0
  6
Continuous
 62
   150
370
    25
100
AcDbLine
 10
25.60000309348106
 20
-108.7499997094274
 30
0.0
 11
25.60000309348106
 21
-111.7499997541308
 31
0.0
  0
LINE
  5
8F
330
1F
100
AcDbEntity
  8
0
  6
Continuous
 62
   150
370
    25
100
AcDbLine
 10
25.60000309348106
 20
-111.7499997541308
 30
0.0
 11
24.6000030785799
 21
-111.7499997541308
 31
0.0
  0
LINE
  5
90
330
1F
100
AcDbEntity
  8
0
  6
Continuous
 62
   150
370
    25
100
AcDbLine
 10
24.6000030785799
 20
-111.7499997541308
 30
0.0
 11
24.6000030785799
 21
-108.7499997094274
 31
0.0
  0
LINE
  5
91
330
1F
100
AcDbEntity
  8
0
  6
Continuous
 62
   150
370
    25
100
AcDbLine
 10
24.6000030785799
 20
-108.7499997094274
 30
0.0
 11
24.80000308156013
 21
-108.7499997094274
 31
0.0
  0
LINE
  5
92
330
1F
100
AcDbEntity
  8
0
  6
Continuous
 62
   150
370
    25
100
AcDbLine
 10
24.80000308156013
 20
-108.7499997094274
 30
0.0
 11
24.80000308156013
 21
-111.7499997541308
 31
0.0
  0
LINE
  5
93
330
1F
100
AcDbEntity
  8
0
  6
Continuous
 62
   150
370
    25
100
AcDbLine
 10
24.80000308156013
 20
-111.7499997541308
 30
0.0
 11
25.00000308454037
 21
-111.7499997541308
 31
0.0
  0
LINE
  5
94
330
1F
100
AcDbEntity
  8
0
  6
Continuous
 62
   150
370
    25
100
AcDbLine
 10
25.00000308454037
 20
-111.7499997541308
 30
0.0
 11
25.00000308454037
 21
-108.7499997094274
 31
0.0
  0
LINE
  5
95
330
1F
100
AcDbEntity
  8
0
  6
Continuous
 62
   150
370
    25
100
AcDbLine
 10
25.00000308454037
 20
-108.7499997094274
 30
0.0
 11
25.2000030875206
 21
-108.7499997094274
 31
0.0
  0
LINE
  5
96
330
1F
100
AcDbEntity
  8
0
  6
Continuous
 62
   150
370
    25
100
AcDbLine
 10
25.2000030875206
 20
-108.7499997094274
 30
0.0
 11
25.2000030875206
 21
-111.7499997541308
 31
0.0
  0
LINE
  5
97
330
1F
100
AcDbEntity
  8
0
  6
Continuous
 62
   150
370
    25
100
AcDbLine
 10
25.2000030875206
 20
-111.7499997541308
 30
0.0
 11
25.40000309050083
 21
-111.7499997541308
 31
0.0
  0
LINE
  5
98
330
1F
100
AcDbEntity
  8
0
  6
Continuous
 62
   150
370
    25
100
AcDbLine
 10
25.40000309050083
 20
-111.7499997541308
 30
0.0
 11
25.40000309050083
 21
-108.7499997094274
 31
0.0
  0
LINE
  5
99
330
1F
100
AcDbEntity
  8
0
  6
Continuous
 62
   150
370
    25
100
AcDbLine
 10
25.40000309050083
 20
-108.7499997094274
 30
0.0
 11
25.60000309348106
 21
-108.7499997094274
 31
0.0
  0
LINE
  5
9A
330
1F
100
AcDbEntity
  8
0
  6
Continuous
 62
   150
370
    25
100
AcDbLine
 10
25.60000309348106
 20
-108.7499997094274
 30
0.0
 11
25.60000309348106
 21
-111.7499997541308
 31
0.0
  0
TEXT
  5
9C
330
1F
100
AcDbEntity
  8
0
 62
   150
100
AcDbText
 10
13.60000291
 20
-88.94999941
 30
0.0
 40
3.0
  1
担　当
 41
0.833333335493827
  7
dcStyle0
 72
     5
 11
22.60000305
 21
-88.94999941
 31
0.0
100
AcDbText
  0
TEXT
  5
9D
330
1F
100
AcDbEntity
  8
0
 62
   150
100
AcDbText
 10
26.60000311
 20
-88.94999941
 30
0.0
 40
3.0
  1
製　図
 41
0.8333333354938274
  7
dcStyle0
 72
     5
 11
35.60000325
 21
-88.94999941
 31
0.0
100
AcDbText
  0
TEXT
  5
9E
330
1F
100
AcDbEntity
  8
0
 62
   150
100
AcDbText
 10
39.6000033
 20
-88.94999941
 30
0.0
 40
3.0
  1
検　図
 41
0.833333335493827
  7
dcStyle0
 72
     5
 11
48.60000343999999
 21
-88.94999941
 31
0.0
100
AcDbText
  0
TEXT
  5
9F
330
1F
100
AcDbEntity
  8
0
 62
   150
100
AcDbText
 10
57.60000357
 20
-88.94999941
 30
0.0
 40
3.0
  1
尺　　度
 41
0.8333333354166668
  7
dcStyle0
 72
     5
 11
69.60000375
 21
-88.94999941
 31
0.0
100
AcDbText
  0
TEXT
  5
A0
330
1F
100
AcDbEntity
  8
0
 62
   150
100
AcDbText
 10
82.60000394
 20
-88.94999941
 30
0.0
 40
3.0
  1
作図日
 41
0.833333335493827
  7
dcStyle0
 72
     5
 11
91.60000407999999
 21
-88.94999941
 31
0.0
100
AcDbText
  0
TEXT
  5
A1
330
1F
100
AcDbEntity
  8
0
 62
   150
100
AcDbText
 10
98.60000418
 20
-88.94999941
 30
0.0
 40
3.0
  1
工事名
 41
0.833333335493827
  7
dcStyle0
 72
     5
 11
107.60000432
 21
-88.94999941
 31
0.0
100
AcDbText
  0
TEXT
  5
A2
330
1F
100
AcDbEntity
  8
0
 62
   150
100
AcDbText
 10
98.60000418
 20
-100.44999959
 30
0.0
 40
2.5
  1
図面番号
 41
0.8333333354166671
  7
dcStyle0
 72
     5
 11
108.60000433
 21
-100.44999959
 31
0.0
100
AcDbText
  0
TEXT
  5
A3
330
1F
100
AcDbEntity
  8
0
 62
   150
100
AcDbText
 10
98.60000418
 20
-105.14999966
 30
0.0
 40
2.5
  1
図
 41
0.8333333333333334
  7
dcStyle0
 72
     5
 11
101.10000418
 21
-105.14999966
 31
0.0
100
AcDbText
  0
TEXT
  5
A4
330
1F
100
AcDbEntity
  8
0
 62
   150
100
AcDbText
 10
98.60000418
 20
-108.1499997
 30
0.0
 40
2.5
  1
面
 41
0.8333333333333334
  7
dcStyle0
 72
     5
 11
101.10000418
 21
-108.1499997
 31
0.0
100
AcDbText
  0
TEXT
  5
A5
330
1F
100
AcDbEntity
  8
0
 62
   150
100
AcDbText
 10
98.60000418
 20
-111.14999975
 30
0.0
 40
2.5
  1
名
 41
0.8333333333333334
  7
dcStyle0
 72
     5
 11
101.10000418
 21
-111.14999975
 31
0.0
100
AcDbText
  0
TEXT
  5
A6
330
1F
100
AcDbEntity
  8
0
 62
   150
100
AcDbText
 10
98.60000418
 20
-114.14999979
 30
0.0
 40
2.5
  1
称
 41
0.8333333333333334
  7
dcStyle0
 72
     5
 11
101.10000418
 21
-114.14999979
 31
0.0
100
AcDbText
  0
TEXT
  5
A7
330
1F
100
AcDbEntity
  8
0
 62
   150
100
AcDbText
 10
81.80000393
 20
-95.14999951
 30
0.0
 40
2.5
  1
年
 41
0.8333333333333334
  7
dcStyle0
 72
     5
 11
84.30000393
 21
-95.14999951
 31
0.0
100
AcDbText
  0
TEXT
  5
A8
330
1F
100
AcDbEntity
  8
0
 62
   150
100
AcDbText
 10
88.30000403
 20
-95.14999951
 30
0.0
 40
2.5
  1
月
 41
0.8333333333333334
  7
dcStyle0
 72
     5
 11
90.80000403
 21
-95.14999951
 31
0.0
100
AcDbText
  0
TEXT
  5
A9
330
1F
100
AcDbEntity
  8
0
 62
   150
100
AcDbText
 10
94.80000412
 20
-95.14999951
 30
0.0
 40
2.5
  1
日
 41
0.8333333333333334
  7
dcStyle0
 72
     5
 11
97.30000412
 21
-95.14999951
 31
0.0
100
AcDbText
  0
TEXT
  5
AA
330
1F
100
AcDbEntity
  8
0
 62
   222
100
AcDbText
 10
26.1000031
 20
-104.94999965
 30
0.0
 40
4.0
  1
タイヘイグレーチング
 41
1.041666666041667
  7
dcStyle0
 72
     5
 11
76.10000382
 21
-104.94999965
 31
0.0
100
AcDbText
  0
TEXT
  5
AB
330
1F
100
AcDbEntity
  8
0
 62
   222
100
AcDbText
 10
31.35000318
 20
-112.44999976
 30
0.0
 40
5.0
  1
石田鉄工株式会社
 41
0.8461538481952661
  7
dcStyle0
 72
     5
 11
75.35000387
 21
-112.44999976
 31
0.0
100
AcDbText
  0
LINE
  5
AC
330
1F
100
AcDbEntity
  8
22
  6
Continuous
 62
     2
370
    25
100
AcDbLine
 10
-182.0
 20
-128.25
 30
0.0
 11
-178.9999999552965
 21
-128.25
 31
0.0
  0
LINE
  5
AD
330
1F
100
AcDbEntity
  8
22
  6
Continuous
 62
     2
370
    25
100
AcDbLine
 10
-178.9999999552965
 20
-128.25
 30
0.0
 11
-178.9999999552965
 21
-125.2499999552965
 31
0.0
  0
LINE
  5
AE
330
1F
100
AcDbEntity
  8
22
  6
Continuous
 62
     2
370
    25
100
AcDbLine
 10
-178.9999999552965
 20
-125.2499999552965
 30
0.0
 11
-182.0
 21
-125.2499999552965
 31
0.0
  0
LINE
  5
AF
330
1F
100
AcDbEntity
  8
22
  6
Continuous
 62
     2
370
    25
100
AcDbLine
 10
-182.0
 20
-125.2499999552965
 30
0.0
 11
-182.0
 21
-128.25
 31
0.0
  0
LINE
  5
B0
330
1F
100
AcDbEntity
  8
22
  6
Continuous
 62
     2
370
    25
100
AcDbLine
 10
-182.0
 20
-128.25
 30
0.0
 11
-178.9999999552965
 21
-128.25
 31
0.0
  0
LINE
  5
B1
330
1F
100
AcDbEntity
  8
22
  6
Continuous
 62
     2
370
    25
100
AcDbLine
 10
-178.9999999552965
 20
-128.25
 30
0.0
 11
-178.9999999552965
 21
-125.2499999552965
 31
0.0
  0
LINE
  5
B2
330
1F
100
AcDbEntity
  8
22
  6
Continuous
 62
     2
370
    25
100
AcDbLine
 10
-178.9999999552965
 20
-125.2499999552965
 30
0.0
 11
-182.0
 21
-125.2499999552965
 31
0.0
  0
LINE
  5
B3
330
1F
100
AcDbEntity
  8
22
  6
Continuous
 62
     2
370
    25
100
AcDbLine
 10
-182.0
 20
-125.2499999552965
 30
0.0
 11
-182.0
 21
-128.25
 31
0.0
  0
LINE
  5
B4
330
1F
100
AcDbEntity
  8
22
  6
Continuous
 62
     2
370
    25
100
AcDbLine
 10
-182.0
 20
-128.25
 30
0.0
 11
-178.9999999552965
 21
-128.25
 31
0.0
  0
LINE
  5
B5
330
1F
100
AcDbEntity
  8
22
  6
Continuous
 62
     2
370
    25
100
AcDbLine
 10
-178.9999999552965
 20
-128.25
 30
0.0
 11
-178.9999999552965
 21
-125.2499999552965
 31
0.0
  0
LINE
  5
B6
330
1F
100
AcDbEntity
  8
22
  6
Continuous
 62
     2
370
    25
100
AcDbLine
 10
-178.9999999552965
 20
-125.2499999552965
 30
0.0
 11
-182.0
 21
-125.2499999552965
 31
0.0
  0
LINE
  5
B7
330
1F
100
AcDbEntity
  8
22
  6
Continuous
 62
     2
370
    25
100
AcDbLine
 10
-182.0
 20
-125.2499999552965
 30
0.0
 11
-182.0
 21
-128.25
 31
0.0
  0
TEXT
  5
B8
330
1F
100
AcDbEntity
  8
22
 62
     2
100
AcDbText
 10
103.60000426
 20
-106.24999967
 30
0.0
 40
3.2
  1
TYLHC
 41
0.9375000009375004
  7
dcStyle0
 72
     5
 11
118.6000045
 21
-106.24999967
 31
0.0
100
AcDbText
  0
TEXT
  5
B9
330
1F
100
AcDbEntity
  8
22
 62
     2
100
AcDbText
 10
118.60000448
 20
-106.24999967
 30
0.0
 40
3.2
  1
 700 
 41
0.7812500027343743
  7
dcStyle0
 72
     5
 11
131.10000468
 21
-106.24999967
 31
0.0
100
AcDbText
  0
TEXT
  5
BA
330
1F
100
AcDbEntity
  8
22
 62
     2
100
AcDbText
 10
128.60000463
 20
-106.24999967
 30
0.0
 40
3.0
  1
×
 41
0.6944444444444445
  7
dcStyle0
 72
     5
 11
131.10000463
 21
-106.24999967
 31
0.0
100
AcDbText
  0
TEXT
  5
BB
330
1F
100
AcDbEntity
  8
22
 62
     2
100
AcDbText
 10
130.10000465
 20
-106.24999967
 30
0.0
 40
3.0
  1
 299 
 41
0.8333333355555547
  7
dcStyle0
 72
     5
 11
142.60000485
 21
-106.24999967
 31
0.0
100
AcDbText
  0
TEXT
  5
BC
330
1F
100
AcDbEntity
  8
22
 62
     2
100
AcDbText
 10
140.1000048
 20
-106.24999967
 30
0.0
 40
3.0
  1
×
 41
0.6944444444444445
  7
dcStyle0
 72
     5
 11
142.6000048
 21
-106.24999967
 31
0.0
100
AcDbText
  0
TEXT
  5
BD
330
1F
100
AcDbEntity
  8
22
 62
     2
100
AcDbText
 10
141.60000482
 20
-106.24999967
 30
0.0
 40
3.0
  1
 50 
 41
0.8333333354166671
  7
dcStyle0
 72
     5
 11
151.60000497
 21
-106.24999967
 31
0.0
100
AcDbText
  0
TEXT
  5
BE
330
1F
100
AcDbEntity
  8
22
 62
     2
100
AcDbText
 10
103.50000425
 20
-113.64999978
 30
0.0
 40
3.0
  1
2L
  7
dcStyle0
 72
     5
 11
109.90000435
 21
-113.64999978
 31
0.0
100
AcDbText
  0
TEXT
  5
BF
330
1F
100
AcDbEntity
  8
22
 62
     2
100
AcDbText
 10
109.80000435
 20
-113.64999978
 30
0.0
 40
3.0
  1
枠
 41
0.8333333333333334
  7
dcStyle0
 72
     5
 11
112.80000435
 21
-113.64999978
 31
0.0
100
AcDbText
  0
TEXT
  5
C0
330
1F
100
AcDbEntity
  8
22
 62
     2
100
AcDbText
 10
115.00000443
 20
-113.64999978
 30
0.0
 40
2.5
  1
脱着
 41
0.6666666700000008
  7
dcStyle0
 72
     5
 11
119.00000449
 21
-113.64999978
 31
0.0
100
AcDbText
  0
TEXT
  5
C1
330
1F
100
AcDbEntity
  8
22
 62
     2
100
AcDbText
 10
119.00000449
 20
-113.64999978
 30
0.0
 40
2.5
  1
ピン付
 41
0.6666666696296304
  7
dcStyle0
 72
     5
 11
125.00000457
 21
-113.64999978
 31
0.0
100
AcDbText
  0
TEXT
  5
C2
330
1F
100
AcDbEntity
  8
22
 62
     2
100
AcDbText
 10
125.00000457
 20
-113.64999978
 30
0.0
 40
2.5
  1
　１１０度開閉
 41
0.6666666695238102
  7
dcStyle0
 72
     5
 11
139.00000475
 21
-113.64999978
 31
0.0
100
AcDbText
  0
TEXT
  5
C3
330
1F
100
AcDbEntity
  8
22
 62
     2
100
AcDbText
 10
26.85000311
 20
-95.14999951
 30
0.0
 40
3.0
  1
宮崎　
 41
0.8536585384889949
  7
dcStyle0
 72
     5
 11
37.35000327
 21
-95.14999951
 31
0.0
100
AcDbText
  0
TEXT
  5
C4
330
1F
100
AcDbEntity
  8
22
 62
     2
100
AcDbText
 10
39.3500033
 20
-95.14999951
 30
0.0
 40
3.0
  1
水谷　
 41
0.8536585384889945
  7
dcStyle0
 72
     5
 11
49.85000346
 21
-95.14999951
 31
0.0
100
AcDbText
  0
TEXT
  5
C5
330
1F
100
AcDbEntity
  8
22
 62
     2
100
AcDbText
 10
57.90000357
 20
-95.14999951
 30
0.0
 40
3.0
  1
1/
 41
1.000000000000001
  7
dcStyle0
 72
     5
 11
63.90000366000001
 21
-95.14999951
 31
0.0
100
AcDbText
  0
TEXT
  5
C6
330
1F
100
AcDbEntity
  8
22
 62
     2
100
AcDbText
 10
60.90000362
 20
-95.14999951
 30
0.0
 40
3.0
  1
 8 
 41
1.000000000000001
  7
dcStyle0
 72
     5
 11
69.90000376
 21
-95.14999951
 31
0.0
100
AcDbText
  0
TEXT
  5
C7
330
1F
100
AcDbEntity
  8
22
 62
     2
100
AcDbText
 10
110.00000435
 20
-100.64999959
 30
0.0
 40
3.0
  1
TYLHC50-36 T-14          
 41
0.8333333354666668
  7
dcStyle0
 72
     5
 11
172.50000531
 21
-100.64999959
 31
0.0
100
AcDbText
  0
TEXT
  5
C8
330
1F
100
AcDbEntity
  8
22
 62
     2
100
AcDbText
 10
68.00000373
 20
-73.24999918
 30
0.0
 40
3.0
  1
＜表面処理＞
 41
0.8333333352623458
  7
dcStyle0
 72
     5
 11
86.00000398
 21
-73.24999918
 31
0.0
100
AcDbText
  0
TEXT
  5
C9
330
1F
100
AcDbEntity
  8
22
 62
     2
100
AcDbText
 10
73.0000038
 20
-78.24999925
 30
0.0
 40
3.0
  1
本体：
 41
0.833333335493827
  7
dcStyle0
 72
     5
 11
82.00000394
 21
-78.24999925
 31
0.0
100
AcDbText
  0
TEXT
  5
CA
330
1F
100
AcDbEntity
  8
22
 62
     2
100
AcDbText
 10
82.00000393
 20
-78.24999925
 30
0.0
 40
3.0
  1
溶融亜鉛めっき
 41
0.8333333353174601
  7
dcStyle0
 72
     5
 11
103.00000423
 21
-78.24999925
 31
0.0
100
AcDbText
  0
TEXT
  5
CB
330
1F
100
AcDbEntity
  8
22
 62
     2
100
AcDbText
 10
103.00000425
 20
-78.24999925
 30
0.0
 40
2.5
  1
（セラミック充填）
 41
0.8333333353086418
  7
dcStyle0
 72
     5
 11
125.50000457
 21
-78.24999925
 31
0.0
100
AcDbText
  0
TEXT
  5
CC
330
1F
100
AcDbEntity
  8
22
 62
     2
100
AcDbText
 10
73.0000038
 20
-82.24999931
 30
0.0
 40
3.0
  1
受枠：
 41
0.833333335493827
  7
dcStyle0
 72
     5
 11
82.00000394
 21
-82.24999931
 31
0.0
100
AcDbText
  0
TEXT
  5
CD
330
1F
100
AcDbEntity
  8
22
 62
     2
100
AcDbText
 10
82.00000393
 20
-82.24999931
 30
0.0
 40
3.0
  1
黒ペイント塗装
 41
0.8333333353174601
  7
dcStyle0
 72
     5
 11
103.00000423
 21
-82.24999931
 31
0.0
100
AcDbText
  0
TEXT
  5
CE
330
1F
100
AcDbEntity
  8
22
 62
     2
100
AcDbText
 10
18.00000298
 20
-78.24999925
 30
0.0
 40
3.0
  1
本体重量：
 41
0.6944444478395061
  7
dcStyle0
 72
     5
 11
30.50000318
 21
-78.24999925
 31
0.0
100
AcDbText
  0
TEXT
  5
CF
330
1F
100
AcDbEntity
  8
22
 62
     2
100
AcDbText
 10
30.50000317
 20
-78.24999925
 30
0.0
 40
3.0
  1
 17.0
 41
0.666666670222222
  7
dcStyle0
 72
     5
 11
40.50000333
 21
-78.24999925
 31
0.0
100
AcDbText
  0
TEXT
  5
D0
330
1F
100
AcDbEntity
  8
22
 62
     2
100
AcDbText
 10
40.50000332
 20
-78.24999925
 30
0.0
 40
3.0
  1
Kg
 41
0.6666666699999997
  7
dcStyle0
 72
     5
 11
44.50000338
 21
-78.24999925
 31
0.0
100
AcDbText
  0
TEXT
  5
D1
330
1F
100
AcDbEntity
  8
22
 62
     2
100
AcDbText
 10
18.00000298
 20
-82.24999931
 30
0.0
 40
3.0
  1
受枠重量：
 41
0.6944444478395061
  7
dcStyle0
 72
     5
 11
30.50000318
 21
-82.24999931
 31
0.0
100
AcDbText
  0
TEXT
  5
D2
330
1F
100
AcDbEntity
  8
22
 62
     2
100
AcDbText
 10
30.50000317
 20
-82.24999931
 30
0.0
 40
3.0
  1
  9.0
 41
0.666666670222222
  7
dcStyle0
 72
     5
 11
40.50000333
 21
-82.24999931
 31
0.0
100
AcDbText
  0
TEXT
  5
D3
330
1F
100
AcDbEntity
  8
22
 62
     2
100
AcDbText
 10
40.50000332
 20
-82.24999931
 30
0.0
 40
3.0
  1
Kg
 41
0.6666666699999997
  7
dcStyle0
 72
     5
 11
44.50000338
 21
-82.24999931
 31
0.0
100
AcDbText
  0
TEXT
  5
D4
330
1F
100
AcDbEntity
  8
22
 62
     2
100
AcDbText
 10
-117.8875002051923
 20
6.912505334807655
 30
0.0
 40
3.0
  1
車両進行方向
 50
90.0000001836389
 41
0.8333333352623458
  7
dcStyle0
 72
     5
 11
-117.8875002628842
 21
24.91250558480765
 31
0.0
100
AcDbText
  0
TEXT
  5
D5
330
1F
100
AcDbEntity
  8
22
 62
     2
100
AcDbText
 10
-76.71869928
 20
88.42500681
 30
0.0
 40
2.5
  1
ベアリングバー：
 41
0.8333333352777776
  7
dcStyle0
 72
     5
 11
-56.718699
 21
88.42500681
 31
0.0
100
AcDbText
  0
TEXT
  5
D6
330
1F
100
AcDbEntity
  8
22
 62
     2
100
AcDbText
 10
-56.71869898
 20
88.42500681
 30
0.0
 40
2.5
  1
Y-
 41
0.9999999999999998
  7
dcStyle0
 72
     5
 11
-51.71869891
 21
88.42500681
 31
0.0
100
AcDbText
  0
TEXT
  5
D7
330
1F
100
AcDbEntity
  8
22
 62
     2
100
AcDbText
 10
-53.71869894
 20
88.42500681
 30
0.0
 40
2.5
  1
 50 
 41
0.9999999999999998
  7
dcStyle0
 72
     5
 11
-43.71869879
 21
88.42500681
 31
0.0
100
AcDbText
  0
TEXT
  5
D8
330
1F
100
AcDbEntity
  8
22
 62
     2
100
AcDbText
 10
-46.21869883
 20
88.42500681
 30
0.0
 40
2.5
  1
×
 41
0.8333333333333334
  7
dcStyle0
 72
     5
 11
-43.71869883
 21
88.42500681
 31
0.0
100
AcDbText
  0
TEXT
  5
D9
330
1F
100
AcDbEntity
  8
22
 62
     2
100
AcDbText
 10
-43.71869879
 20
88.42500681
 30
0.0
 40
2.5
  1
20
 41
0.9999999999999998
  7
dcStyle0
 72
     5
 11
-38.71869872
 21
88.42500681
 31
0.0
100
AcDbText
  0
TEXT
  5
DA
330
1F
100
AcDbEntity
  8
22
 62
     2
100
AcDbText
 10
-38.71869872
 20
88.42500681
 30
0.0
 40
2.5
  1
×
 41
0.8333333333333334
  7
dcStyle0
 72
     5
 11
-36.21869872
 21
88.42500681
 31
0.0
100
AcDbText
  0
TEXT
  5
DB
330
1F
100
AcDbEntity
  8
22
 62
     2
100
AcDbText
 10
-38.21869871
 20
88.42500681
 30
0.0
 40
2.5
  1
 4.6 
 41
0.8000000025599998
  7
dcStyle0
 72
     5
 11
-28.21869855
 21
88.42500681
 31
0.0
100
AcDbText
  0
TEXT
  5
DC
330
1F
100
AcDbEntity
  8
22
 62
     2
100
AcDbText
 10
-74.56255007
 20
84.05000666
 30
0.0
 40
2.5
  1
ツイストバー：
 41
0.8333333352380952
  7
dcStyle0
 72
     5
 11
-57.06254983
 21
84.05000666
 31
0.0
100
AcDbText
  0
TEXT
  5
DD
330
1F
100
AcDbEntity
  8
22
 62
     2
100
AcDbText
 10
-57.06254981
 20
84.05000666
 30
0.0
 40
2.5
  1
φ
 41
0.8333333333333334
  7
dcStyle0
 72
     5
 11
-54.56254981
 21
84.05000666
 31
0.0
100
AcDbText
  0
TEXT
  5
DE
330
1F
100
AcDbEntity
  8
22
 62
     2
100
AcDbText
 10
-56.5625498
 20
84.05000666
 30
0.0
 40
2.5
  1
 10 
 41
0.9999999999999998
  7
dcStyle0
 72
     5
 11
-46.56254965
 21
84.05000666
 31
0.0
100
AcDbText
  0
TEXT
  5
DF
330
1F
100
AcDbEntity
  8
22
 62
     2
100
AcDbText
 10
-46.56254965
 20
84.05000666
 30
0.0
 40
2.5
  1
絞りパイプ
 41
0.8333333355555557
  7
dcStyle0
 72
     5
 11
-34.06254945
 21
84.05000666
 31
0.0
100
AcDbText
  0
TEXT
  5
E0
330
1F
100
AcDbEntity
  8
22
 62
     2
100
AcDbText
 10
-72.53749831
 20
79.2375064
 30
0.0
 40
2.5
  1
エンドプレート：
 41
0.8333333352777776
  7
dcStyle0
 72
     5
 11
-52.53749803000001
 21
79.2375064
 31
0.0
100
AcDbText
  0
TEXT
  5
E1
330
1F
100
AcDbEntity
  8
22
 62
     2
100
AcDbText
 10
-52.53749802
 20
79.2375064
 30
0.0
 40
2.5
  1
FB
 41
0.9999999999999998
  7
dcStyle0
 72
     5
 11
-47.53749795
 21
79.2375064
 31
0.0
100
AcDbText
  0
TEXT
  5
E2
330
1F
100
AcDbEntity
  8
22
 62
     2
100
AcDbText
 10
-49.53749797
 20
79.2375064
 30
0.0
 40
2.5
  1
 4.5 
 41
0.8000000025599998
  7
dcStyle0
 72
     5
 11
-39.53749781
 21
79.2375064
 31
0.0
100
AcDbText
  0
TEXT
  5
E3
330
1F
100
AcDbEntity
  8
22
 62
     2
100
AcDbText
 10
-42.03749786
 20
79.2375064
 30
0.0
 40
2.5
  1
×
 41
0.8333333333333334
  7
dcStyle0
 72
     5
 11
-39.53749786
 21
79.2375064
 31
0.0
100
AcDbText
  0
TEXT
  5
E4
330
1F
100
AcDbEntity
  8
22
 62
     2
100
AcDbText
 10
-41.53749785
 20
79.2375064
 30
0.0
 40
2.5
  1
 44 
 41
0.9999999999999998
  7
dcStyle0
 72
     5
 11
-31.5374977
 21
79.2375064
 31
0.0
100
AcDbText
  0
TEXT
  5
E5
330
1F
100
AcDbEntity
  8
22
 62
     2
100
AcDbText
 10
-114.81250013
 20
72.53750628
 30
0.0
 40
2.5
  1
 37 
 41
1.0
  7
dcStyle0
 72
     5
 11
-104.81249998
 21
72.53750628
 31
0.0
100
AcDbText
  0
TEXT
  5
E6
330
1F
100
AcDbEntity
  8
22
 62
     2
100
AcDbText
 10
-103.09375005
 20
80.78750635
 30
0.0
 40
2.5
  1
脱着ピン
 41
0.8333333354166671
  7
dcStyle0
 72
     5
 11
-93.09374989999999
 21
80.78750635
 31
0.0
100
AcDbText
  0
TEXT
  5
E7
330
1F
100
AcDbEntity
  8
22
 62
     2
100
AcDbText
 10
-82.51249996
 20
-67.33750145
 30
0.0
 40
3.0
  1
 27.9 
 41
0.8333333351851854
  7
dcStyle0
 72
     5
 11
-67.51249976
 21
-67.33750145
 31
0.0
100
AcDbText
  0
TEXT
  5
E8
330
1F
100
AcDbEntity
  8
22
 62
     2
100
AcDbText
 10
-114.81250013
 20
-60.33750135
 30
0.0
 40
3.0
  1
 17 
 41
0.8333333354166671
  7
dcStyle0
 72
     5
 11
-104.81249998
 21
-60.33750135
 31
0.0
100
AcDbText
  0
TEXT
  5
E9
330
1F
100
AcDbEntity
  8
22
 62
     2
100
AcDbText
 10
-91.24999981
 20
-60.33750135
 30
0.0
 40
3.0
  1
 299 
 41
0.8333333355555557
  7
dcStyle0
 72
     5
 11
-78.74999961
 21
-60.33750135
 31
0.0
100
AcDbText
  0
TEXT
  5
EA
330
1F
100
AcDbEntity
  8
22
 62
     2
100
AcDbText
 10
-65.18749998
 20
-60.33750135
 30
0.0
 40
3.0
  1
 17 
 41
0.8333333354166665
  7
dcStyle0
 72
     5
 11
-55.18749983
 21
-60.33750135
 31
0.0
100
AcDbText
  0
TEXT
  5
EB
330
1F
100
AcDbEntity
  8
22
 62
     2
100
AcDbText
 10
-91.24999978
 20
-53.33750124
 30
0.0
 40
3.0
  1
 333 
 41
0.8333333355555557
  7
dcStyle0
 72
     5
 11
-78.74999958
 21
-53.33750124
 31
0.0
100
AcDbText
  0
TEXT
  5
EC
330
1F
100
AcDbEntity
  8
22
 62
     2
100
AcDbText
 10
-112.3125001
 20
-97.13750178
 30
0.0
 40
3.0
  1
 9 
 41
0.8333333355555551
  7
dcStyle0
 72
     5
 11
-104.81249998
 21
-97.13750178
 31
0.0
100
AcDbText
  0
TEXT
  5
ED
330
1F
100
AcDbEntity
  8
22
 62
     2
100
AcDbText
 10
-91.2499998
 20
-97.13750178
 30
0.0
 40
3.0
  1
 315 
 41
0.8333333355555557
  7
dcStyle0
 72
     5
 11
-78.7499996
 21
-97.13750178
 31
0.0
100
AcDbText
  0
TEXT
  5
EE
330
1F
100
AcDbEntity
  8
22
 62
     2
100
AcDbText
 10
-65.1875
 20
-97.13750178
 30
0.0
 40
3.0
  1
 9 
 41
0.8333333355555559
  7
dcStyle0
 72
     5
 11
-57.68749988
 21
-97.13750178
 31
0.0
100
AcDbText
  0
TEXT
  5
EF
330
1F
100
AcDbEntity
  8
22
 62
     2
100
AcDbText
 10
-60.18749994
 20
-65.83750142
 30
0.0
 40
2.5
  1
FB
 41
0.8000000023999996
  7
dcStyle0
 72
     5
 11
-56.18749988
 21
-65.83750142
 31
0.0
100
AcDbText
  0
TEXT
  5
F0
330
1F
100
AcDbEntity
  8
22
 62
     2
100
AcDbText
 10
-57.6874999
 20
-65.83750142
 30
0.0
 40
2.5
  1
 9 
 41
0.8000000021333332
  7
dcStyle0
 72
     5
 11
-51.68749982
 21
-65.83750142
 31
0.0
100
AcDbText
  0
TEXT
  5
F1
330
1F
100
AcDbEntity
  8
22
 62
     2
100
AcDbText
 10
-53.48749984
 20
-65.83750142
 30
0.0
 40
2.5
  1
×
 41
0.6666666666666666
  7
dcStyle0
 72
     5
 11
-51.48749984
 21
-65.83750142
 31
0.0
100
AcDbText
  0
TEXT
  5
F2
330
1F
100
AcDbEntity
  8
22
 62
     2
100
AcDbText
 10
-53.48749984
 20
-65.83750142
 30
0.0
 40
2.5
  1
 50 
 41
0.8000000023999996
  7
dcStyle0
 72
     5
 11
-45.48749972
 21
-65.83750142
 31
0.0
100
AcDbText
  0
TEXT
  5
F3
330
1F
100
AcDbEntity
  8
22
 62
     2
100
AcDbText
 10
-121.63750355
 20
-47.83750115
 30
0.0
 40
2.7
  1
セラミック充填
 41
0.8474576289654043
  7
dcStyle0
 72
     5
 11
-100.63750325
 21
-47.83750115
 31
0.0
100
AcDbText
  0
TEXT
  5
F4
330
1F
100
AcDbEntity
  8
22
 62
     2
100
AcDbText
 10
-26.81250006599362
 20
46.60000592480766
 30
0.0
 40
3.0
  1
 100 
 50
90.0000001836389
 41
0.8333333355555552
  7
dcStyle0
 72
     5
 11
-26.81250010605741
 21
59.10000612480766
 31
0.0
100
AcDbText
  0
TEXT
  5
F5
330
1F
100
AcDbEntity
  8
22
 62
     2
100
AcDbText
 10
-26.81250006599362
 20
34.10000592480766
 30
0.0
 40
3.0
  1
 100 
 50
90.0000001836389
 41
0.8333333355555552
  7
dcStyle0
 72
     5
 11
-26.81250010605741
 21
46.60000612480766
 31
0.0
100
AcDbText
  0
TEXT
  5
F6
330
1F
100
AcDbEntity
  8
22
 62
     2
100
AcDbText
 10
-33.81250017599362
 20
59.35000609480765
 30
0.0
 40
3.0
  1
 10 
 50
90.0000001836389
 41
0.8333333354166671
  7
dcStyle0
 72
     5
 11
-33.81250020804465
 21
69.35000624480766
 31
0.0
100
AcDbText
  0
TEXT
  5
F7
330
1F
100
AcDbEntity
  8
22
 62
     2
100
AcDbText
 10
-33.81250017599362
 20
9.100005364807656
 30
0.0
 40
3.0
  1
 700 
 50
90.0000001836389
 41
0.8333333355555558
  7
dcStyle0
 72
     5
 11
-33.81250021605742
 21
21.60000556480766
 31
0.0
100
AcDbText
  0
TEXT
  5
F8
330
1F
100
AcDbEntity
  8
22
 62
     2
100
AcDbText
 10
-33.81250017599362
 20
-38.65000167519234
 30
0.0
 40
3.0
  1
 10 
 50
90.0000001836389
 41
0.8333333354166659
  7
dcStyle0
 72
     5
 11
-33.81250020804465
 21
-28.65000152519235
 31
0.0
100
AcDbText
  0
TEXT
  5
F9
330
1F
100
AcDbEntity
  8
22
 62
     2
100
AcDbText
 10
-40.81250027599362
 20
9.100005344807654
 30
0.0
 40
3.0
  1
 720 
 50
90.0000001836389
 41
0.8333333355555558
  7
dcStyle0
 72
     5
 11
-40.81250031605742
 21
21.60000554480766
 31
0.0
100
AcDbText
  0
TEXT
  5
FA
330
1F
100
AcDbEntity
  8
22
 62
     2
100
AcDbText
 10
3.48750025400638
 20
51.60000597480766
 30
0.0
 40
3.0
  1
 60 
 50
90.0000001836389
 41
0.8333333354166659
  7
dcStyle0
 72
     5
 11
3.487500221955345
 21
61.60000612480765
 31
0.0
100
AcDbText
  0
TEXT
  5
FB
330
1F
100
AcDbEntity
  8
22
 62
     2
100
AcDbText
 10
3.487500254006379
 20
9.100005454807654
 30
0.0
 40
3.0
  1
 600 
 50
90.0000001836389
 41
0.8333333355555554
  7
dcStyle0
 72
     5
 11
3.487500213942585
 21
21.60000565480765
 31
0.0
100
AcDbText
  0
TEXT
  5
FC
330
1F
100
AcDbEntity
  8
22
 62
     2
100
AcDbText
 10
3.48750025400638
 20
-30.90000165519235
 30
0.0
 40
3.0
  1
 60 
 50
90.0000001836389
 41
0.8333333354166668
  7
dcStyle0
 72
     5
 11
3.487500221955345
 21
-20.90000150519235
 31
0.0
100
AcDbText
  0
TEXT
  5
FD
330
1F
100
AcDbEntity
  8
22
 62
     2
100
AcDbText
 10
-14.31250013
 20
80.85000632
 30
0.0
 40
2.5
  1
φ
 41
0.6666666666666666
  7
dcStyle0
 72
     5
 11
-12.31250013
 21
80.85000632
 31
0.0
100
AcDbText
  0
TEXT
  5
FE
330
1F
100
AcDbEntity
  8
22
 62
     2
100
AcDbText
 10
-14.31250013
 20
80.85000632
 30
0.0
 40
2.5
  1
 13 
 41
0.8000000023999999
  7
dcStyle0
 72
     5
 11
-6.312500010000001
 21
80.85000632
 31
0.0
100
AcDbText
  0
TEXT
  5
FF
330
1F
100
AcDbEntity
  8
22
 62
     2
100
AcDbText
 10
-8.31250004
 20
80.85000632
 30
0.0
 40
2.5
  1
ｱﾝｶｰ
 41
0.8000000023999999
  7
dcStyle0
 72
     5
 11
-0.3124999200000005
 21
80.85000632
 31
0.0
100
AcDbText
  0
TEXT
  5
100
330
1F
100
AcDbEntity
  8
22
 62
     2
100
AcDbText
 10
-30.31250013
 20
-44.15000173
 30
0.0
 40
3.0
  1
 50 
 41
0.8333333354166668
  7
dcStyle0
 72
     5
 11
-20.31249998
 21
-44.15000173
 31
0.0
100
AcDbText
  0
TEXT
  5
101
330
1F
100
AcDbEntity
  8
22
 62
     2
100
AcDbText
 10
-22.81250002
 20
-51.15000184
 30
0.0
 40
3.0
  1
 56 
 41
0.8333333354166667
  7
dcStyle0
 72
     5
 11
-12.81249987
 21
-51.15000184
 31
0.0
100
AcDbText
  0
TEXT
  5
102
330
1F
100
AcDbEntity
  8
22
 62
     2
100
AcDbText
 10
-30.31250013
 20
71.85000627
 30
0.0
 40
3.0
  1
 16 
 41
0.8333333354166668
  7
dcStyle0
 72
     5
 11
-20.31249998
 21
71.85000627
 31
0.0
100
AcDbText
  0
TEXT
  5
103
330
1F
100
AcDbEntity
  8
22
 62
     2
100
AcDbText
 10
-55.81250051
 20
-44.15000174
 30
0.0
 40
2.5
  1
L-
 41
0.8000000023999996
  7
dcStyle0
 72
     5
 11
-51.81250045
 21
-44.15000174
 31
0.0
100
AcDbText
  0
TEXT
  5
104
330
1F
100
AcDbEntity
  8
22
 62
     2
100
AcDbText
 10
-53.31250048
 20
-44.15000174
 30
0.0
 40
2.5
  1
 6 
 41
0.8000000021333332
  7
dcStyle0
 72
     5
 11
-47.3125004
 21
-44.15000174
 31
0.0
100
AcDbText
  0
TEXT
  5
105
330
1F
100
AcDbEntity
  8
22
 62
     2
100
AcDbText
 10
-49.31250042
 20
-44.15000174
 30
0.0
 40
2.5
  1
×
 41
0.6666666666666666
  7
dcStyle0
 72
     5
 11
-47.31250042
 21
-44.15000174
 31
0.0
100
AcDbText
  0
TEXT
  5
106
330
1F
100
AcDbEntity
  8
22
 62
     2
100
AcDbText
 10
-49.31250042
 20
-44.15000174
 30
0.0
 40
2.5
  1
 56 
 41
0.8000000024000004
  7
dcStyle0
 72
     5
 11
-41.3125003
 21
-44.15000174
 31
0.0
100
AcDbText
  0
TEXT
  5
107
330
1F
100
AcDbEntity
  8
22
 62
     2
100
AcDbText
 10
-43.31250033
 20
-44.15000174
 30
0.0
 40
2.5
  1
×
 41
0.6666666666666666
  7
dcStyle0
 72
     5
 11
-41.31250033
 21
-44.15000174
 31
0.0
100
AcDbText
  0
TEXT
  5
108
330
1F
100
AcDbEntity
  8
22
 62
     2
100
AcDbText
 10
-42.81250032
 20
-44.15000174
 30
0.0
 40
2.5
  1
 60 
 41
0.8000000023999996
  7
dcStyle0
 72
     5
 11
-34.8125002
 21
-44.15000174
 31
0.0
100
AcDbText
  0
TEXT
  5
109
330
1F
100
AcDbEntity
  8
22
 62
     2
100
AcDbText
 10
94.40000412
 20
92.85000329
 30
0.0
 40
4.0
  1
◇　荷　重　計　算　◇
 41
0.833333335542929
  7
dcStyle0
 72
     5
 11
138.40000482
 21
92.85000329
 31
0.0
100
AcDbText
  0
TEXT
  5
10A
330
1F
100
AcDbEntity
  8
22
 62
     2
100
AcDbText
 10
65.05000367999999
 20
82.85000314999999
 30
0.0
 40
3.3
  1
設計条件
 41
0.8583691004600379
  7
dcStyle0
 72
     5
 11
81.05000390999999
 21
82.85000314999999
 31
0.0
100
AcDbText
  0
TEXT
  5
10B
330
1F
100
AcDbEntity
  8
22
 62
     2
100
AcDbText
 10
70.30000376
 20
76.85000305999999
 30
0.0
 40
3.3
  1
荷重基準：　
 41
0.841346155753051
  7
dcStyle0
 72
     5
 11
91.30000405999999
 21
76.85000305999999
 31
0.0
100
AcDbText
  0
TEXT
  5
10C
330
1F
100
AcDbEntity
  8
22
 62
     2
100
AcDbText
 10
91.20000406999999
 20
76.85000305999999
 30
0.0
 40
3.3
  1
鋼道路橋等設計示方書による
 41
0.8413461557237144
  7
dcStyle0
 72
     5
 11
136.70000471
 21
76.85000305999999
 31
0.0
100
AcDbText
  0
TEXT
  5
10D
330
1F
100
AcDbEntity
  8
22
 62
     2
100
AcDbText
 10
70.30000376
 20
71.85000298
 30
0.0
 40
3.3
  1
荷　　重：　
 41
0.841346155753051
  7
dcStyle0
 72
     5
 11
91.30000405999999
 21
71.85000298
 31
0.0
100
AcDbText
  0
TEXT
  5
10E
330
1F
100
AcDbEntity
  8
22
 62
     2
100
AcDbText
 10
91.30000407
 20
71.85000298
 30
0.0
 40
3.0
  1
T-
  7
dcStyle0
 72
     5
 11
97.30000416
 21
71.85000298
 31
0.0
100
AcDbText
  0
TEXT
  5
10F
330
1F
100
AcDbEntity
  8
22
 62
     2
100
AcDbText
 10
95.30000413
 20
71.85000298
 30
0.0
 40
3.0
  1
 14 
 41
0.8333333354166671
  7
dcStyle0
 72
     5
 11
105.30000428
 21
71.85000298
 31
0.0
100
AcDbText
  0
TEXT
  5
110
330
1F
100
AcDbEntity
  8
22
 62
     2
100
AcDbText
 10
105.20000428
 20
71.85000298
 30
0.0
 40
3.3
  1
（後輪一輪荷重：
 41
0.8413461558960689
  7
dcStyle0
 72
     5
 11
133.20000471
 21
71.85000298
 31
0.0
100
AcDbText
  0
TEXT
  5
111
330
1F
100
AcDbEntity
  8
22
 62
     2
100
AcDbText
 10
133.2000047
 20
71.85000298
 30
0.0
 40
3.0
  1
 56000
 41
0.8333333351851846
  7
dcStyle0
 72
     5
 11
148.2000049
 21
71.85000298
 31
0.0
100
AcDbText
  0
TEXT
  5
112
330
1F
100
AcDbEntity
  8
22
 62
     2
100
AcDbText
 10
148.20000492
 20
71.85000298
 30
0.0
 40
3.0
  1
N
  7
dcStyle0
 72
     5
 11
151.20000492
 21
71.85000298
 31
0.0
100
AcDbText
  0
TEXT
  5
113
330
1F
100
AcDbEntity
  8
22
 62
     2
100
AcDbText
 10
151.20000497
 20
71.85000298
 30
0.0
 40
3.3
  1
）
 41
0.8333333333333363
  7
dcStyle0
 72
     5
 11
154.50000497
 21
71.85000298
 31
0.0
100
AcDbText
  0
TEXT
  5
114
330
1F
100
AcDbEntity
  8
22
 62
     2
100
AcDbText
 10
70.30000376
 20
66.85000291
 30
0.0
 40
3.3
  1
載荷寸法：　
 41
0.841346155753051
  7
dcStyle0
 72
     5
 11
91.30000405999999
 21
66.85000291
 31
0.0
100
AcDbText
  0
TEXT
  5
115
330
1F
100
AcDbEntity
  8
22
 62
     2
100
AcDbText
 10
91.30000407
 20
66.85000291
 30
0.0
 40
3.0
  1
500
 41
0.8333333355555551
  7
dcStyle0
 72
     5
 11
98.80000419
 21
66.85000291
 31
0.0
100
AcDbText
  0
TEXT
  5
116
330
1F
100
AcDbEntity
  8
22
 62
     2
100
AcDbText
 10
98.80000418
 20
66.85000291
 30
0.0
 40
3.0
  1
mm
 41
0.6666666700000008
  7
dcStyle0
 72
     5
 11
102.80000424
 21
66.85000291
 31
0.0
100
AcDbText
  0
TEXT
  5
117
330
1F
100
AcDbEntity
  8
22
 62
     2
100
AcDbText
 10
102.70000424
 20
66.85000291
 30
0.0
 40
3.3
  1
×
 41
0.8333333333333327
  7
dcStyle0
 72
     5
 11
106.00000424
 21
66.85000291
 31
0.0
100
AcDbText
  0
TEXT
  5
118
330
1F
100
AcDbEntity
  8
22
 62
     2
100
AcDbText
 10
106.20000429
 20
66.85000291
 30
0.0
 40
3.0
  1
200
 41
0.8333333355555551
  7
dcStyle0
 72
     5
 11
113.70000441
 21
66.85000291
 31
0.0
100
AcDbText
  0
TEXT
  5
119
330
1F
100
AcDbEntity
  8
22
 62
     2
100
AcDbText
 10
113.70000441
 20
66.85000291
 30
0.0
 40
3.0
  1
mm
 41
0.6666666700000008
  7
dcStyle0
 72
     5
 11
117.70000447
 21
66.85000291
 31
0.0
100
AcDbText
  0
TEXT
  5
11A
330
1F
100
AcDbEntity
  8
22
 62
     2
100
AcDbText
 10
117.60000446
 20
66.85000291
 30
0.0
 40
3.3
  1
　（等分布負載）
 41
0.8413461558960689
  7
dcStyle0
 72
     5
 11
145.60000489
 21
66.85000291
 31
0.0
100
AcDbText
  0
TEXT
  5
11B
330
1F
100
AcDbEntity
  8
22
 62
     2
100
AcDbText
 10
70.30000376
 20
61.85000283
 30
0.0
 40
3.3
  1
許容応力：　
 41
0.841346155753051
  7
dcStyle0
 72
     5
 11
91.30000405999999
 21
61.85000283
 31
0.0
100
AcDbText
  0
TEXT
  5
11C
330
1F
100
AcDbEntity
  8
22
 62
     2
100
AcDbText
 10
91.30000407
 20
61.85000283
 30
0.0
 40
3.3
  1
σｂ＝
 41
0.6313131350372408
  7
dcStyle0
 72
     5
 11
98.80000419
 21
61.85000283
 31
0.0
100
AcDbText
  0
TEXT
  5
11D
330
1F
100
AcDbEntity
  8
22
 62
     2
100
AcDbText
 10
98.80000418
 20
61.85000283
 30
0.0
 40
3.0
  1
180.0
 41
0.8333333355555557
  7
dcStyle0
 72
     5
 11
111.30000438
 21
61.85000283
 31
0.0
100
AcDbText
  0
TEXT
  5
11E
330
1F
100
AcDbEntity
  8
22
 62
     2
100
AcDbText
 10
111.90000438
 20
61.85000283
 30
0.0
 40
3.0
  1
N
  7
dcStyle0
 72
     5
 11
114.90000438
 21
61.85000283
 31
0.0
100
AcDbText
  0
TEXT
  5
11F
330
1F
100
AcDbEntity
  8
22
 62
     2
100
AcDbText
 10
114.65000442
 20
61.85000283
 30
0.0
 40
3.0
  1
／
 41
0.8333333333333334
  7
dcStyle0
 72
     5
 11
117.65000442
 21
61.85000283
 31
0.0
100
AcDbText
  0
TEXT
  5
120
330
1F
100
AcDbEntity
  8
22
 62
     2
100
AcDbText
 10
118.15000447
 20
61.85000283
 30
0.0
 40
3.0
  1
mm
 41
0.6666666700000008
  7
dcStyle0
 72
     5
 11
122.15000453
 21
61.85000283
 31
0.0
100
AcDbText
  0
TEXT
  5
121
330
1F
100
AcDbEntity
  8
22
 62
     2
100
AcDbText
 10
122.15000453
 20
63.85000286
 30
0.0
 40
1.8
  1
2
 41
0.8333333333333333
  7
dcStyle0
 72
     5
 11
123.65000453
 21
63.85000286
 31
0.0
100
AcDbText
  0
TEXT
  5
122
330
1F
100
AcDbEntity
  8
22
 62
     2
100
AcDbText
 10
124.65000457
 20
61.85000283
 30
0.0
 40
3.3
  1
（ＳＳ４００使用）
 41
0.7575757602965685
  7
dcStyle0
 72
     5
 11
151.65000497
 21
61.85000283
 31
0.0
100
AcDbText
  0
TEXT
  5
123
330
1F
100
AcDbEntity
  8
22
 62
     2
100
AcDbText
 10
70.30000376
 20
56.85000276
 30
0.0
 40
3.3
  1
衝撃係数：　
 41
0.841346155753051
  7
dcStyle0
 72
     5
 11
91.30000405999999
 21
56.85000276
 31
0.0
100
AcDbText
  0
TEXT
  5
124
330
1F
100
AcDbEntity
  8
22
 62
     2
100
AcDbText
 10
91.30000407
 20
56.85000276
 30
0.0
 40
3.3
  1
ｉ　＝
 41
0.6313131350372408
  7
dcStyle0
 72
     5
 11
98.80000419
 21
56.85000276
 31
0.0
100
AcDbText
  0
TEXT
  5
125
330
1F
100
AcDbEntity
  8
22
 62
     2
100
AcDbText
 10
98.80000418
 20
56.85000276
 30
0.0
 40
3.0
  1
 0.0
 41
0.8333333354166671
  7
dcStyle0
 72
     5
 11
108.80000433
 21
56.85000276
 31
0.0
100
AcDbText
  0
TEXT
  5
126
330
1F
100
AcDbEntity
  8
22
 62
     2
100
AcDbText
 10
70.30000376
 20
51.85000268
 30
0.0
 40
3.3
  1
スパン　：　
 41
0.841346155753051
  7
dcStyle0
 72
     5
 11
91.30000405999999
 21
51.85000268
 31
0.0
100
AcDbText
  0
TEXT
  5
127
330
1F
100
AcDbEntity
  8
22
 62
     2
100
AcDbText
 10
91.30000407
 20
51.85000268
 30
0.0
 40
3.0
  1
L =
 41
0.8333333355555551
  7
dcStyle0
 72
     5
 11
98.80000419
 21
51.85000268
 31
0.0
100
AcDbText
  0
TEXT
  5
128
330
1F
100
AcDbEntity
  8
22
 62
     2
100
AcDbText
 10
98.80000418
 20
51.85000268
 30
0.0
 40
3.0
  1
 600 
 41
0.8333333355555557
  7
dcStyle0
 72
     5
 11
111.30000438
 21
51.85000268
 31
0.0
100
AcDbText
  0
TEXT
  5
129
330
1F
100
AcDbEntity
  8
22
 62
     2
100
AcDbText
 10
111.30000437
 20
51.85000268
 30
0.0
 40
3.0
  1
mm
 41
0.6666666700000008
  7
dcStyle0
 72
     5
 11
115.30000443
 21
51.85000268
 31
0.0
100
AcDbText
  0
TEXT
  5
12A
330
1F
100
AcDbEntity
  8
22
 62
     2
100
AcDbText
 10
80.30000391
 20
43.85000256
 30
0.0
 40
3.3
  1
　Ｗ　：主部材が支える最大後輪一輪荷重
 41
0.8413461559738498
  7
dcStyle0
 72
     5
 11
146.80000497
 21
43.85000256
 31
0.0
100
AcDbText
  0
TEXT
  5
12B
330
1F
100
AcDbEntity
  8
22
 62
     2
100
AcDbText
 10
146.8000049
 20
43.85000256
 30
0.0
 40
3.0
  1
（Ｎ）
 41
0.833333335493827
  7
dcStyle0
 72
     5
 11
155.80000504
 21
43.85000256
 31
0.0
100
AcDbText
  0
TEXT
  5
12C
330
1F
100
AcDbEntity
  8
22
 62
     2
100
AcDbText
 10
80.30000391
 20
39.8500025
 30
0.0
 40
3.3
  1
　Ｎ　：荷重を受ける主部材本数
 41
0.841346155829327
  7
dcStyle0
 72
     5
 11
132.80000469
 21
39.8500025
 31
0.0
100
AcDbText
  0
TEXT
  5
12D
330
1F
100
AcDbEntity
  8
22
 62
     2
100
AcDbText
 10
80.30000391
 20
35.85000245
 30
0.0
 40
3.3
  1
〔Ｚ〕：主部材断面係数（㎜
 41
0.8413461557237142
  7
dcStyle0
 72
     5
 11
125.80000455
 21
35.85000245
 31
0.0
100
AcDbText
  0
TEXT
  5
12E
330
1F
100
AcDbEntity
  8
22
 62
     2
100
AcDbText
 10
125.80000459
 20
37.35000247
 30
0.0
 40
1.5
  1
3
 41
1.00000000000001
  7
dcStyle0
 72
     5
 11
127.30000459
 21
37.35000247
 31
0.0
100
AcDbText
  0
TEXT
  5
12F
330
1F
100
AcDbEntity
  8
22
 62
     2
100
AcDbText
 10
127.30000461
 20
35.85000245
 30
0.0
 40
3.3
  1
）
 41
0.8333333333333363
  7
dcStyle0
 72
     5
 11
130.60000461
 21
35.85000245
 31
0.0
100
AcDbText
  0
TEXT
  5
130
330
1F
100
AcDbEntity
  8
22
 62
     2
100
AcDbText
 10
80.30000391
 20
31.85000239
 30
0.0
 40
3.3
  1
　Ｓ　：溝幅方向載荷寸法（㎜）
 41
0.841346155829327
  7
dcStyle0
 72
     5
 11
132.80000469
 21
31.85000239
 31
0.0
100
AcDbText
  0
TEXT
  5
131
330
1F
100
AcDbEntity
  8
22
 62
     2
100
AcDbText
 10
65.05000367999999
 20
26.85000231
 30
0.0
 40
3.3
  1
荷重計算
 41
0.8583691004600379
  7
dcStyle0
 72
     5
 11
81.05000390999999
 21
26.85000231
 31
0.0
100
AcDbText
  0
TEXT
  5
132
330
1F
100
AcDbEntity
  8
22
 62
     2
100
AcDbText
 10
70.30000376
 20
19.85000221
 30
0.0
 40
3.3
  1
横断溝
 41
0.8413461558801776
  7
dcStyle0
 72
     5
 11
80.80000392
 21
19.85000221
 31
0.0
100
AcDbText
  0
TEXT
  5
133
330
1F
100
AcDbEntity
  8
22
 62
     2
100
AcDbText
 10
80.70000390999999
 20
19.85000221
 30
0.0
 40
3.3
  1
　（溝幅＞載荷寸法Ｓの場合）
 41
0.8413461557802925
  7
dcStyle0
 72
     5
 11
129.70000462
 21
19.85000221
 31
0.0
100
AcDbText
  0
TEXT
  5
134
330
1F
100
AcDbEntity
  8
22
 62
     2
100
AcDbText
 10
70.40000376
 20
9.85000206
 30
0.0
 40
3.3
  1
Ｗ　＝
 41
0.6313131350372408
  7
dcStyle0
 72
     5
 11
77.90000388
 21
9.85000206
 31
0.0
100
AcDbText
  0
TEXT
  5
135
330
1F
100
AcDbEntity
  8
22
 62
     2
100
AcDbText
 10
81.40000392
 20
12.3500021
 30
0.0
 40
3.0
  1
8
  7
dcStyle0
 72
     5
 11
84.40000392
 21
12.3500021
 31
0.0
100
AcDbText
  0
TEXT
  5
136
330
1F
100
AcDbEntity
  8
22
 62
     2
100
AcDbText
 10
84.40000397
 20
12.3500021
 30
0.0
 40
0.8
  1
 
 41
0.9999999999999964
  7
dcStyle0
 72
     5
 11
85.20000397
 21
12.3500021
 31
0.0
100
AcDbText
  0
TEXT
  5
137
330
1F
100
AcDbEntity
  8
22
 62
     2
100
AcDbText
 10
85.20000398
 20
12.3500021
 30
0.0
 40
3.3
  1
σｂ
 41
0.6313131345717273
  7
dcStyle0
 72
     5
 11
90.20000405
 21
12.3500021
 31
0.0
100
AcDbText
  0
TEXT
  5
138
330
1F
100
AcDbEntity
  8
22
 62
     2
100
AcDbText
 10
90.20000406
 20
12.3500021
 30
0.0
 40
0.8
  1
 
 41
0.9999999999999964
  7
dcStyle0
 72
     5
 11
91.00000406
 21
12.3500021
 31
0.0
100
AcDbText
  0
TEXT
  5
139
330
1F
100
AcDbEntity
  8
22
 62
     2
100
AcDbText
 10
91.00000407
 20
12.3500021
 30
0.0
 40
3.3
  1
Ｚ
 41
0.7575757575757577
  7
dcStyle0
 72
     5
 11
94.00000407
 21
12.3500021
 31
0.0
100
AcDbText
  0
TEXT
  5
13A
330
1F
100
AcDbEntity
  8
22
 62
     2
100
AcDbText
 10
81.40000392
 20
7.35000202
 30
0.0
 40
3.0
  1
2
 41
0.8333333333333334
  7
dcStyle0
 72
     5
 11
83.90000392
 21
7.35000202
 31
0.0
100
AcDbText
  0
TEXT
  5
13B
330
1F
100
AcDbEntity
  8
22
 62
     2
100
AcDbText
 10
83.90000395999999
 20
7.35000202
 30
0.0
 40
3.3
  1
Ｌ－Ｓ
 41
0.8333333352974192
  7
dcStyle0
 72
     5
 11
93.8000041
 21
7.35000202
 31
0.0
100
AcDbText
  0
TEXT
  5
13C
330
1F
100
AcDbEntity
  8
22
 62
     2
100
AcDbText
 10
95.40000413
 20
9.85000206
 30
0.0
 40
3.3
  1
＝
 41
0.7575757575757577
  7
dcStyle0
 72
     5
 11
98.40000413
 21
9.85000206
 31
0.0
100
AcDbText
  0
TEXT
  5
13D
330
1F
100
AcDbEntity
  8
22
 62
     2
100
AcDbText
 10
100.90000422
 20
12.3500021
 30
0.0
 40
3.0
  1
8
 41
0.8333333333333334
  7
dcStyle0
 72
     5
 11
103.40000422
 21
12.3500021
 31
0.0
100
AcDbText
  0
TEXT
  5
13E
330
1F
100
AcDbEntity
  8
22
 62
     2
100
AcDbText
 10
103.30000425
 20
12.3500021
 30
0.0
 40
3.3
  1
×
 41
0.8333333333333327
  7
dcStyle0
 72
     5
 11
106.60000425
 21
12.3500021
 31
0.0
100
AcDbText
  0
TEXT
  5
13F
330
1F
100
AcDbEntity
  8
22
 62
     2
100
AcDbText
 10
104.80000427
 20
12.3500021
 30
0.0
 40
3.0
  1
 180 
 41
0.8333333355555557
  7
dcStyle0
 72
     5
 11
117.30000447
 21
12.3500021
 31
0.0
100
AcDbText
  0
TEXT
  5
140
330
1F
100
AcDbEntity
  8
22
 62
     2
100
AcDbText
 10
115.95000444
 20
12.3500021
 30
0.0
 40
3.3
  1
×Ｚ
 41
0.8583691005360198
  7
dcStyle0
 72
     5
 11
123.95000456
 21
12.3500021
 31
0.0
100
AcDbText
  0
TEXT
  5
141
330
1F
100
AcDbEntity
  8
22
 62
     2
100
AcDbText
 10
100.90000422
 20
7.35000202
 30
0.0
 40
3.0
  1
2
 41
0.8333333333333334
  7
dcStyle0
 72
     5
 11
103.40000422
 21
7.35000202
 31
0.0
100
AcDbText
  0
TEXT
  5
142
330
1F
100
AcDbEntity
  8
22
 62
     2
100
AcDbText
 10
103.30000425
 20
7.35000202
 30
0.0
 40
3.3
  1
×
 41
0.8333333333333327
  7
dcStyle0
 72
     5
 11
106.60000425
 21
7.35000202
 31
0.0
100
AcDbText
  0
TEXT
  5
143
330
1F
100
AcDbEntity
  8
22
 62
     2
100
AcDbText
 10
104.80000427
 20
7.35000202
 30
0.0
 40
3.0
  1
 600 
 41
0.8333333355555557
  7
dcStyle0
 72
     5
 11
117.30000447
 21
7.35000202
 31
0.0
100
AcDbText
  0
TEXT
  5
144
330
1F
100
AcDbEntity
  8
22
 62
     2
100
AcDbText
 10
115.30000443
 20
7.35000202
 30
0.0
 40
3.3
  1
－
 41
0.6313131313131314
  7
dcStyle0
 72
     5
 11
117.80000443
 21
7.35000202
 31
0.0
100
AcDbText
  0
TEXT
  5
145
330
1F
100
AcDbEntity
  8
22
 62
     2
100
AcDbText
 10
116.80000445
 20
7.35000202
 30
0.0
 40
3.0
  1
 200 
 41
0.8333333355555557
  7
dcStyle0
 72
     5
 11
129.30000465
 21
7.35000202
 31
0.0
100
AcDbText
  0
TEXT
  5
146
330
1F
100
AcDbEntity
  8
22
 62
     2
100
AcDbText
 10
131.40000467
 20
9.85000206
 30
0.0
 40
3.3
  1
＝
 41
0.7575757575757577
  7
dcStyle0
 72
     5
 11
134.40000467
 21
9.85000206
 31
0.0
100
AcDbText
  0
TEXT
  5
147
330
1F
100
AcDbEntity
  8
22
 62
     2
100
AcDbText
 10
134.40000471
 20
9.85000206
 30
0.0
 40
3.0
  1
1.440
 41
0.8333333355555547
  7
dcStyle0
 72
     5
 11
146.90000491
 21
9.85000206
 31
0.0
100
AcDbText
  0
TEXT
  5
148
330
1F
100
AcDbEntity
  8
22
 62
     2
100
AcDbText
 10
146.5500049
 20
9.85000206
 30
0.0
 40
3.3
  1
×Ｚ
 41
0.8583691005360212
  7
dcStyle0
 72
     5
 11
154.55000502
 21
9.85000206
 31
0.0
100
AcDbText
  0
TEXT
  5
149
330
1F
100
AcDbEntity
  8
22
 62
     2
100
AcDbText
 10
70.40000376
 20
0.85000192
 30
0.0
 40
3.3
  1
Ｚ　＝　Ｎ〔Ｚ〕＝
 41
0.6313131346234511
  7
dcStyle0
 72
     5
 11
92.90000408
 21
0.85000192
 31
0.0
100
AcDbText
  0
TEXT
  5
14A
330
1F
100
AcDbEntity
  8
22
 62
     2
100
AcDbText
 10
90.90000407
 20
0.85000192
 30
0.0
 40
3.0
  1
 18 
 41
0.8333333354166671
  7
dcStyle0
 72
     5
 11
100.90000422
 21
0.85000192
 31
0.0
100
AcDbText
  0
TEXT
  5
14B
330
1F
100
AcDbEntity
  8
22
 62
     2
100
AcDbText
 10
98.90000419
 20
0.85000192
 30
0.0
 40
3.3
  1
×
 41
0.7575757575757577
  7
dcStyle0
 72
     5
 11
101.90000419
 21
0.85000192
 31
0.0
100
AcDbText
  0
TEXT
  5
14C
330
1F
100
AcDbEntity
  8
22
 62
     2
100
AcDbText
 10
101.90000423
 20
0.85000192
 30
0.0
 40
3.0
  1
2.467
 41
0.8333333355555557
  7
dcStyle0
 72
     5
 11
114.40000443
 21
0.85000192
 31
0.0
100
AcDbText
  0
TEXT
  5
14D
330
1F
100
AcDbEntity
  8
22
 62
     2
100
AcDbText
 10
114.30000442
 20
0.85000192
 30
0.0
 40
3.3
  1
×
 41
0.8333333333333327
  7
dcStyle0
 72
     5
 11
117.60000442
 21
0.85000192
 31
0.0
100
AcDbText
  0
TEXT
  5
14E
330
1F
100
AcDbEntity
  8
22
 62
     2
100
AcDbText
 10
117.80000447
 20
0.85000192
 30
0.0
 40
3.0
  1
10
 41
0.8333333352777776
  7
dcStyle0
 72
     5
 11
122.80000454
 21
0.85000192
 31
0.0
100
AcDbText
  0
TEXT
  5
14F
330
1F
100
AcDbEntity
  8
22
 62
     2
100
AcDbText
 10
122.80000454
 20
2.85000195
 30
0.0
 40
1.8
  1
3
 41
0.8333333333333333
  7
dcStyle0
 72
     5
 11
124.30000454
 21
2.85000195
 31
0.0
100
AcDbText
  0
TEXT
  5
150
330
1F
100
AcDbEntity
  8
22
 62
     2
100
AcDbText
 10
125.30000458
 20
0.85000192
 30
0.0
 40
3.0
  1
=
  7
dcStyle0
 72
     5
 11
128.30000458
 21
0.85000192
 31
0.0
100
AcDbText
  0
TEXT
  5
151
330
1F
100
AcDbEntity
  8
22
 62
     2
100
AcDbText
 10
128.30000462
 20
0.85000192
 30
0.0
 40
3.0
  1
44.41
 41
0.8333333355555547
  7
dcStyle0
 72
     5
 11
140.80000482
 21
0.85000192
 31
0.0
100
AcDbText
  0
TEXT
  5
152
330
1F
100
AcDbEntity
  8
22
 62
     2
100
AcDbText
 10
140.70000481
 20
0.85000192
 30
0.0
 40
3.3
  1
×
 41
0.8333333333333363
  7
dcStyle0
 72
     5
 11
144.00000481
 21
0.85000192
 31
0.0
100
AcDbText
  0
TEXT
  5
153
330
1F
100
AcDbEntity
  8
22
 62
     2
100
AcDbText
 10
144.20000486
 20
0.85000192
 30
0.0
 40
3.0
  1
10
 41
0.8333333352777776
  7
dcStyle0
 72
     5
 11
149.20000493
 21
0.85000192
 31
0.0
100
AcDbText
  0
TEXT
  5
154
330
1F
100
AcDbEntity
  8
22
 62
     2
100
AcDbText
 10
149.20000494
 20
2.85000195
 30
0.0
 40
1.8
  1
3
 41
0.8333333333333333
  7
dcStyle0
 72
     5
 11
150.70000494
 21
2.85000195
 31
0.0
100
AcDbText
  0
TEXT
  5
155
330
1F
100
AcDbEntity
  8
22
 62
     2
100
AcDbText
 10
65.40000369
 20
-6.149998180000001
 30
0.0
 40
3.3
  1
∴　Ｗ　＝
 41
0.6313131350372412
  7
dcStyle0
 72
     5
 11
77.90000389000001
 21
-6.149998180000001
 31
0.0
100
AcDbText
  0
TEXT
  5
156
330
1F
100
AcDbEntity
  8
22
 62
     2
100
AcDbText
 10
77.90000387
 20
-6.14999818
 30
0.0
 40
3.0
  1
 1.440
 41
0.8333333351851854
  7
dcStyle0
 72
     5
 11
92.90000407000001
 21
-6.14999818
 31
0.0
100
AcDbText
  0
TEXT
  5
157
330
1F
100
AcDbEntity
  8
22
 62
     2
100
AcDbText
 10
92.80000408999999
 20
-6.149998180000001
 30
0.0
 40
3.3
  1
×
 41
0.8333333333333327
  7
dcStyle0
 72
     5
 11
96.10000408999998
 21
-6.149998180000001
 31
0.0
100
AcDbText
  0
TEXT
  5
158
330
1F
100
AcDbEntity
  8
22
 62
     2
100
AcDbText
 10
96.30000415
 20
-6.14999818
 30
0.0
 40
3.0
  1
44.41
 41
0.8333333355555557
  7
dcStyle0
 72
     5
 11
108.80000435
 21
-6.14999818
 31
0.0
100
AcDbText
  0
TEXT
  5
159
330
1F
100
AcDbEntity
  8
22
 62
     2
100
AcDbText
 10
108.70000433
 20
-6.149998180000001
 30
0.0
 40
3.3
  1
×
 41
0.8333333333333327
  7
dcStyle0
 72
     5
 11
112.00000433
 21
-6.149998180000001
 31
0.0
100
AcDbText
  0
TEXT
  5
15A
330
1F
100
AcDbEntity
  8
22
 62
     2
100
AcDbText
 10
112.20000438
 20
-6.14999818
 30
0.0
 40
3.0
  1
10
 41
0.8333333352777776
  7
dcStyle0
 72
     5
 11
117.20000445
 21
-6.14999818
 31
0.0
100
AcDbText
  0
TEXT
  5
15B
330
1F
100
AcDbEntity
  8
22
 62
     2
100
AcDbText
 10
117.20000446
 20
-4.14999815
 30
0.0
 40
1.8
  1
3
 41
0.8333333333333333
  7
dcStyle0
 72
     5
 11
118.70000446
 21
-4.14999815
 31
0.0
100
AcDbText
  0
TEXT
  5
15C
330
1F
100
AcDbEntity
  8
22
 62
     2
100
AcDbText
 10
119.7000045
 20
-6.14999818
 30
0.0
 40
3.0
  1
=
  7
dcStyle0
 72
     5
 11
122.7000045
 21
-6.14999818
 31
0.0
100
AcDbText
  0
TEXT
  5
15D
330
1F
100
AcDbEntity
  8
22
 62
     2
100
AcDbText
 10
122.70000454
 20
-6.14999818
 30
0.0
 40
3.0
  1
63.95
 41
0.8333333355555557
  7
dcStyle0
 72
     5
 11
135.20000474
 21
-6.14999818
 31
0.0
100
AcDbText
  0
TEXT
  5
15E
330
1F
100
AcDbEntity
  8
22
 62
     2
100
AcDbText
 10
135.10000473
 20
-6.149998180000001
 30
0.0
 40
3.3
  1
×
 41
0.8333333333333363
  7
dcStyle0
 72
     5
 11
138.40000473
 21
-6.149998180000001
 31
0.0
100
AcDbText
  0
TEXT
  5
15F
330
1F
100
AcDbEntity
  8
22
 62
     2
100
AcDbText
 10
138.60000478
 20
-6.14999818
 30
0.0
 40
3.0
  1
10
 41
0.8333333352777776
  7
dcStyle0
 72
     5
 11
143.60000485
 21
-6.14999818
 31
0.0
100
AcDbText
  0
TEXT
  5
160
330
1F
100
AcDbEntity
  8
22
 62
     2
100
AcDbText
 10
143.60000485
 20
-4.14999815
 30
0.0
 40
1.8
  1
3
 41
0.8333333333333333
  7
dcStyle0
 72
     5
 11
145.10000485
 21
-4.14999815
 31
0.0
100
AcDbText
  0
TEXT
  5
161
330
1F
100
AcDbEntity
  8
22
 62
     2
100
AcDbText
 10
146.10000489
 20
-6.14999818
 30
0.0
 40
3.0
  1
(N)
 41
0.8333333355555567
  7
dcStyle0
 72
     5
 11
153.60000501
 21
-6.14999818
 31
0.0
100
AcDbText
  0
TEXT
  5
162
330
1F
100
AcDbEntity
  8
22
 62
     2
100
AcDbText
 10
70.40000376
 20
-13.14999828
 30
0.0
 40
3.3
  1
Ｔ
 41
0.6313131313131314
  7
dcStyle0
 72
     5
 11
72.90000376
 21
-13.14999828
 31
0.0
100
AcDbText
  0
TEXT
  5
163
330
1F
100
AcDbEntity
  8
22
 62
     2
100
AcDbText
 10
72.9000038
 20
-13.14999828
 30
0.0
 40
3.0
  1
 = 0
 41
0.8333333354166671
  7
dcStyle0
 72
     5
 11
82.90000395
 21
-13.14999828
 31
0.0
100
AcDbText
  0
TEXT
  5
164
330
1F
100
AcDbEntity
  8
22
 62
     2
100
AcDbText
 10
80.40000391
 20
-13.14999828
 30
0.0
 40
3.0
  1
 .4 
 41
0.8333333354166671
  7
dcStyle0
 72
     5
 11
90.40000406
 21
-13.14999828
 31
0.0
100
AcDbText
  0
TEXT
  5
165
330
1F
100
AcDbEntity
  8
22
 62
     2
100
AcDbText
 10
87.90000402
 20
-11.14999826
 30
0.0
 40
1.8
  1
-1
 41
0.833333335185186
  7
dcStyle0
 72
     5
 11
90.90000406
 21
-11.14999826
 31
0.0
100
AcDbText
  0
TEXT
  5
166
330
1F
100
AcDbEntity
  8
22
 62
     2
100
AcDbText
 10
91.80000408
 20
-13.14999828
 30
0.0
 40
3.3
  1
×
 41
0.8333333333333327
  7
dcStyle0
 72
     5
 11
95.10000407999999
 21
-13.14999828
 31
0.0
100
AcDbText
  0
TEXT
  5
167
330
1F
100
AcDbEntity
  8
22
 62
     2
100
AcDbText
 10
95.30000413
 20
-13.14999828
 30
0.0
 40
3.0
  1
10
 41
0.8333333352777776
  7
dcStyle0
 72
     5
 11
100.3000042
 21
-13.14999828
 31
0.0
100
AcDbText
  0
TEXT
  5
168
330
1F
100
AcDbEntity
  8
22
 62
     2
100
AcDbText
 10
100.30000421
 20
-11.14999826
 30
0.0
 40
1.8
  1
-3
 41
0.833333335185186
  7
dcStyle0
 72
     5
 11
103.30000425
 21
-11.14999826
 31
0.0
100
AcDbText
  0
TEXT
  5
169
330
1F
100
AcDbEntity
  8
22
 62
     2
100
AcDbText
 10
104.20000426
 20
-13.14999828
 30
0.0
 40
3.3
  1
×Ｗ
 41
0.8413461557530504
  7
dcStyle0
 72
     5
 11
111.20000436
 21
-13.14999828
 31
0.0
100
AcDbText
  0
TEXT
  5
16A
330
1F
100
AcDbEntity
  8
22
 62
     2
100
AcDbText
 10
111.20000437
 20
-13.14999828
 30
0.0
 40
3.3
  1
×
 41
0.7575757575757577
  7
dcStyle0
 72
     5
 11
114.20000437
 21
-13.14999828
 31
0.0
100
AcDbText
  0
TEXT
  5
16B
330
1F
100
AcDbEntity
  8
22
 62
     2
100
AcDbText
 10
112.20000438
 20
-13.14999828
 30
0.0
 40
3.0
  1
 10 
 41
0.8333333354166671
  7
dcStyle0
 72
     5
 11
122.20000453
 21
-13.14999828
 31
0.0
100
AcDbText
  0
TEXT
  5
16C
330
1F
100
AcDbEntity
  8
22
 62
     2
100
AcDbText
 10
120.2000045
 20
-11.14999826
 30
0.0
 40
1.8
  1
-1
 41
0.833333335185186
  7
dcStyle0
 72
     5
 11
123.20000454
 21
-11.14999826
 31
0.0
100
AcDbText
  0
TEXT
  5
16D
330
1F
100
AcDbEntity
  8
22
 62
     2
100
AcDbText
 10
70.40000376
 20
-18.14999836
 30
0.0
 40
3.0
  1
  = 0
 41
0.8333333355555557
  7
dcStyle0
 72
     5
 11
82.90000396
 21
-18.14999836
 31
0.0
100
AcDbText
  0
TEXT
  5
16E
330
1F
100
AcDbEntity
  8
22
 62
     2
100
AcDbText
 10
80.40000391
 20
-18.14999836
 30
0.0
 40
3.0
  1
 .4 
 41
0.8333333354166671
  7
dcStyle0
 72
     5
 11
90.40000406
 21
-18.14999836
 31
0.0
100
AcDbText
  0
TEXT
  5
16F
330
1F
100
AcDbEntity
  8
22
 62
     2
100
AcDbText
 10
87.90000402
 20
-16.14999833
 30
0.0
 40
1.8
  1
-1
 41
0.833333335185186
  7
dcStyle0
 72
     5
 11
90.90000406
 21
-16.14999833
 31
0.0
100
AcDbText
  0
TEXT
  5
170
330
1F
100
AcDbEntity
  8
22
 62
     2
100
AcDbText
 10
91.80000408
 20
-18.14999836
 30
0.0
 40
3.3
  1
×
 41
0.8333333333333327
  7
dcStyle0
 72
     5
 11
95.10000407999999
 21
-18.14999836
 31
0.0
100
AcDbText
  0
TEXT
  5
171
330
1F
100
AcDbEntity
  8
22
 62
     2
100
AcDbText
 10
95.30000413
 20
-18.14999836
 30
0.0
 40
3.0
  1
10
 41
0.8333333352777776
  7
dcStyle0
 72
     5
 11
100.3000042
 21
-18.14999836
 31
0.0
100
AcDbText
  0
TEXT
  5
172
330
1F
100
AcDbEntity
  8
22
 62
     2
100
AcDbText
 10
100.30000421
 20
-16.14999833
 30
0.0
 40
1.8
  1
-3
 41
0.833333335185186
  7
dcStyle0
 72
     5
 11
103.30000425
 21
-16.14999833
 31
0.0
100
AcDbText
  0
TEXT
  5
173
330
1F
100
AcDbEntity
  8
22
 62
     2
100
AcDbText
 10
104.20000426
 20
-18.14999836
 30
0.0
 40
3.3
  1
×
 41
0.8333333333333327
  7
dcStyle0
 72
     5
 11
107.50000426
 21
-18.14999836
 31
0.0
100
AcDbText
  0
TEXT
  5
174
330
1F
100
AcDbEntity
  8
22
 62
     2
100
AcDbText
 10
107.70000432
 20
-18.14999836
 30
0.0
 40
3.0
  1
63.95
 41
0.8333333355555557
  7
dcStyle0
 72
     5
 11
120.20000452
 21
-18.14999836
 31
0.0
100
AcDbText
  0
TEXT
  5
175
330
1F
100
AcDbEntity
  8
22
 62
     2
100
AcDbText
 10
120.1000045
 20
-18.14999836
 30
0.0
 40
3.3
  1
×
 41
0.8333333333333327
  7
dcStyle0
 72
     5
 11
123.4000045
 21
-18.14999836
 31
0.0
100
AcDbText
  0
TEXT
  5
176
330
1F
100
AcDbEntity
  8
22
 62
     2
100
AcDbText
 10
123.60000455
 20
-18.14999836
 30
0.0
 40
3.0
  1
10
 41
0.8333333352777776
  7
dcStyle0
 72
     5
 11
128.60000462
 21
-18.14999836
 31
0.0
100
AcDbText
  0
TEXT
  5
177
330
1F
100
AcDbEntity
  8
22
 62
     2
100
AcDbText
 10
128.60000463
 20
-16.14999833
 30
0.0
 40
1.8
  1
3
 41
0.8333333333333333
  7
dcStyle0
 72
     5
 11
130.10000463
 21
-16.14999833
 31
0.0
100
AcDbText
  0
TEXT
  5
178
330
1F
100
AcDbEntity
  8
22
 62
     2
100
AcDbText
 10
131.10000467
 20
-18.14999836
 30
0.0
 40
3.3
  1
×
 41
0.7575757575757577
  7
dcStyle0
 72
     5
 11
134.10000467
 21
-18.14999836
 31
0.0
100
AcDbText
  0
TEXT
  5
179
330
1F
100
AcDbEntity
  8
22
 62
     2
100
AcDbText
 10
132.10000468
 20
-18.14999836
 30
0.0
 40
3.0
  1
 10 
 41
0.8333333354166671
  7
dcStyle0
 72
     5
 11
142.10000483
 21
-18.14999836
 31
0.0
100
AcDbText
  0
TEXT
  5
17A
330
1F
100
AcDbEntity
  8
22
 62
     2
100
AcDbText
 10
140.1000048
 20
-16.14999833
 30
0.0
 40
1.8
  1
-1
 41
0.833333335185186
  7
dcStyle0
 72
     5
 11
143.10000484
 21
-16.14999833
 31
0.0
100
AcDbText
  0
TEXT
  5
17B
330
1F
100
AcDbEntity
  8
22
 62
     2
100
AcDbText
 10
70.40000376
 20
-23.14999843
 30
0.0
 40
3.0
  1
  =
 41
0.8333333355555551
  7
dcStyle0
 72
     5
 11
77.90000388
 21
-23.14999843
 31
0.0
100
AcDbText
  0
TEXT
  5
17C
330
1F
100
AcDbEntity
  8
22
 62
     2
100
AcDbText
 10
77.90000387
 20
-23.14999843
 30
0.0
 40
3.0
  1
 16.0
 41
0.8333333355555557
  7
dcStyle0
 72
     5
 11
90.40000407000001
 21
-23.14999843
 31
0.0
100
AcDbText
  0
TEXT
  5
17D
330
1F
100
AcDbEntity
  8
22
 62
     2
100
AcDbText
 10
92.9000041
 20
-23.14999843
 30
0.0
 40
3.0
  1
>
  7
dcStyle0
 72
     5
 11
95.9000041
 21
-23.14999843
 31
0.0
100
AcDbText
  0
TEXT
  5
17E
330
1F
100
AcDbEntity
  8
22
 62
     2
100
AcDbText
 10
95.90000414
 20
-23.14999843
 30
0.0
 40
3.0
  1
 14 
 41
0.8333333354166671
  7
dcStyle0
 72
     5
 11
105.90000429
 21
-23.14999843
 31
0.0
100
AcDbText
  0
TEXT
  5
17F
330
1F
100
AcDbEntity
  8
22
 62
     2
100
AcDbText
 10
85.30000398
 20
-59.14999897
 30
0.0
 40
3.3
  1
以上より　
 41
0.8413461559818791
  7
dcStyle0
 72
     5
 11
102.80000426
 21
-59.14999897
 31
0.0
100
AcDbText
  0
TEXT
  5
180
330
1F
100
AcDbEntity
  8
22
 62
     2
100
AcDbText
 10
102.80000424
 20
-59.14999897
 30
0.0
 40
3.5
  1
Ｔ－
 41
0.8333333353174596
  7
dcStyle0
 72
     5
 11
109.80000434
 21
-59.14999897
 31
0.0
100
AcDbText
  0
TEXT
  5
181
330
1F
100
AcDbEntity
  8
22
 62
     2
100
AcDbText
 10
109.80000435
 20
-59.14999897
 30
0.0
 40
3.0
  1
 14 
 41
0.8333333354166671
  7
dcStyle0
 72
     5
 11
119.8000045
 21
-59.14999897
 31
0.0
100
AcDbText
  0
TEXT
  5
182
330
1F
100
AcDbEntity
  8
22
 62
     2
100
AcDbText
 10
119.7000045
 20
-59.14999897
 30
0.0
 40
3.3
  1
となる
 41
0.8413461558801776
  7
dcStyle0
 72
     5
 11
130.20000466
 21
-59.14999897
 31
0.0
100
AcDbText
  0
LINE
  5
183
330
1F
100
AcDbEntity
  8
32
  6
Continuous
 62
     4
370
    25
100
AcDbLine
 10
-6.266663998365402
 20
-104.0533329045772
 30
0.0
 11
-6.266663998365402
 21
-91.0299992848436
 31
0.0
  0
ARC
  5
184
330
1F
100
AcDbEntity
  8
32
  6
Continuous
 62
     4
370
    25
100
AcDbCircle
 10
-7.796661643999688
 20
-91.13108517958213
 30
0.0
 40
1.533333347241083
100
AcDbArc
 50
3.779999923706063
 51
73.70000000000016
  0
LINE
  5
185
330
1F
100
AcDbEntity
  8
32
  6
Continuous
 62
     4
370
    25
100
AcDbLine
 10
-7.366305625910922
 20
-89.65938383370508
 30
0.0
 11
-8.806305726046727
 21
-89.1527171582964
 31
0.0
  0
ARC
  5
186
330
1F
100
AcDbEntity
  8
32
  6
Continuous
 62
     4
370
    25
100
AcDbCircle
 10
-8.698243827225646
 20
-89.05545695056927
 30
0.0
 40
0.1466666702429453
100
AcDbArc
 50
111.909997558594
 51
222.330004882813
  0
LINE
  5
187
330
1F
100
AcDbEntity
  8
32
  6
Continuous
 62
     4
370
    25
100
AcDbLine
 10
-8.753338096199371
 20
-88.9208888264102
 30
0.0
 11
-8.27333806282077
 21
-88.68755549009664
 31
0.0
  0
LINE
  5
188
330
1F
100
AcDbEntity
  8
32
  6
Continuous
 62
     4
370
    25
100
AcDbLine
 10
-8.27333806282077
 20
-88.68755549009664
 30
0.0
 11
-8.27333806282077
 21
-88.61088881975436
 31
0.0
  0
ARC
  5
189
330
1F
100
AcDbEntity
  8
32
  6
Continuous
 62
     4
370
    25
100
AcDbCircle
 10
-8.756211400380238
 20
-88.63197152058588
 30
0.0
 40
0.4833333636323616
100
AcDbArc
 50
2.500000000000005
 51
85.55000000000018
  0
ARC
  5
18A
330
1F
100
AcDbEntity
  8
32
  6
Continuous
 62
     4
370
    25
100
AcDbCircle
 10
-8.703317116420138
 20
-89.04996361621212
 30
0.0
 40
0.9000000427166626
100
AcDbArc
 50
90.97999877929706
 51
246.6800048828131
  0
LINE
  5
18B
330
1F
100
AcDbEntity
  8
32
  6
Continuous
 62
     4
370
    25
100
AcDbLine
 10
-9.059597272232676
 20
-89.87644079524625
 30
0.0
 11
-7.436263928667213
 21
-90.44644082494924
 31
0.0
  0
ARC
  5
18C
330
1F
100
AcDbEntity
  8
32
  6
Continuous
 62
     4
370
    25
100
AcDbCircle
 10
-7.636263902838532
 20
-91.01310752439845
 30
0.0
 40
0.600000001986821
100
AcDbArc
 50
0.0
 51
70.57999877929703
  0
LINE
  5
18D
330
1F
100
AcDbEntity
  8
32
  6
Continuous
 62
     4
370
    25
100
AcDbLine
 10
-7.036769502211133
 20
-91.01391028472399
 30
0.0
 11
-7.036769502211133
 21
-104.5872444294752
 31
0.0
  0
ARC
  5
18E
330
1F
100
AcDbEntity
  8
32
  6
Continuous
 62
     4
370
    25
100
AcDbCircle
 10
-6.803436165897619
 20
-104.5872445819795
 30
0.0
 40
0.2333333363135655
100
AcDbArc
 50
180.0000000000004
 51
270.0000000000006
  0
LINE
  5
18F
330
1F
100
AcDbEntity
  8
32
  6
Continuous
 62
     4
370
    25
100
AcDbLine
 10
-6.803436394654049
 20
-104.820577918293
 30
0.0
 11
-5.736769680303666
 21
-104.820577918293
 31
0.0
  0
ARC
  5
190
330
1F
100
AcDbEntity
  8
32
  6
Continuous
 62
     4
370
    25
100
AcDbCircle
 10
-5.736769451547236
 20
-104.5872445819795
 30
0.0
 40
0.2333333363135655
100
AcDbArc
 50
270.0000000000006
 51
0.0000000000008142
  0
LINE
  5
191
330
1F
100
AcDbEntity
  8
32
  6
Continuous
 62
     4
370
    25
100
AcDbLine
 10
-5.503436115233871
 20
-104.5872448869881
 30
0.0
 11
-5.503436115233871
 21
-91.01391074223685
 31
0.0
  0
ARC
  5
192
330
1F
100
AcDbEntity
  8
32
  6
Continuous
 62
     4
370
    25
100
AcDbCircle
 10
-4.903942144728887
 20
-91.01310813355006
 30
0.0
 40
0.600000001986821
100
AcDbArc
 50
109.4199951171877
 51
180.0000000000004
  0
LINE
  5
193
330
1F
100
AcDbEntity
  8
32
  6
Continuous
 62
     4
370
    25
100
AcDbLine
 10
-5.103942118900079
 20
-90.44644104194695
 30
0.0
 11
-3.480608775334616
 21
-89.87644101224399
 31
0.0
  0
ARC
  5
194
330
1F
100
AcDbEntity
  8
32
  6
Continuous
 62
     4
370
    25
100
AcDbCircle
 10
-3.836887310615325
 20
-89.04996313462823
 30
0.0
 40
0.9000000427166626
100
AcDbArc
 50
293.3199951171881
 51
89.02001953125101
  0
ARC
  5
195
330
1F
100
AcDbEntity
  8
32
  6
Continuous
 62
     4
370
    25
100
AcDbCircle
 10
-3.783991864749559
 20
-88.63197108877613
 30
0.0
 40
0.4833333636323616
100
AcDbArc
 50
94.45000000000022
 51
177.5000000000004
  0
LINE
  5
196
330
1F
100
AcDbEntity
  8
32
  6
Continuous
 62
     4
370
    25
100
AcDbLine
 10
-4.266865188529486
 20
-88.61088807234351
 30
0.0
 11
-4.266865188529486
 21
-88.6875547426858
 31
0.0
  0
LINE
  5
197
330
1F
100
AcDbEntity
  8
32
  6
Continuous
 62
     4
370
    25
100
AcDbLine
 10
-4.266865188529486
 20
-88.6875547426858
 30
0.0
 11
-3.786865155150885
 21
-88.92088807899937
 31
0.0
  0
ARC
  5
198
330
1F
100
AcDbEntity
  8
32
  6
Continuous
 62
     4
370
    25
100
AcDbCircle
 10
-3.841959230468596
 20
-89.05545599055709
 30
0.0
 40
0.1466666702429453
100
AcDbArc
 50
317.6699951171883
 51
68.08999023437599
  0
LINE
  5
199
330
1F
100
AcDbEntity
  8
32
  6
Continuous
 62
     4
370
    25
100
AcDbLine
 10
-3.733897035848855
 20
-89.15271631725471
 30
0.0
 11
-5.17389713598466
 21
-89.6593829926634
 31
0.0
  0
ARC
  5
19A
330
1F
100
AcDbEntity
  8
32
  6
Continuous
 62
     4
370
    25
100
AcDbCircle
 10
-4.743542079784966
 20
-91.13108461981643
 30
0.0
 40
1.533333347241083
100
AcDbArc
 50
106.3000000000002
 51
176.2199951171879
  0
LINE
  5
19B
330
1F
100
AcDbEntity
  8
32
  6
Continuous
 62
     4
370
    25
100
AcDbLine
 10
-8.569997428953648
 20
-88.14999940246344
 30
0.0
 11
-3.886663892467816
 21
-88.14999940246344
 31
0.0
  0
LINE
  5
19C
330
1F
100
AcDbEntity
  8
32
  6
Continuous
 62
     4
370
    25
100
AcDbLine
 10
-8.266667447487563
 20
-87.64999939501286
 30
0.0
 11
-8.266667447487563
 21
-83.64999933540821
 31
0.0
  0
LINE
  5
19D
330
1F
100
AcDbEntity
  8
32
  6
Continuous
 62
     4
370
    25
100
AcDbLine
 10
-8.266667447487563
 20
-84.64999935030937
 30
0.0
 11
-10.26666747728989
 21
-84.34999934583902
 31
0.0
  0
LINE
  5
19E
330
1F
100
AcDbEntity
  8
32
  6
Continuous
 62
     4
370
    25
100
AcDbLine
 10
-10.26666747728989
 20
-84.34999934583902
 30
0.0
 11
-10.26666747728989
 21
-84.94999935477972
 31
0.0
  0
LINE
  5
19F
330
1F
100
AcDbEntity
  8
32
  6
Continuous
 62
     4
370
    25
100
AcDbLine
 10
-10.26666747728989
 20
-84.94999935477972
 30
0.0
 11
-8.266667447487563
 21
-84.64999935030937
 31
0.0
  0
LINE
  5
1A0
330
1F
100
AcDbEntity
  8
32
  6
Continuous
 62
     4
370
    25
100
AcDbLine
 10
-8.266667447487563
 20
-84.64999935030937
 30
0.0
 11
-11.26666749219105
 21
-84.64999935030937
 31
0.0
  0
LINE
  5
1A1
330
1F
100
AcDbEntity
  8
32
  6
Continuous
 62
     4
370
    25
100
AcDbLine
 10
-8.266667447487563
 20
-84.64999935030937
 30
0.0
 11
-4.266667387882919
 21
-84.64999935030937
 31
0.0
  0
LINE
  5
1A2
330
1F
100
AcDbEntity
  8
32
  6
Continuous
 62
     4
370
    25
100
AcDbLine
 10
-4.266667387882919
 20
-84.64999935030937
 30
0.0
 11
-2.266667358080596
 21
-84.34999934583902
 31
0.0
  0
LINE
  5
1A3
330
1F
100
AcDbEntity
  8
32
  6
Continuous
 62
     4
370
    25
100
AcDbLine
 10
-2.266667358080596
 20
-84.34999934583902
 30
0.0
 11
-2.266667358080596
 21
-84.94999935477972
 31
0.0
  0
LINE
  5
1A4
330
1F
100
AcDbEntity
  8
32
  6
Continuous
 62
     4
370
    25
100
AcDbLine
 10
-2.266667358080596
 20
-84.94999935477972
 30
0.0
 11
-4.266667387882919
 21
-84.64999935030937
 31
0.0
  0
LINE
  5
1A5
330
1F
100
AcDbEntity
  8
32
  6
Continuous
 62
     4
370
    25
100
AcDbLine
 10
-4.266667387882919
 20
-84.64999935030937
 30
0.0
 11
-1.266667343179435
 21
-84.64999935030937
 31
0.0
  0
LINE
  5
1A6
330
1F
100
AcDbEntity
  8
32
  6
Continuous
 62
     4
370
    25
100
AcDbLine
 10
-4.266667387882919
 20
-83.64999933540821
 30
0.0
 11
-4.266667387882919
 21
-87.64999939501286
 31
0.0
  0
LINE
  5
1A7
330
1F
100
AcDbEntity
  8
32
  6
Continuous
 62
     4
370
    25
100
AcDbLine
 10
-6.599997386336323
 20
-87.64999939501286
 30
0.0
 11
-6.966664400200052
 21
-86.08332933535173
 31
0.0
  0
LINE
  5
1A8
330
1F
100
AcDbEntity
  8
32
  6
Continuous
 62
     4
370
    25
100
AcDbLine
 10
-6.599997386336323
 20
-87.64999939501286
 30
0.0
 11
-7.766667440036979
 21
-85.64999936521053
 31
0.0
  0
LINE
  5
1A9
330
1F
100
AcDbEntity
  8
32
  6
Continuous
 62
     4
370
    25
100
AcDbLine
 10
-10.53333751757949
 20
-80.94999929517508
 30
0.0
 11
-11.70000757128015
 21
-78.94999926537275
 31
0.0
  0
LINE
  5
1AA
330
1F
100
AcDbEntity
  8
32
  6
Continuous
 62
     4
370
    25
100
AcDbLine
 10
-20.03333746840566
 20
-78.94999926537275
 30
0.0
 11
-11.70000757128015
 21
-78.94999926537275
 31
0.0
  0
LINE
  5
1AB
330
1F
100
AcDbEntity
  8
32
  6
Continuous
 62
     4
370
    25
100
AcDbLine
 10
-9.59999743103981
 20
-87.64999939501286
 30
0.0
 11
-9.59999743103981
 21
-85.4499993622303
 31
0.0
  0
LINE
  5
1AC
330
1F
100
AcDbEntity
  8
32
  6
Continuous
 62
     4
370
    25
100
AcDbLine
 10
-9.59999743103981
 20
-83.84999933838844
 30
0.0
 11
-9.59999743103981
 21
-77.64999924600124
 31
0.0
  0
LINE
  5
1AD
330
1F
100
AcDbEntity
  8
32
  6
Continuous
 62
     4
370
    25
100
AcDbLine
 10
-9.59999743103981
 20
-78.6499992609024
 30
0.0
 11
-7.599997401237488
 21
-78.34999925643206
 31
0.0
  0
LINE
  5
1AE
330
1F
100
AcDbEntity
  8
32
  6
Continuous
 62
     4
370
    25
100
AcDbLine
 10
-7.599997401237488
 20
-78.94999926537275
 30
0.0
 11
-7.599997401237488
 21
-78.34999925643206
 31
0.0
  0
LINE
  5
1AF
330
1F
100
AcDbEntity
  8
32
  6
Continuous
 62
     4
370
    25
100
AcDbLine
 10
-7.599997401237488
 20
-78.94999926537275
 30
0.0
 11
-9.59999743103981
 21
-78.6499992609024
 31
0.0
  0
LINE
  5
1B0
330
1F
100
AcDbEntity
  8
32
  6
Continuous
 62
     4
370
    25
100
AcDbLine
 10
-9.59999743103981
 20
-78.6499992609024
 30
0.0
 11
-2.933327104647901
 21
-78.6499992609024
 31
0.0
  0
LINE
  5
1B1
330
1F
100
AcDbEntity
  8
32
  6
Continuous
 62
     4
370
    25
100
AcDbLine
 10
-2.933327104647901
 20
-78.6499992609024
 30
0.0
 11
-4.933327134450224
 21
-78.34999925643206
 31
0.0
  0
LINE
  5
1B2
330
1F
100
AcDbEntity
  8
32
  6
Continuous
 62
     4
370
    25
100
AcDbLine
 10
-4.933327134450224
 20
-78.94999926537275
 30
0.0
 11
-4.933327134450224
 21
-78.34999925643206
 31
0.0
  0
LINE
  5
1B3
330
1F
100
AcDbEntity
  8
32
  6
Continuous
 62
     4
370
    25
100
AcDbLine
 10
-4.933327134450224
 20
-78.94999926537275
 30
0.0
 11
-2.933327104647901
 21
-78.6499992609024
 31
0.0
  0
LINE
  5
1B4
330
1F
100
AcDbEntity
  8
32
  6
Continuous
 62
     4
370
    25
100
AcDbLine
 10
-2.933327104647901
 20
-87.64999939501286
 30
0.0
 11
-2.933327104647901
 21
-85.4499993622303
 31
0.0
  0
LINE
  5
1B5
330
1F
100
AcDbEntity
  8
32
  6
Continuous
 62
     4
370
    25
100
AcDbLine
 10
-2.933327104647901
 20
-83.84999933838844
 30
0.0
 11
-2.933327104647901
 21
-77.64999924600124
 31
0.0
  0
LINE
  5
1B6
330
1F
100
AcDbEntity
  8
32
  6
Continuous
 62
     4
370
    25
100
AcDbLine
 10
-2.433327097197321
 20
-88.14999940246344
 30
0.0
 11
3.566672992209646
 21
-88.14999940246344
 31
0.0
  0
LINE
  5
1B7
330
1F
100
AcDbEntity
  8
32
  6
Continuous
 62
     4
370
    25
100
AcDbLine
 10
2.266672972838137
 20
-90.14999943226576
 30
0.0
 11
2.566672977308485
 21
-88.14999940246344
 31
0.0
  0
LINE
  5
1B8
330
1F
100
AcDbEntity
  8
32
  6
Continuous
 62
     4
370
    25
100
AcDbLine
 10
2.266672972838137
 20
-90.14999943226576
 30
0.0
 11
2.866672981778834
 21
-90.14999943226576
 31
0.0
  0
LINE
  5
1B9
330
1F
100
AcDbEntity
  8
32
  6
Continuous
 62
     4
370
    25
100
AcDbLine
 10
2.866672981778834
 20
-90.14999943226576
 30
0.0
 11
2.566672977308485
 21
-88.14999940246344
 31
0.0
  0
LINE
  5
1BA
330
1F
100
AcDbEntity
  8
32
  6
Continuous
 62
     4
370
    25
100
AcDbLine
 10
2.566672977308485
 20
-104.8167003954455
 30
0.0
 11
2.566672977308485
 21
-88.14999940246344
 31
0.0
  0
LINE
  5
1BB
330
1F
100
AcDbEntity
  8
32
  6
Continuous
 62
     4
370
    25
100
AcDbLine
 10
2.566672977308485
 20
-104.8167003954455
 30
0.0
 11
2.266672972838137
 21
-102.8167003656432
 31
0.0
  0
LINE
  5
1BC
330
1F
100
AcDbEntity
  8
32
  6
Continuous
 62
     4
370
    25
100
AcDbLine
 10
2.266672972838137
 20
-102.8167003656432
 30
0.0
 11
2.866672981778834
 21
-102.8167003656432
 31
0.0
  0
LINE
  5
1BD
330
1F
100
AcDbEntity
  8
32
  6
Continuous
 62
     4
370
    25
100
AcDbLine
 10
2.866672981778834
 20
-102.8167003656432
 30
0.0
 11
2.566672977308485
 21
-104.8167003954455
 31
0.0
  0
LINE
  5
1BE
330
1F
100
AcDbEntity
  8
32
  6
Continuous
 62
     4
370
    25
100
AcDbLine
 10
-4.433327126999643
 20
-104.8167003954455
 30
0.0
 11
3.566672992209646
 21
-104.8167003954455
 31
0.0
  0
LINE
  5
1BF
330
1F
100
AcDbEntity
  8
32
  6
Continuous
 62
     4
370
    25
100
AcDbLine
 10
-7.033327356477528
 20
-110.3167004774019
 30
0.0
 11
-7.033327356477528
 21
-105.3167004028961
 31
0.0
  0
LINE
  5
1C0
330
1F
100
AcDbEntity
  8
32
  6
Continuous
 62
     4
370
    25
100
AcDbLine
 10
-7.033327356477528
 20
-109.3167004625008
 30
0.0
 11
-9.03332738627985
 21
-109.0167004580304
 31
0.0
  0
LINE
  5
1C1
330
1F
100
AcDbEntity
  8
32
  6
Continuous
 62
     4
370
    25
100
AcDbLine
 10
-9.03332738627985
 20
-109.6167004669711
 30
0.0
 11
-9.03332738627985
 21
-109.0167004580304
 31
0.0
  0
LINE
  5
1C2
330
1F
100
AcDbEntity
  8
32
  6
Continuous
 62
     4
370
    25
100
AcDbLine
 10
-9.03332738627985
 20
-109.6167004669711
 30
0.0
 11
-7.033327356477528
 21
-109.3167004625008
 31
0.0
  0
LINE
  5
1C3
330
1F
100
AcDbEntity
  8
32
  6
Continuous
 62
     4
370
    25
100
AcDbLine
 10
-10.03332740118101
 20
-109.3167004625008
 30
0.0
 11
-7.033327356477528
 21
-109.3167004625008
 31
0.0
  0
LINE
  5
1C4
330
1F
100
AcDbEntity
  8
32
  6
Continuous
 62
     4
370
    25
100
AcDbLine
 10
-7.033327356477528
 20
-109.3167004625008
 30
0.0
 11
-5.499997369945049
 21
-109.3167004625008
 31
0.0
  0
LINE
  5
1C5
330
1F
100
AcDbEntity
  8
32
  6
Continuous
 62
     4
370
    25
100
AcDbLine
 10
-5.499997369945049
 20
-109.3167004625008
 30
0.0
 11
-3.499997340142727
 21
-109.0167004580304
 31
0.0
  0
LINE
  5
1C6
330
1F
100
AcDbEntity
  8
32
  6
Continuous
 62
     4
370
    25
100
AcDbLine
 10
-3.499997340142727
 20
-109.6167004669711
 30
0.0
 11
-3.499997340142727
 21
-109.0167004580304
 31
0.0
  0
LINE
  5
1C7
330
1F
100
AcDbEntity
  8
32
  6
Continuous
 62
     4
370
    25
100
AcDbLine
 10
-3.499997340142727
 20
-109.6167004669711
 30
0.0
 11
-5.499997369945049
 21
-109.3167004625008
 31
0.0
  0
LINE
  5
1C8
330
1F
100
AcDbEntity
  8
32
  6
Continuous
 62
     4
370
    25
100
AcDbLine
 10
-5.499997369945049
 20
-109.3167004625008
 30
0.0
 11
-2.499997325241566
 21
-109.3167004625008
 31
0.0
  0
LINE
  5
1C9
330
1F
100
AcDbEntity
  8
32
  6
Continuous
 62
     4
370
    25
100
AcDbLine
 10
-5.499997369945049
 20
-110.3167004774019
 30
0.0
 11
-5.499997369945049
 21
-105.3167004028961
 31
0.0
  0
TEXT
  5
1CA
330
1F
100
AcDbEntity
  8
32
 62
     2
100
AcDbText
 10
-9.26666746
 20
-83.34999933
 30
0.0
 40
2.0
  1
12.5
 41
0.7500000028125
  7
dcStyle0
 72
     5
 11
-3.26666737
 21
-83.34999933
 31
0.0
100
AcDbText
  0
TEXT
  5
1CB
330
1F
100
AcDbEntity
  8
32
 62
     2
100
AcDbText
 10
-19.53333746
 20
-78.64999926
 30
0.0
 40
2.0
  1
ｾﾗﾐｯｸ
 41
0.7500000029999999
  7
dcStyle0
 72
     5
 11
-12.03333734
 21
-78.64999926
 31
0.0
100
AcDbText
  0
TEXT
  5
1CC
330
1F
100
AcDbEntity
  8
32
 62
     2
100
AcDbText
 10
-7.76665733
 20
-77.64999925
 30
0.0
 40
2.0
  1
20
 41
0.7500000025000002
  7
dcStyle0
 72
     5
 11
-4.766657289999999
 21
-77.64999925
 31
0.0
100
AcDbText
  0
TEXT
  5
1CD
330
1F
100
AcDbEntity
  8
32
 62
     2
100
AcDbText
 10
2.066672972403828
 20
-99.4833701567949
 30
0.0
 40
2.0
  1
 50 
 50
90.0000001836389
 41
0.7500000028125
  7
dcStyle0
 72
     5
 11
2.066672953173207
 21
-93.4833700667949
 31
0.0
100
AcDbText
  0
TEXT
  5
1CE
330
1F
100
AcDbEntity
  8
32
 62
     2
100
AcDbText
 10
-5.49999737
 20
-108.61670045
 30
0.0
 40
2.0
  1
 4.6 
 41
0.750000003
  7
dcStyle0
 72
     5
 11
2.00000275
 21
-108.61670045
 31
0.0
100
AcDbText
  0
LINE
  5
1CF
330
1F
100
AcDbEntity
  8
16
  6
Continuous
 62
     3
370
    25
100
AcDbLine
 10
-182.0
 20
-128.25
 30
0.0
 11
-178.9999999552965
 21
-128.25
 31
0.0
  0
LINE
  5
1D0
330
1F
100
AcDbEntity
  8
16
  6
Continuous
 62
     3
370
    25
100
AcDbLine
 10
-178.9999999552965
 20
-128.25
 30
0.0
 11
-178.9999999552965
 21
-125.2499999552965
 31
0.0
  0
LINE
  5
1D1
330
1F
100
AcDbEntity
  8
16
  6
Continuous
 62
     3
370
    25
100
AcDbLine
 10
-182.0
 20
-125.2499999552965
 30
0.0
 11
-178.9999999552965
 21
-125.2499999552965
 31
0.0
  0
LINE
  5
1D2
330
1F
100
AcDbEntity
  8
16
  6
Continuous
 62
     3
370
    25
100
AcDbLine
 10
-182.0
 20
-128.25
 30
0.0
 11
-182.0
 21
-125.2499999552965
 31
0.0
  0
LINE
  5
1D3
330
1F
100
AcDbEntity
  8
16
  6
Continuous
 62
     3
370
    25
100
AcDbLine
 10
-182.0
 20
-128.25
 30
0.0
 11
-178.9999999552965
 21
-128.25
 31
0.0
  0
LINE
  5
1D4
330
1F
100
AcDbEntity
  8
16
  6
Continuous
 62
     3
370
    25
100
AcDbLine
 10
-178.9999999552965
 20
-128.25
 30
0.0
 11
-178.9999999552965
 21
-125.2499999552965
 31
0.0
  0
LINE
  5
1D5
330
1F
100
AcDbEntity
  8
16
  6
Continuous
 62
     3
370
    25
100
AcDbLine
 10
-182.0
 20
-125.2499999552965
 30
0.0
 11
-178.9999999552965
 21
-125.2499999552965
 31
0.0
  0
LINE
  5
1D6
330
1F
100
AcDbEntity
  8
16
  6
Continuous
 62
     3
370
    25
100
AcDbLine
 10
-182.0
 20
-128.25
 30
0.0
 11
-182.0
 21
-125.2499999552965
 31
0.0
  0
LINE
  5
1D7
330
1F
100
AcDbEntity
  8
16
  6
Continuous
 62
     3
370
    25
100
AcDbLine
 10
-182.0
 20
-128.25
 30
0.0
 11
-178.9999999552965
 21
-128.25
 31
0.0
  0
LINE
  5
1D8
330
1F
100
AcDbEntity
  8
16
  6
Continuous
 62
     3
370
    25
100
AcDbLine
 10
-178.9999999552965
 20
-128.25
 30
0.0
 11
-178.9999999552965
 21
-125.2499999552965
 31
0.0
  0
LINE
  5
1D9
330
1F
100
AcDbEntity
  8
16
  6
Continuous
 62
     3
370
    25
100
AcDbLine
 10
-182.0
 20
-125.2499999552965
 30
0.0
 11
-178.9999999552965
 21
-125.2499999552965
 31
0.0
  0
LINE
  5
1DA
330
1F
100
AcDbEntity
  8
16
  6
Continuous
 62
     3
370
    25
100
AcDbLine
 10
-182.0
 20
-128.25
 30
0.0
 11
-182.0
 21
-125.2499999552965
 31
0.0
  0
LINE
  5
1DB
330
1F
100
AcDbEntity
  8
16
  6
Continuous
 62
     3
370
    25
100
AcDbLine
 10
-182.0
 20
-128.25
 30
0.0
 11
-178.9999999552965
 21
-128.25
 31
0.0
  0
LINE
  5
1DC
330
1F
100
AcDbEntity
  8
16
  6
Continuous
 62
     3
370
    25
100
AcDbLine
 10
-178.9999999552965
 20
-128.25
 30
0.0
 11
-178.9999999552965
 21
-125.2499999552965
 31
0.0
  0
LINE
  5
1DD
330
1F
100
AcDbEntity
  8
16
  6
Continuous
 62
     3
370
    25
100
AcDbLine
 10
-182.0
 20
-125.2499999552965
 30
0.0
 11
-178.9999999552965
 21
-125.2499999552965
 31
0.0
  0
LINE
  5
1DE
330
1F
100
AcDbEntity
  8
16
  6
Continuous
 62
     3
370
    25
100
AcDbLine
 10
-182.0
 20
-128.25
 30
0.0
 11
-182.0
 21
-125.2499999552965
 31
0.0
  0
LINE
  5
1DF
330
1F
100
AcDbEntity
  8
16
  6
Continuous
 62
     3
370
    25
100
AcDbLine
 10
-182.0
 20
-128.25
 30
0.0
 11
-178.9999999552965
 21
-128.25
 31
0.0
  0
LINE
  5
1E0
330
1F
100
AcDbEntity
  8
16
  6
Continuous
 62
     3
370
    25
100
AcDbLine
 10
-178.9999999552965
 20
-128.25
 30
0.0
 11
-178.9999999552965
 21
-125.2499999552965
 31
0.0
  0
LINE
  5
1E1
330
1F
100
AcDbEntity
  8
16
  6
Continuous
 62
     3
370
    25
100
AcDbLine
 10
-182.0
 20
-125.2499999552965
 30
0.0
 11
-178.9999999552965
 21
-125.2499999552965
 31
0.0
  0
LINE
  5
1E2
330
1F
100
AcDbEntity
  8
16
  6
Continuous
 62
     3
370
    25
100
AcDbLine
 10
-182.0
 20
-128.25
 30
0.0
 11
-182.0
 21
-125.2499999552965
 31
0.0
  0
LINE
  5
1E3
330
1F
100
AcDbEntity
  8
16
  6
Continuous
 62
     3
370
    25
100
AcDbLine
 10
-103.6875
 20
59.10000610351562
 30
0.0
 11
-66.3125
 21
59.10000610351562
 31
0.0
  0
LINE
  5
1E4
330
1F
100
AcDbEntity
  8
16
  6
Continuous
 62
     3
370
    25
100
AcDbLine
 10
-66.3125
 20
58.53750610351562
 30
0.0
 11
-66.3125
 21
59.10000610351562
 31
0.0
  0
LINE
  5
1E5
330
1F
100
AcDbEntity
  8
16
  6
Continuous
 62
     3
370
    25
100
AcDbLine
 10
-103.6875
 20
58.53750610351562
 30
0.0
 11
-66.3125
 21
58.53750610351562
 31
0.0
  0
LINE
  5
1E6
330
1F
100
AcDbEntity
  8
16
  6
Continuous
 62
     3
370
    25
100
AcDbLine
 10
-103.6875
 20
58.53750610351562
 30
0.0
 11
-103.6875
 21
59.10000610351562
 31
0.0
  0
LINE
  5
1E7
330
1F
100
AcDbEntity
  8
16
  6
Continuous
 62
     3
370
    25
100
AcDbLine
 10
-103.6875
 20
-27.83749389648437
 30
0.0
 11
-66.3125
 21
-27.83749389648437
 31
0.0
  0
LINE
  5
1E8
330
1F
100
AcDbEntity
  8
16
  6
Continuous
 62
     3
370
    25
100
AcDbLine
 10
-66.3125
 20
-28.39999389648437
 30
0.0
 11
-66.3125
 21
-27.83749389648437
 31
0.0
  0
LINE
  5
1E9
330
1F
100
AcDbEntity
  8
16
  6
Continuous
 62
     3
370
    25
100
AcDbLine
 10
-103.6875
 20
-28.39999389648437
 30
0.0
 11
-66.3125
 21
-28.39999389648437
 31
0.0
  0
LINE
  5
1EA
330
1F
100
AcDbEntity
  8
16
  6
Continuous
 62
     3
370
    25
100
AcDbLine
 10
-103.6875
 20
-28.39999389648437
 30
0.0
 11
-103.6875
 21
-27.83749389648437
 31
0.0
  0
LINE
  5
1EB
330
1F
100
AcDbEntity
  8
16
  6
Continuous
 62
     3
370
    25
100
AcDbLine
 10
-101.1875
 20
47.03750610351562
 30
0.0
 11
-100.1999999880791
 21
47.03750610351562
 31
0.0
  0
LINE
  5
1EC
330
1F
100
AcDbEntity
  8
16
  6
Continuous
 62
     3
370
    25
100
AcDbLine
 10
-97.69999694824219
 20
47.03750610351562
 30
0.0
 11
-96.71249693632126
 21
47.03750610351562
 31
0.0
  0
LINE
  5
1ED
330
1F
100
AcDbEntity
  8
16
  6
Continuous
 62
     3
370
    25
100
AcDbLine
 10
-94.2125015258789
 20
47.03750610351562
 30
0.0
 11
-93.22500151395798
 21
47.03750610351562
 31
0.0
  0
LINE
  5
1EE
330
1F
100
AcDbEntity
  8
16
  6
Continuous
 62
     3
370
    25
100
AcDbLine
 10
-90.7249984741211
 20
47.03750610351562
 30
0.0
 11
-89.73749846220016
 21
47.03750610351562
 31
0.0
  0
LINE
  5
1EF
330
1F
100
AcDbEntity
  8
16
  6
Continuous
 62
     3
370
    25
100
AcDbLine
 10
-87.23750305175781
 20
47.03750610351562
 30
0.0
 11
-86.25000303983688
 21
47.03750610351562
 31
0.0
  0
LINE
  5
1F0
330
1F
100
AcDbEntity
  8
16
  6
Continuous
 62
     3
370
    25
100
AcDbLine
 10
-83.75
 20
47.03750610351562
 30
0.0
 11
-82.76249998807907
 21
47.03750610351562
 31
0.0
  0
LINE
  5
1F1
330
1F
100
AcDbEntity
  8
16
  6
Continuous
 62
     3
370
    25
100
AcDbLine
 10
-80.26249694824219
 20
47.03750610351562
 30
0.0
 11
-79.27499693632126
 21
47.03750610351562
 31
0.0
  0
LINE
  5
1F2
330
1F
100
AcDbEntity
  8
16
  6
Continuous
 62
     3
370
    25
100
AcDbLine
 10
-76.7750015258789
 20
47.03750610351562
 30
0.0
 11
-75.78750151395798
 21
47.03750610351562
 31
0.0
  0
LINE
  5
1F3
330
1F
100
AcDbEntity
  8
16
  6
Continuous
 62
     3
370
    25
100
AcDbLine
 10
-73.2874984741211
 20
47.03750610351562
 30
0.0
 11
-72.29999846220016
 21
47.03750610351562
 31
0.0
  0
LINE
  5
1F4
330
1F
100
AcDbEntity
  8
16
  6
Continuous
 62
     3
370
    25
100
AcDbLine
 10
-69.80000305175781
 20
47.03750610351562
 30
0.0
 11
-68.81250303983688
 21
47.03750610351562
 31
0.0
  0
LINE
  5
1F5
330
1F
100
AcDbEntity
  8
16
  6
Continuous
 62
     3
370
    25
100
AcDbLine
 10
-101.1875
 20
46.16250610351562
 30
0.0
 11
-100.1999999880791
 21
46.16250610351562
 31
0.0
  0
LINE
  5
1F6
330
1F
100
AcDbEntity
  8
16
  6
Continuous
 62
     3
370
    25
100
AcDbLine
 10
-97.69999694824219
 20
46.16250610351562
 30
0.0
 11
-96.71249693632126
 21
46.16250610351562
 31
0.0
  0
LINE
  5
1F7
330
1F
100
AcDbEntity
  8
16
  6
Continuous
 62
     3
370
    25
100
AcDbLine
 10
-94.2125015258789
 20
46.16250610351562
 30
0.0
 11
-93.22500151395798
 21
46.16250610351562
 31
0.0
  0
LINE
  5
1F8
330
1F
100
AcDbEntity
  8
16
  6
Continuous
 62
     3
370
    25
100
AcDbLine
 10
-90.7249984741211
 20
46.16250610351562
 30
0.0
 11
-89.73749846220016
 21
46.16250610351562
 31
0.0
  0
LINE
  5
1F9
330
1F
100
AcDbEntity
  8
16
  6
Continuous
 62
     3
370
    25
100
AcDbLine
 10
-87.23750305175781
 20
46.16250610351562
 30
0.0
 11
-86.25000303983688
 21
46.16250610351562
 31
0.0
  0
LINE
  5
1FA
330
1F
100
AcDbEntity
  8
16
  6
Continuous
 62
     3
370
    25
100
AcDbLine
 10
-83.75
 20
46.16250610351562
 30
0.0
 11
-82.76249998807907
 21
46.16250610351562
 31
0.0
  0
LINE
  5
1FB
330
1F
100
AcDbEntity
  8
16
  6
Continuous
 62
     3
370
    25
100
AcDbLine
 10
-80.26249694824219
 20
46.16250610351562
 30
0.0
 11
-79.27499693632126
 21
46.16250610351562
 31
0.0
  0
LINE
  5
1FC
330
1F
100
AcDbEntity
  8
16
  6
Continuous
 62
     3
370
    25
100
AcDbLine
 10
-76.7750015258789
 20
46.16250610351562
 30
0.0
 11
-75.78750151395798
 21
46.16250610351562
 31
0.0
  0
LINE
  5
1FD
330
1F
100
AcDbEntity
  8
16
  6
Continuous
 62
     3
370
    25
100
AcDbLine
 10
-73.2874984741211
 20
46.16250610351562
 30
0.0
 11
-72.29999846220016
 21
46.16250610351562
 31
0.0
  0
LINE
  5
1FE
330
1F
100
AcDbEntity
  8
16
  6
Continuous
 62
     3
370
    25
100
AcDbLine
 10
-69.80000305175781
 20
46.16250610351562
 30
0.0
 11
-68.81250303983688
 21
46.16250610351562
 31
0.0
  0
LINE
  5
1FF
330
1F
100
AcDbEntity
  8
16
  6
Continuous
 62
     3
370
    25
100
AcDbLine
 10
-101.1875
 20
34.53750610351562
 30
0.0
 11
-100.1999999880791
 21
34.53750610351562
 31
0.0
  0
LINE
  5
200
330
1F
100
AcDbEntity
  8
16
  6
Continuous
 62
     3
370
    25
100
AcDbLine
 10
-97.69999694824219
 20
34.53750610351562
 30
0.0
 11
-96.71249693632126
 21
34.53750610351562
 31
0.0
  0
LINE
  5
201
330
1F
100
AcDbEntity
  8
16
  6
Continuous
 62
     3
370
    25
100
AcDbLine
 10
-94.2125015258789
 20
34.53750610351562
 30
0.0
 11
-93.22500151395798
 21
34.53750610351562
 31
0.0
  0
LINE
  5
202
330
1F
100
AcDbEntity
  8
16
  6
Continuous
 62
     3
370
    25
100
AcDbLine
 10
-90.7249984741211
 20
34.53750610351562
 30
0.0
 11
-89.73749846220016
 21
34.53750610351562
 31
0.0
  0
LINE
  5
203
330
1F
100
AcDbEntity
  8
16
  6
Continuous
 62
     3
370
    25
100
AcDbLine
 10
-87.23750305175781
 20
34.53750610351562
 30
0.0
 11
-86.25000303983688
 21
34.53750610351562
 31
0.0
  0
LINE
  5
204
330
1F
100
AcDbEntity
  8
16
  6
Continuous
 62
     3
370
    25
100
AcDbLine
 10
-83.75
 20
34.53750610351562
 30
0.0
 11
-82.76249998807907
 21
34.53750610351562
 31
0.0
  0
LINE
  5
205
330
1F
100
AcDbEntity
  8
16
  6
Continuous
 62
     3
370
    25
100
AcDbLine
 10
-80.26249694824219
 20
34.53750610351562
 30
0.0
 11
-79.27499693632126
 21
34.53750610351562
 31
0.0
  0
LINE
  5
206
330
1F
100
AcDbEntity
  8
16
  6
Continuous
 62
     3
370
    25
100
AcDbLine
 10
-76.7750015258789
 20
34.53750610351562
 30
0.0
 11
-75.78750151395798
 21
34.53750610351562
 31
0.0
  0
LINE
  5
207
330
1F
100
AcDbEntity
  8
16
  6
Continuous
 62
     3
370
    25
100
AcDbLine
 10
-73.2874984741211
 20
34.53750610351562
 30
0.0
 11
-72.29999846220016
 21
34.53750610351562
 31
0.0
  0
LINE
  5
208
330
1F
100
AcDbEntity
  8
16
  6
Continuous
 62
     3
370
    25
100
AcDbLine
 10
-69.80000305175781
 20
34.53750610351562
 30
0.0
 11
-68.81250303983688
 21
34.53750610351562
 31
0.0
  0
LINE
  5
209
330
1F
100
AcDbEntity
  8
16
  6
Continuous
 62
     3
370
    25
100
AcDbLine
 10
-101.1875
 20
33.66250610351562
 30
0.0
 11
-100.1999999880791
 21
33.66250610351562
 31
0.0
  0
LINE
  5
20A
330
1F
100
AcDbEntity
  8
16
  6
Continuous
 62
     3
370
    25
100
AcDbLine
 10
-97.69999694824219
 20
33.66250610351562
 30
0.0
 11
-96.71249693632126
 21
33.66250610351562
 31
0.0
  0
LINE
  5
20B
330
1F
100
AcDbEntity
  8
16
  6
Continuous
 62
     3
370
    25
100
AcDbLine
 10
-94.2125015258789
 20
33.66250610351562
 30
0.0
 11
-93.22500151395798
 21
33.66250610351562
 31
0.0
  0
LINE
  5
20C
330
1F
100
AcDbEntity
  8
16
  6
Continuous
 62
     3
370
    25
100
AcDbLine
 10
-90.7249984741211
 20
33.66250610351562
 30
0.0
 11
-89.73749846220016
 21
33.66250610351562
 31
0.0
  0
LINE
  5
20D
330
1F
100
AcDbEntity
  8
16
  6
Continuous
 62
     3
370
    25
100
AcDbLine
 10
-87.23750305175781
 20
33.66250610351562
 30
0.0
 11
-86.25000303983688
 21
33.66250610351562
 31
0.0
  0
LINE
  5
20E
330
1F
100
AcDbEntity
  8
16
  6
Continuous
 62
     3
370
    25
100
AcDbLine
 10
-83.75
 20
33.66250610351562
 30
0.0
 11
-82.76249998807907
 21
33.66250610351562
 31
0.0
  0
LINE
  5
20F
330
1F
100
AcDbEntity
  8
16
  6
Continuous
 62
     3
370
    25
100
AcDbLine
 10
-80.26249694824219
 20
33.66250610351562
 30
0.0
 11
-79.27499693632126
 21
33.66250610351562
 31
0.0
  0
LINE
  5
210
330
1F
100
AcDbEntity
  8
16
  6
Continuous
 62
     3
370
    25
100
AcDbLine
 10
-76.7750015258789
 20
33.66250610351562
 30
0.0
 11
-75.78750151395798
 21
33.66250610351562
 31
0.0
  0
LINE
  5
211
330
1F
100
AcDbEntity
  8
16
  6
Continuous
 62
     3
370
    25
100
AcDbLine
 10
-73.2874984741211
 20
33.66250610351562
 30
0.0
 11
-72.29999846220016
 21
33.66250610351562
 31
0.0
  0
LINE
  5
212
330
1F
100
AcDbEntity
  8
16
  6
Continuous
 62
     3
370
    25
100
AcDbLine
 10
-69.80000305175781
 20
33.66250610351562
 30
0.0
 11
-68.81250303983688
 21
33.66250610351562
 31
0.0
  0
LINE
  5
213
330
1F
100
AcDbEntity
  8
16
  6
Continuous
 62
     3
370
    25
100
AcDbLine
 10
-101.1875
 20
22.03750610351562
 30
0.0
 11
-100.1999999880791
 21
22.03750610351562
 31
0.0
  0
LINE
  5
214
330
1F
100
AcDbEntity
  8
16
  6
Continuous
 62
     3
370
    25
100
AcDbLine
 10
-97.69999694824219
 20
22.03750610351562
 30
0.0
 11
-96.71249693632126
 21
22.03750610351562
 31
0.0
  0
LINE
  5
215
330
1F
100
AcDbEntity
  8
16
  6
Continuous
 62
     3
370
    25
100
AcDbLine
 10
-94.2125015258789
 20
22.03750610351562
 30
0.0
 11
-93.22500151395798
 21
22.03750610351562
 31
0.0
  0
LINE
  5
216
330
1F
100
AcDbEntity
  8
16
  6
Continuous
 62
     3
370
    25
100
AcDbLine
 10
-90.7249984741211
 20
22.03750610351562
 30
0.0
 11
-89.73749846220016
 21
22.03750610351562
 31
0.0
  0
LINE
  5
217
330
1F
100
AcDbEntity
  8
16
  6
Continuous
 62
     3
370
    25
100
AcDbLine
 10
-87.23750305175781
 20
22.03750610351562
 30
0.0
 11
-86.25000303983688
 21
22.03750610351562
 31
0.0
  0
LINE
  5
218
330
1F
100
AcDbEntity
  8
16
  6
Continuous
 62
     3
370
    25
100
AcDbLine
 10
-83.75
 20
22.03750610351562
 30
0.0
 11
-82.76249998807907
 21
22.03750610351562
 31
0.0
  0
LINE
  5
219
330
1F
100
AcDbEntity
  8
16
  6
Continuous
 62
     3
370
    25
100
AcDbLine
 10
-80.26249694824219
 20
22.03750610351562
 30
0.0
 11
-79.27499693632126
 21
22.03750610351562
 31
0.0
  0
LINE
  5
21A
330
1F
100
AcDbEntity
  8
16
  6
Continuous
 62
     3
370
    25
100
AcDbLine
 10
-76.7750015258789
 20
22.03750610351562
 30
0.0
 11
-75.78750151395798
 21
22.03750610351562
 31
0.0
  0
LINE
  5
21B
330
1F
100
AcDbEntity
  8
16
  6
Continuous
 62
     3
370
    25
100
AcDbLine
 10
-73.2874984741211
 20
22.03750610351562
 30
0.0
 11
-72.29999846220016
 21
22.03750610351562
 31
0.0
  0
LINE
  5
21C
330
1F
100
AcDbEntity
  8
16
  6
Continuous
 62
     3
370
    25
100
AcDbLine
 10
-69.80000305175781
 20
22.03750610351562
 30
0.0
 11
-68.81250303983688
 21
22.03750610351562
 31
0.0
  0
LINE
  5
21D
330
1F
100
AcDbEntity
  8
16
  6
Continuous
 62
     3
370
    25
100
AcDbLine
 10
-101.1875
 20
21.16250610351562
 30
0.0
 11
-100.1999999880791
 21
21.16250610351562
 31
0.0
  0
LINE
  5
21E
330
1F
100
AcDbEntity
  8
16
  6
Continuous
 62
     3
370
    25
100
AcDbLine
 10
-97.69999694824219
 20
21.16250610351562
 30
0.0
 11
-96.71249693632126
 21
21.16250610351562
 31
0.0
  0
LINE
  5
21F
330
1F
100
AcDbEntity
  8
16
  6
Continuous
 62
     3
370
    25
100
AcDbLine
 10
-94.2125015258789
 20
21.16250610351562
 30
0.0
 11
-93.22500151395798
 21
21.16250610351562
 31
0.0
  0
LINE
  5
220
330
1F
100
AcDbEntity
  8
16
  6
Continuous
 62
     3
370
    25
100
AcDbLine
 10
-90.7249984741211
 20
21.16250610351562
 30
0.0
 11
-89.73749846220016
 21
21.16250610351562
 31
0.0
  0
LINE
  5
221
330
1F
100
AcDbEntity
  8
16
  6
Continuous
 62
     3
370
    25
100
AcDbLine
 10
-87.23750305175781
 20
21.16250610351562
 30
0.0
 11
-86.25000303983688
 21
21.16250610351562
 31
0.0
  0
LINE
  5
222
330
1F
100
AcDbEntity
  8
16
  6
Continuous
 62
     3
370
    25
100
AcDbLine
 10
-83.75
 20
21.16250610351562
 30
0.0
 11
-82.76249998807907
 21
21.16250610351562
 31
0.0
  0
LINE
  5
223
330
1F
100
AcDbEntity
  8
16
  6
Continuous
 62
     3
370
    25
100
AcDbLine
 10
-80.26249694824219
 20
21.16250610351562
 30
0.0
 11
-79.27499693632126
 21
21.16250610351562
 31
0.0
  0
LINE
  5
224
330
1F
100
AcDbEntity
  8
16
  6
Continuous
 62
     3
370
    25
100
AcDbLine
 10
-76.7750015258789
 20
21.16250610351562
 30
0.0
 11
-75.78750151395798
 21
21.16250610351562
 31
0.0
  0
LINE
  5
225
330
1F
100
AcDbEntity
  8
16
  6
Continuous
 62
     3
370
    25
100
AcDbLine
 10
-73.2874984741211
 20
21.16250610351562
 30
0.0
 11
-72.29999846220016
 21
21.16250610351562
 31
0.0
  0
LINE
  5
226
330
1F
100
AcDbEntity
  8
16
  6
Continuous
 62
     3
370
    25
100
AcDbLine
 10
-69.80000305175781
 20
21.16250610351562
 30
0.0
 11
-68.81250303983688
 21
21.16250610351562
 31
0.0
  0
LINE
  5
227
330
1F
100
AcDbEntity
  8
16
  6
Continuous
 62
     3
370
    25
100
AcDbLine
 10
-101.1875
 20
9.537506103515625
 30
0.0
 11
-100.1999999880791
 21
9.537506103515625
 31
0.0
  0
LINE
  5
228
330
1F
100
AcDbEntity
  8
16
  6
Continuous
 62
     3
370
    25
100
AcDbLine
 10
-97.69999694824219
 20
9.537506103515625
 30
0.0
 11
-96.71249693632126
 21
9.537506103515625
 31
0.0
  0
LINE
  5
229
330
1F
100
AcDbEntity
  8
16
  6
Continuous
 62
     3
370
    25
100
AcDbLine
 10
-94.2125015258789
 20
9.537506103515625
 30
0.0
 11
-93.22500151395798
 21
9.537506103515625
 31
0.0
  0
LINE
  5
22A
330
1F
100
AcDbEntity
  8
16
  6
Continuous
 62
     3
370
    25
100
AcDbLine
 10
-90.7249984741211
 20
9.537506103515625
 30
0.0
 11
-89.73749846220016
 21
9.537506103515625
 31
0.0
  0
LINE
  5
22B
330
1F
100
AcDbEntity
  8
16
  6
Continuous
 62
     3
370
    25
100
AcDbLine
 10
-87.23750305175781
 20
9.537506103515625
 30
0.0
 11
-86.25000303983688
 21
9.537506103515625
 31
0.0
  0
LINE
  5
22C
330
1F
100
AcDbEntity
  8
16
  6
Continuous
 62
     3
370
    25
100
AcDbLine
 10
-83.75
 20
9.537506103515625
 30
0.0
 11
-82.76249998807907
 21
9.537506103515625
 31
0.0
  0
LINE
  5
22D
330
1F
100
AcDbEntity
  8
16
  6
Continuous
 62
     3
370
    25
100
AcDbLine
 10
-80.26249694824219
 20
9.537506103515625
 30
0.0
 11
-79.27499693632126
 21
9.537506103515625
 31
0.0
  0
LINE
  5
22E
330
1F
100
AcDbEntity
  8
16
  6
Continuous
 62
     3
370
    25
100
AcDbLine
 10
-76.7750015258789
 20
9.537506103515625
 30
0.0
 11
-75.78750151395798
 21
9.537506103515625
 31
0.0
  0
LINE
  5
22F
330
1F
100
AcDbEntity
  8
16
  6
Continuous
 62
     3
370
    25
100
AcDbLine
 10
-73.2874984741211
 20
9.537506103515625
 30
0.0
 11
-72.29999846220016
 21
9.537506103515625
 31
0.0
  0
LINE
  5
230
330
1F
100
AcDbEntity
  8
16
  6
Continuous
 62
     3
370
    25
100
AcDbLine
 10
-69.80000305175781
 20
9.537506103515625
 30
0.0
 11
-68.81250303983688
 21
9.537506103515625
 31
0.0
  0
LINE
  5
231
330
1F
100
AcDbEntity
  8
16
  6
Continuous
 62
     3
370
    25
100
AcDbLine
 10
-101.1875
 20
8.662506103515625
 30
0.0
 11
-100.1999999880791
 21
8.662506103515625
 31
0.0
  0
LINE
  5
232
330
1F
100
AcDbEntity
  8
16
  6
Continuous
 62
     3
370
    25
100
AcDbLine
 10
-97.69999694824219
 20
8.662506103515625
 30
0.0
 11
-96.71249693632126
 21
8.662506103515625
 31
0.0
  0
LINE
  5
233
330
1F
100
AcDbEntity
  8
16
  6
Continuous
 62
     3
370
    25
100
AcDbLine
 10
-94.2125015258789
 20
8.662506103515625
 30
0.0
 11
-93.22500151395798
 21
8.662506103515625
 31
0.0
  0
LINE
  5
234
330
1F
100
AcDbEntity
  8
16
  6
Continuous
 62
     3
370
    25
100
AcDbLine
 10
-90.7249984741211
 20
8.662506103515625
 30
0.0
 11
-89.73749846220016
 21
8.662506103515625
 31
0.0
  0
LINE
  5
235
330
1F
100
AcDbEntity
  8
16
  6
Continuous
 62
     3
370
    25
100
AcDbLine
 10
-87.23750305175781
 20
8.662506103515625
 30
0.0
 11
-86.25000303983688
 21
8.662506103515625
 31
0.0
  0
LINE
  5
236
330
1F
100
AcDbEntity
  8
16
  6
Continuous
 62
     3
370
    25
100
AcDbLine
 10
-83.75
 20
8.662506103515625
 30
0.0
 11
-82.76249998807907
 21
8.662506103515625
 31
0.0
  0
LINE
  5
237
330
1F
100
AcDbEntity
  8
16
  6
Continuous
 62
     3
370
    25
100
AcDbLine
 10
-80.26249694824219
 20
8.662506103515625
 30
0.0
 11
-79.27499693632126
 21
8.662506103515625
 31
0.0
  0
LINE
  5
238
330
1F
100
AcDbEntity
  8
16
  6
Continuous
 62
     3
370
    25
100
AcDbLine
 10
-76.7750015258789
 20
8.662506103515625
 30
0.0
 11
-75.78750151395798
 21
8.662506103515625
 31
0.0
  0
LINE
  5
239
330
1F
100
AcDbEntity
  8
16
  6
Continuous
 62
     3
370
    25
100
AcDbLine
 10
-73.2874984741211
 20
8.662506103515625
 30
0.0
 11
-72.29999846220016
 21
8.662506103515625
 31
0.0
  0
LINE
  5
23A
330
1F
100
AcDbEntity
  8
16
  6
Continuous
 62
     3
370
    25
100
AcDbLine
 10
-69.80000305175781
 20
8.662506103515625
 30
0.0
 11
-68.81250303983688
 21
8.662506103515625
 31
0.0
  0
LINE
  5
23B
330
1F
100
AcDbEntity
  8
16
  6
Continuous
 62
     3
370
    25
100
AcDbLine
 10
-101.1875
 20
-2.962501525878906
 30
0.0
 11
-100.1999999880791
 21
-2.962501525878906
 31
0.0
  0
LINE
  5
23C
330
1F
100
AcDbEntity
  8
16
  6
Continuous
 62
     3
370
    25
100
AcDbLine
 10
-97.69999694824219
 20
-2.962501525878906
 30
0.0
 11
-96.71249693632126
 21
-2.962501525878906
 31
0.0
  0
LINE
  5
23D
330
1F
100
AcDbEntity
  8
16
  6
Continuous
 62
     3
370
    25
100
AcDbLine
 10
-94.2125015258789
 20
-2.962501525878906
 30
0.0
 11
-93.22500151395798
 21
-2.962501525878906
 31
0.0
  0
LINE
  5
23E
330
1F
100
AcDbEntity
  8
16
  6
Continuous
 62
     3
370
    25
100
AcDbLine
 10
-90.7249984741211
 20
-2.962501525878906
 30
0.0
 11
-89.73749846220016
 21
-2.962501525878906
 31
0.0
  0
LINE
  5
23F
330
1F
100
AcDbEntity
  8
16
  6
Continuous
 62
     3
370
    25
100
AcDbLine
 10
-87.23750305175781
 20
-2.962501525878906
 30
0.0
 11
-86.25000303983688
 21
-2.962501525878906
 31
0.0
  0
LINE
  5
240
330
1F
100
AcDbEntity
  8
16
  6
Continuous
 62
     3
370
    25
100
AcDbLine
 10
-83.75
 20
-2.962501525878906
 30
0.0
 11
-82.76249998807907
 21
-2.962501525878906
 31
0.0
  0
LINE
  5
241
330
1F
100
AcDbEntity
  8
16
  6
Continuous
 62
     3
370
    25
100
AcDbLine
 10
-80.26249694824219
 20
-2.962501525878906
 30
0.0
 11
-79.27499693632126
 21
-2.962501525878906
 31
0.0
  0
LINE
  5
242
330
1F
100
AcDbEntity
  8
16
  6
Continuous
 62
     3
370
    25
100
AcDbLine
 10
-76.7750015258789
 20
-2.962501525878906
 30
0.0
 11
-75.78750151395798
 21
-2.962501525878906
 31
0.0
  0
LINE
  5
243
330
1F
100
AcDbEntity
  8
16
  6
Continuous
 62
     3
370
    25
100
AcDbLine
 10
-73.2874984741211
 20
-2.962501525878906
 30
0.0
 11
-72.29999846220016
 21
-2.962501525878906
 31
0.0
  0
LINE
  5
244
330
1F
100
AcDbEntity
  8
16
  6
Continuous
 62
     3
370
    25
100
AcDbLine
 10
-69.80000305175781
 20
-2.962501525878906
 30
0.0
 11
-68.81250303983688
 21
-2.962501525878906
 31
0.0
  0
LINE
  5
245
330
1F
100
AcDbEntity
  8
16
  6
Continuous
 62
     3
370
    25
100
AcDbLine
 10
-101.1875
 20
-3.837501525878906
 30
0.0
 11
-100.1999999880791
 21
-3.837501525878906
 31
0.0
  0
LINE
  5
246
330
1F
100
AcDbEntity
  8
16
  6
Continuous
 62
     3
370
    25
100
AcDbLine
 10
-97.69999694824219
 20
-3.837501525878906
 30
0.0
 11
-96.71249693632126
 21
-3.837501525878906
 31
0.0
  0
LINE
  5
247
330
1F
100
AcDbEntity
  8
16
  6
Continuous
 62
     3
370
    25
100
AcDbLine
 10
-94.2125015258789
 20
-3.837501525878906
 30
0.0
 11
-93.22500151395798
 21
-3.837501525878906
 31
0.0
  0
LINE
  5
248
330
1F
100
AcDbEntity
  8
16
  6
Continuous
 62
     3
370
    25
100
AcDbLine
 10
-90.7249984741211
 20
-3.837501525878906
 30
0.0
 11
-89.73749846220016
 21
-3.837501525878906
 31
0.0
  0
LINE
  5
249
330
1F
100
AcDbEntity
  8
16
  6
Continuous
 62
     3
370
    25
100
AcDbLine
 10
-87.23750305175781
 20
-3.837501525878906
 30
0.0
 11
-86.25000303983688
 21
-3.837501525878906
 31
0.0
  0
LINE
  5
24A
330
1F
100
AcDbEntity
  8
16
  6
Continuous
 62
     3
370
    25
100
AcDbLine
 10
-83.75
 20
-3.837501525878906
 30
0.0
 11
-82.76249998807907
 21
-3.837501525878906
 31
0.0
  0
LINE
  5
24B
330
1F
100
AcDbEntity
  8
16
  6
Continuous
 62
     3
370
    25
100
AcDbLine
 10
-80.26249694824219
 20
-3.837501525878906
 30
0.0
 11
-79.27499693632126
 21
-3.837501525878906
 31
0.0
  0
LINE
  5
24C
330
1F
100
AcDbEntity
  8
16
  6
Continuous
 62
     3
370
    25
100
AcDbLine
 10
-76.7750015258789
 20
-3.837501525878906
 30
0.0
 11
-75.78750151395798
 21
-3.837501525878906
 31
0.0
  0
LINE
  5
24D
330
1F
100
AcDbEntity
  8
16
  6
Continuous
 62
     3
370
    25
100
AcDbLine
 10
-73.2874984741211
 20
-3.837501525878906
 30
0.0
 11
-72.29999846220016
 21
-3.837501525878906
 31
0.0
  0
LINE
  5
24E
330
1F
100
AcDbEntity
  8
16
  6
Continuous
 62
     3
370
    25
100
AcDbLine
 10
-69.80000305175781
 20
-3.837501525878906
 30
0.0
 11
-68.81250303983688
 21
-3.837501525878906
 31
0.0
  0
LINE
  5
24F
330
1F
100
AcDbEntity
  8
16
  6
Continuous
 62
     3
370
    25
100
AcDbLine
 10
-101.1875
 20
-15.46250152587891
 30
0.0
 11
-100.1999999880791
 21
-15.46250152587891
 31
0.0
  0
LINE
  5
250
330
1F
100
AcDbEntity
  8
16
  6
Continuous
 62
     3
370
    25
100
AcDbLine
 10
-97.69999694824219
 20
-15.46250152587891
 30
0.0
 11
-96.71249693632126
 21
-15.46250152587891
 31
0.0
  0
LINE
  5
251
330
1F
100
AcDbEntity
  8
16
  6
Continuous
 62
     3
370
    25
100
AcDbLine
 10
-94.2125015258789
 20
-15.46250152587891
 30
0.0
 11
-93.22500151395798
 21
-15.46250152587891
 31
0.0
  0
LINE
  5
252
330
1F
100
AcDbEntity
  8
16
  6
Continuous
 62
     3
370
    25
100
AcDbLine
 10
-90.7249984741211
 20
-15.46250152587891
 30
0.0
 11
-89.73749846220016
 21
-15.46250152587891
 31
0.0
  0
LINE
  5
253
330
1F
100
AcDbEntity
  8
16
  6
Continuous
 62
     3
370
    25
100
AcDbLine
 10
-87.23750305175781
 20
-15.46250152587891
 30
0.0
 11
-86.25000303983688
 21
-15.46250152587891
 31
0.0
  0
LINE
  5
254
330
1F
100
AcDbEntity
  8
16
  6
Continuous
 62
     3
370
    25
100
AcDbLine
 10
-83.75
 20
-15.46250152587891
 30
0.0
 11
-82.76249998807907
 21
-15.46250152587891
 31
0.0
  0
LINE
  5
255
330
1F
100
AcDbEntity
  8
16
  6
Continuous
 62
     3
370
    25
100
AcDbLine
 10
-80.26249694824219
 20
-15.46250152587891
 30
0.0
 11
-79.27499693632126
 21
-15.46250152587891
 31
0.0
  0
LINE
  5
256
330
1F
100
AcDbEntity
  8
16
  6
Continuous
 62
     3
370
    25
100
AcDbLine
 10
-76.7750015258789
 20
-15.46250152587891
 30
0.0
 11
-75.78750151395798
 21
-15.46250152587891
 31
0.0
  0
LINE
  5
257
330
1F
100
AcDbEntity
  8
16
  6
Continuous
 62
     3
370
    25
100
AcDbLine
 10
-73.2874984741211
 20
-15.46250152587891
 30
0.0
 11
-72.29999846220016
 21
-15.46250152587891
 31
0.0
  0
LINE
  5
258
330
1F
100
AcDbEntity
  8
16
  6
Continuous
 62
     3
370
    25
100
AcDbLine
 10
-69.80000305175781
 20
-15.46250152587891
 30
0.0
 11
-68.81250303983688
 21
-15.46250152587891
 31
0.0
  0
LINE
  5
259
330
1F
100
AcDbEntity
  8
16
  6
Continuous
 62
     3
370
    25
100
AcDbLine
 10
-101.1875
 20
-16.33750152587891
 30
0.0
 11
-100.1999999880791
 21
-16.33750152587891
 31
0.0
  0
LINE
  5
25A
330
1F
100
AcDbEntity
  8
16
  6
Continuous
 62
     3
370
    25
100
AcDbLine
 10
-97.69999694824219
 20
-16.33750152587891
 30
0.0
 11
-96.71249693632126
 21
-16.33750152587891
 31
0.0
  0
LINE
  5
25B
330
1F
100
AcDbEntity
  8
16
  6
Continuous
 62
     3
370
    25
100
AcDbLine
 10
-94.2125015258789
 20
-16.33750152587891
 30
0.0
 11
-93.22500151395798
 21
-16.33750152587891
 31
0.0
  0
LINE
  5
25C
330
1F
100
AcDbEntity
  8
16
  6
Continuous
 62
     3
370
    25
100
AcDbLine
 10
-90.7249984741211
 20
-16.33750152587891
 30
0.0
 11
-89.73749846220016
 21
-16.33750152587891
 31
0.0
  0
LINE
  5
25D
330
1F
100
AcDbEntity
  8
16
  6
Continuous
 62
     3
370
    25
100
AcDbLine
 10
-87.23750305175781
 20
-16.33750152587891
 30
0.0
 11
-86.25000303983688
 21
-16.33750152587891
 31
0.0
  0
LINE
  5
25E
330
1F
100
AcDbEntity
  8
16
  6
Continuous
 62
     3
370
    25
100
AcDbLine
 10
-83.75
 20
-16.33750152587891
 30
0.0
 11
-82.76249998807907
 21
-16.33750152587891
 31
0.0
  0
LINE
  5
25F
330
1F
100
AcDbEntity
  8
16
  6
Continuous
 62
     3
370
    25
100
AcDbLine
 10
-80.26249694824219
 20
-16.33750152587891
 30
0.0
 11
-79.27499693632126
 21
-16.33750152587891
 31
0.0
  0
LINE
  5
260
330
1F
100
AcDbEntity
  8
16
  6
Continuous
 62
     3
370
    25
100
AcDbLine
 10
-76.7750015258789
 20
-16.33750152587891
 30
0.0
 11
-75.78750151395798
 21
-16.33750152587891
 31
0.0
  0
LINE
  5
261
330
1F
100
AcDbEntity
  8
16
  6
Continuous
 62
     3
370
    25
100
AcDbLine
 10
-73.2874984741211
 20
-16.33750152587891
 30
0.0
 11
-72.29999846220016
 21
-16.33750152587891
 31
0.0
  0
LINE
  5
262
330
1F
100
AcDbEntity
  8
16
  6
Continuous
 62
     3
370
    25
100
AcDbLine
 10
-69.80000305175781
 20
-16.33750152587891
 30
0.0
 11
-68.81250303983688
 21
-16.33750152587891
 31
0.0
  0
LINE
  5
263
330
1F
100
AcDbEntity
  8
16
  6
Continuous
 62
     3
370
    25
100
AcDbLine
 10
-103.6875
 20
-27.83749389648437
 30
0.0
 11
-103.6875
 21
58.53750610351562
 31
0.0
  0
LINE
  5
264
330
1F
100
AcDbEntity
  8
16
  6
Continuous
 62
     3
370
    25
100
AcDbLine
 10
-103.6875
 20
-27.83749389648437
 30
0.0
 11
-101.1875
 21
-27.83749389648437
 31
0.0
  0
LINE
  5
265
330
1F
100
AcDbEntity
  8
16
  6
Continuous
 62
     3
370
    25
100
AcDbLine
 10
-101.1875
 20
-27.83749389648437
 30
0.0
 11
-101.1875
 21
58.53750610351562
 31
0.0
  0
LINE
  5
266
330
1F
100
AcDbEntity
  8
16
  6
Continuous
 62
     3
370
    25
100
AcDbLine
 10
-103.6875
 20
58.53750610351562
 30
0.0
 11
-101.1875
 21
58.53750610351562
 31
0.0
  0
LINE
  5
267
330
1F
100
AcDbEntity
  8
16
  6
Continuous
 62
     3
370
    25
100
AcDbLine
 10
-103.1875
 20
-27.83749389648437
 30
0.0
 11
-103.1875
 21
58.53750610351562
 31
0.0
  0
LINE
  5
268
330
1F
100
AcDbEntity
  8
16
  6
Continuous
 62
     3
370
    25
100
AcDbLine
 10
-101.6875
 20
-27.83749389648437
 30
0.0
 11
-101.6875
 21
58.53750610351562
 31
0.0
  0
LINE
  5
269
330
1F
100
AcDbEntity
  8
16
  6
Continuous
 62
     3
370
    25
100
AcDbLine
 10
-102.4375
 20
-27.21249389648437
 30
0.0
 11
-102.4375
 21
57.91250610351562
 31
0.0
  0
LINE
  5
26A
330
1F
100
AcDbEntity
  8
16
  6
Continuous
 62
     3
370
    25
100
AcDbLine
 10
-100.1999969482422
 20
-27.83749389648437
 30
0.0
 11
-100.1999969482422
 21
58.53750610351562
 31
0.0
  0
LINE
  5
26B
330
1F
100
AcDbEntity
  8
16
  6
Continuous
 62
     3
370
    25
100
AcDbLine
 10
-100.1999969482422
 20
-27.83749389648437
 30
0.0
 11
-97.69999694824219
 21
-27.83749389648437
 31
0.0
  0
LINE
  5
26C
330
1F
100
AcDbEntity
  8
16
  6
Continuous
 62
     3
370
    25
100
AcDbLine
 10
-97.69999694824219
 20
-27.83749389648437
 30
0.0
 11
-97.69999694824219
 21
58.53750610351562
 31
0.0
  0
LINE
  5
26D
330
1F
100
AcDbEntity
  8
16
  6
Continuous
 62
     3
370
    25
100
AcDbLine
 10
-100.1999969482422
 20
58.53750610351562
 30
0.0
 11
-97.69999694824219
 21
58.53750610351562
 31
0.0
  0
LINE
  5
26E
330
1F
100
AcDbEntity
  8
16
  6
Continuous
 62
     3
370
    25
100
AcDbLine
 10
-99.69999694824219
 20
-27.83749389648437
 30
0.0
 11
-99.69999694824219
 21
58.53750610351562
 31
0.0
  0
LINE
  5
26F
330
1F
100
AcDbEntity
  8
16
  6
Continuous
 62
     3
370
    25
100
AcDbLine
 10
-98.19999694824219
 20
-27.83749389648437
 30
0.0
 11
-98.19999694824219
 21
58.53750610351562
 31
0.0
  0
LINE
  5
270
330
1F
100
AcDbEntity
  8
16
  6
Continuous
 62
     3
370
    25
100
AcDbLine
 10
-98.94999694824219
 20
-27.21249389648437
 30
0.0
 11
-98.94999694824219
 21
57.91250610351562
 31
0.0
  0
LINE
  5
271
330
1F
100
AcDbEntity
  8
16
  6
Continuous
 62
     3
370
    25
100
AcDbLine
 10
-96.7125015258789
 20
-27.83749389648437
 30
0.0
 11
-96.7125015258789
 21
58.53750610351562
 31
0.0
  0
LINE
  5
272
330
1F
100
AcDbEntity
  8
16
  6
Continuous
 62
     3
370
    25
100
AcDbLine
 10
-96.7125015258789
 20
-27.83749389648437
 30
0.0
 11
-94.2125015258789
 21
-27.83749389648437
 31
0.0
  0
LINE
  5
273
330
1F
100
AcDbEntity
  8
16
  6
Continuous
 62
     3
370
    25
100
AcDbLine
 10
-94.2125015258789
 20
-27.83749389648437
 30
0.0
 11
-94.2125015258789
 21
58.53750610351562
 31
0.0
  0
LINE
  5
274
330
1F
100
AcDbEntity
  8
16
  6
Continuous
 62
     3
370
    25
100
AcDbLine
 10
-96.7125015258789
 20
58.53750610351562
 30
0.0
 11
-94.2125015258789
 21
58.53750610351562
 31
0.0
  0
LINE
  5
275
330
1F
100
AcDbEntity
  8
16
  6
Continuous
 62
     3
370
    25
100
AcDbLine
 10
-96.2125015258789
 20
-27.83749389648437
 30
0.0
 11
-96.2125015258789
 21
58.53750610351562
 31
0.0
  0
LINE
  5
276
330
1F
100
AcDbEntity
  8
16
  6
Continuous
 62
     3
370
    25
100
AcDbLine
 10
-94.7125015258789
 20
-27.83749389648437
 30
0.0
 11
-94.7125015258789
 21
58.53750610351562
 31
0.0
  0
LINE
  5
277
330
1F
100
AcDbEntity
  8
16
  6
Continuous
 62
     3
370
    25
100
AcDbLine
 10
-95.4625015258789
 20
-27.21249389648437
 30
0.0
 11
-95.4625015258789
 21
57.91250610351562
 31
0.0
  0
LINE
  5
278
330
1F
100
AcDbEntity
  8
16
  6
Continuous
 62
     3
370
    25
100
AcDbLine
 10
-93.2249984741211
 20
-27.83749389648437
 30
0.0
 11
-93.2249984741211
 21
58.53750610351562
 31
0.0
  0
LINE
  5
279
330
1F
100
AcDbEntity
  8
16
  6
Continuous
 62
     3
370
    25
100
AcDbLine
 10
-93.2249984741211
 20
-27.83749389648437
 30
0.0
 11
-90.7249984741211
 21
-27.83749389648437
 31
0.0
  0
LINE
  5
27A
330
1F
100
AcDbEntity
  8
16
  6
Continuous
 62
     3
370
    25
100
AcDbLine
 10
-90.7249984741211
 20
-27.83749389648437
 30
0.0
 11
-90.7249984741211
 21
58.53750610351562
 31
0.0
  0
LINE
  5
27B
330
1F
100
AcDbEntity
  8
16
  6
Continuous
 62
     3
370
    25
100
AcDbLine
 10
-93.2249984741211
 20
58.53750610351562
 30
0.0
 11
-90.7249984741211
 21
58.53750610351562
 31
0.0
  0
LINE
  5
27C
330
1F
100
AcDbEntity
  8
16
  6
Continuous
 62
     3
370
    25
100
AcDbLine
 10
-92.7249984741211
 20
-27.83749389648437
 30
0.0
 11
-92.7249984741211
 21
58.53750610351562
 31
0.0
  0
LINE
  5
27D
330
1F
100
AcDbEntity
  8
16
  6
Continuous
 62
     3
370
    25
100
AcDbLine
 10
-91.2249984741211
 20
-27.83749389648437
 30
0.0
 11
-91.2249984741211
 21
58.53750610351562
 31
0.0
  0
LINE
  5
27E
330
1F
100
AcDbEntity
  8
16
  6
Continuous
 62
     3
370
    25
100
AcDbLine
 10
-91.9749984741211
 20
-27.21249389648437
 30
0.0
 11
-91.9749984741211
 21
57.91250610351562
 31
0.0
  0
LINE
  5
27F
330
1F
100
AcDbEntity
  8
16
  6
Continuous
 62
     3
370
    25
100
AcDbLine
 10
-89.73750305175781
 20
-27.83749389648437
 30
0.0
 11
-89.73750305175781
 21
58.53750610351562
 31
0.0
  0
LINE
  5
280
330
1F
100
AcDbEntity
  8
16
  6
Continuous
 62
     3
370
    25
100
AcDbLine
 10
-89.73750305175781
 20
-27.83749389648437
 30
0.0
 11
-87.23750305175781
 21
-27.83749389648437
 31
0.0
  0
LINE
  5
281
330
1F
100
AcDbEntity
  8
16
  6
Continuous
 62
     3
370
    25
100
AcDbLine
 10
-87.23750305175781
 20
-27.83749389648437
 30
0.0
 11
-87.23750305175781
 21
58.53750610351562
 31
0.0
  0
LINE
  5
282
330
1F
100
AcDbEntity
  8
16
  6
Continuous
 62
     3
370
    25
100
AcDbLine
 10
-89.73750305175781
 20
58.53750610351562
 30
0.0
 11
-87.23750305175781
 21
58.53750610351562
 31
0.0
  0
LINE
  5
283
330
1F
100
AcDbEntity
  8
16
  6
Continuous
 62
     3
370
    25
100
AcDbLine
 10
-89.23750305175781
 20
-27.83749389648437
 30
0.0
 11
-89.23750305175781
 21
58.53750610351562
 31
0.0
  0
LINE
  5
284
330
1F
100
AcDbEntity
  8
16
  6
Continuous
 62
     3
370
    25
100
AcDbLine
 10
-87.73750305175781
 20
-27.83749389648437
 30
0.0
 11
-87.73750305175781
 21
58.53750610351562
 31
0.0
  0
LINE
  5
285
330
1F
100
AcDbEntity
  8
16
  6
Continuous
 62
     3
370
    25
100
AcDbLine
 10
-88.48750305175781
 20
-27.21249389648437
 30
0.0
 11
-88.48750305175781
 21
57.91250610351562
 31
0.0
  0
LINE
  5
286
330
1F
100
AcDbEntity
  8
16
  6
Continuous
 62
     3
370
    25
100
AcDbLine
 10
-86.25
 20
-27.83749389648437
 30
0.0
 11
-86.25
 21
58.53750610351562
 31
0.0
  0
LINE
  5
287
330
1F
100
AcDbEntity
  8
16
  6
Continuous
 62
     3
370
    25
100
AcDbLine
 10
-86.25
 20
-27.83749389648437
 30
0.0
 11
-83.75
 21
-27.83749389648437
 31
0.0
  0
LINE
  5
288
330
1F
100
AcDbEntity
  8
16
  6
Continuous
 62
     3
370
    25
100
AcDbLine
 10
-83.75
 20
-27.83749389648437
 30
0.0
 11
-83.75
 21
58.53750610351562
 31
0.0
  0
LINE
  5
289
330
1F
100
AcDbEntity
  8
16
  6
Continuous
 62
     3
370
    25
100
AcDbLine
 10
-86.25
 20
58.53750610351562
 30
0.0
 11
-83.75
 21
58.53750610351562
 31
0.0
  0
LINE
  5
28A
330
1F
100
AcDbEntity
  8
16
  6
Continuous
 62
     3
370
    25
100
AcDbLine
 10
-85.75
 20
-27.83749389648437
 30
0.0
 11
-85.75
 21
58.53750610351562
 31
0.0
  0
LINE
  5
28B
330
1F
100
AcDbEntity
  8
16
  6
Continuous
 62
     3
370
    25
100
AcDbLine
 10
-84.25
 20
-27.83749389648437
 30
0.0
 11
-84.25
 21
58.53750610351562
 31
0.0
  0
LINE
  5
28C
330
1F
100
AcDbEntity
  8
16
  6
Continuous
 62
     3
370
    25
100
AcDbLine
 10
-85.0
 20
-27.21249389648437
 30
0.0
 11
-85.0
 21
57.91250610351562
 31
0.0
  0
LINE
  5
28D
330
1F
100
AcDbEntity
  8
16
  6
Continuous
 62
     3
370
    25
100
AcDbLine
 10
-82.76249694824219
 20
-27.83749389648437
 30
0.0
 11
-82.76249694824219
 21
58.53750610351562
 31
0.0
  0
LINE
  5
28E
330
1F
100
AcDbEntity
  8
16
  6
Continuous
 62
     3
370
    25
100
AcDbLine
 10
-82.76249694824219
 20
-27.83749389648437
 30
0.0
 11
-80.26249694824219
 21
-27.83749389648437
 31
0.0
  0
LINE
  5
28F
330
1F
100
AcDbEntity
  8
16
  6
Continuous
 62
     3
370
    25
100
AcDbLine
 10
-80.26249694824219
 20
-27.83749389648437
 30
0.0
 11
-80.26249694824219
 21
58.53750610351562
 31
0.0
  0
LINE
  5
290
330
1F
100
AcDbEntity
  8
16
  6
Continuous
 62
     3
370
    25
100
AcDbLine
 10
-82.76249694824219
 20
58.53750610351562
 30
0.0
 11
-80.26249694824219
 21
58.53750610351562
 31
0.0
  0
LINE
  5
291
330
1F
100
AcDbEntity
  8
16
  6
Continuous
 62
     3
370
    25
100
AcDbLine
 10
-82.26249694824219
 20
-27.83749389648437
 30
0.0
 11
-82.26249694824219
 21
58.53750610351562
 31
0.0
  0
LINE
  5
292
330
1F
100
AcDbEntity
  8
16
  6
Continuous
 62
     3
370
    25
100
AcDbLine
 10
-80.76249694824219
 20
-27.83749389648437
 30
0.0
 11
-80.76249694824219
 21
58.53750610351562
 31
0.0
  0
LINE
  5
293
330
1F
100
AcDbEntity
  8
16
  6
Continuous
 62
     3
370
    25
100
AcDbLine
 10
-81.51249694824219
 20
-27.21249389648437
 30
0.0
 11
-81.51249694824219
 21
57.91250610351562
 31
0.0
  0
LINE
  5
294
330
1F
100
AcDbEntity
  8
16
  6
Continuous
 62
     3
370
    25
100
AcDbLine
 10
-79.2750015258789
 20
-27.83749389648437
 30
0.0
 11
-79.2750015258789
 21
58.53750610351562
 31
0.0
  0
LINE
  5
295
330
1F
100
AcDbEntity
  8
16
  6
Continuous
 62
     3
370
    25
100
AcDbLine
 10
-79.2750015258789
 20
-27.83749389648437
 30
0.0
 11
-76.7750015258789
 21
-27.83749389648437
 31
0.0
  0
LINE
  5
296
330
1F
100
AcDbEntity
  8
16
  6
Continuous
 62
     3
370
    25
100
AcDbLine
 10
-76.7750015258789
 20
-27.83749389648437
 30
0.0
 11
-76.7750015258789
 21
58.53750610351562
 31
0.0
  0
LINE
  5
297
330
1F
100
AcDbEntity
  8
16
  6
Continuous
 62
     3
370
    25
100
AcDbLine
 10
-79.2750015258789
 20
58.53750610351562
 30
0.0
 11
-76.7750015258789
 21
58.53750610351562
 31
0.0
  0
LINE
  5
298
330
1F
100
AcDbEntity
  8
16
  6
Continuous
 62
     3
370
    25
100
AcDbLine
 10
-78.7750015258789
 20
-27.83749389648437
 30
0.0
 11
-78.7750015258789
 21
58.53750610351562
 31
0.0
  0
LINE
  5
299
330
1F
100
AcDbEntity
  8
16
  6
Continuous
 62
     3
370
    25
100
AcDbLine
 10
-77.2750015258789
 20
-27.83749389648437
 30
0.0
 11
-77.2750015258789
 21
58.53750610351562
 31
0.0
  0
LINE
  5
29A
330
1F
100
AcDbEntity
  8
16
  6
Continuous
 62
     3
370
    25
100
AcDbLine
 10
-78.0250015258789
 20
-27.21249389648437
 30
0.0
 11
-78.0250015258789
 21
57.91250610351562
 31
0.0
  0
LINE
  5
29B
330
1F
100
AcDbEntity
  8
16
  6
Continuous
 62
     3
370
    25
100
AcDbLine
 10
-75.7874984741211
 20
-27.83749389648437
 30
0.0
 11
-75.7874984741211
 21
58.53750610351562
 31
0.0
  0
LINE
  5
29C
330
1F
100
AcDbEntity
  8
16
  6
Continuous
 62
     3
370
    25
100
AcDbLine
 10
-75.7874984741211
 20
-27.83749389648437
 30
0.0
 11
-73.2874984741211
 21
-27.83749389648437
 31
0.0
  0
LINE
  5
29D
330
1F
100
AcDbEntity
  8
16
  6
Continuous
 62
     3
370
    25
100
AcDbLine
 10
-73.2874984741211
 20
-27.83749389648437
 30
0.0
 11
-73.2874984741211
 21
58.53750610351562
 31
0.0
  0
LINE
  5
29E
330
1F
100
AcDbEntity
  8
16
  6
Continuous
 62
     3
370
    25
100
AcDbLine
 10
-75.7874984741211
 20
58.53750610351562
 30
0.0
 11
-73.2874984741211
 21
58.53750610351562
 31
0.0
  0
LINE
  5
29F
330
1F
100
AcDbEntity
  8
16
  6
Continuous
 62
     3
370
    25
100
AcDbLine
 10
-75.2874984741211
 20
-27.83749389648437
 30
0.0
 11
-75.2874984741211
 21
58.53750610351562
 31
0.0
  0
LINE
  5
2A0
330
1F
100
AcDbEntity
  8
16
  6
Continuous
 62
     3
370
    25
100
AcDbLine
 10
-73.7874984741211
 20
-27.83749389648437
 30
0.0
 11
-73.7874984741211
 21
58.53750610351562
 31
0.0
  0
LINE
  5
2A1
330
1F
100
AcDbEntity
  8
16
  6
Continuous
 62
     3
370
    25
100
AcDbLine
 10
-74.5374984741211
 20
-27.21249389648437
 30
0.0
 11
-74.5374984741211
 21
57.91250610351562
 31
0.0
  0
LINE
  5
2A2
330
1F
100
AcDbEntity
  8
16
  6
Continuous
 62
     3
370
    25
100
AcDbLine
 10
-72.30000305175781
 20
-27.83749389648437
 30
0.0
 11
-72.30000305175781
 21
58.53750610351562
 31
0.0
  0
LINE
  5
2A3
330
1F
100
AcDbEntity
  8
16
  6
Continuous
 62
     3
370
    25
100
AcDbLine
 10
-72.30000305175781
 20
-27.83749389648437
 30
0.0
 11
-69.80000305175781
 21
-27.83749389648437
 31
0.0
  0
LINE
  5
2A4
330
1F
100
AcDbEntity
  8
16
  6
Continuous
 62
     3
370
    25
100
AcDbLine
 10
-69.80000305175781
 20
-27.83749389648437
 30
0.0
 11
-69.80000305175781
 21
58.53750610351562
 31
0.0
  0
LINE
  5
2A5
330
1F
100
AcDbEntity
  8
16
  6
Continuous
 62
     3
370
    25
100
AcDbLine
 10
-72.30000305175781
 20
58.53750610351562
 30
0.0
 11
-69.80000305175781
 21
58.53750610351562
 31
0.0
  0
LINE
  5
2A6
330
1F
100
AcDbEntity
  8
16
  6
Continuous
 62
     3
370
    25
100
AcDbLine
 10
-71.80000305175781
 20
-27.83749389648437
 30
0.0
 11
-71.80000305175781
 21
58.53750610351562
 31
0.0
  0
LINE
  5
2A7
330
1F
100
AcDbEntity
  8
16
  6
Continuous
 62
     3
370
    25
100
AcDbLine
 10
-70.30000305175781
 20
-27.83749389648437
 30
0.0
 11
-70.30000305175781
 21
58.53750610351562
 31
0.0
  0
LINE
  5
2A8
330
1F
100
AcDbEntity
  8
16
  6
Continuous
 62
     3
370
    25
100
AcDbLine
 10
-71.05000305175781
 20
-27.21249389648437
 30
0.0
 11
-71.05000305175781
 21
57.91250610351562
 31
0.0
  0
LINE
  5
2A9
330
1F
100
AcDbEntity
  8
16
  6
Continuous
 62
     3
370
    25
100
AcDbLine
 10
-68.8125
 20
-27.83749389648437
 30
0.0
 11
-68.8125
 21
58.53750610351562
 31
0.0
  0
LINE
  5
2AA
330
1F
100
AcDbEntity
  8
16
  6
Continuous
 62
     3
370
    25
100
AcDbLine
 10
-68.8125
 20
-27.83749389648437
 30
0.0
 11
-66.3125
 21
-27.83749389648437
 31
0.0
  0
LINE
  5
2AB
330
1F
100
AcDbEntity
  8
16
  6
Continuous
 62
     3
370
    25
100
AcDbLine
 10
-66.3125
 20
-27.83749389648437
 30
0.0
 11
-66.3125
 21
58.53750610351562
 31
0.0
  0
LINE
  5
2AC
330
1F
100
AcDbEntity
  8
16
  6
Continuous
 62
     3
370
    25
100
AcDbLine
 10
-68.8125
 20
58.53750610351562
 30
0.0
 11
-66.3125
 21
58.53750610351562
 31
0.0
  0
LINE
  5
2AD
330
1F
100
AcDbEntity
  8
16
  6
Continuous
 62
     3
370
    25
100
AcDbLine
 10
-68.3125
 20
-27.83749389648437
 30
0.0
 11
-68.3125
 21
58.53750610351562
 31
0.0
  0
LINE
  5
2AE
330
1F
100
AcDbEntity
  8
16
  6
Continuous
 62
     3
370
    25
100
AcDbLine
 10
-66.8125
 20
-27.83749389648437
 30
0.0
 11
-66.8125
 21
58.53750610351562
 31
0.0
  0
LINE
  5
2AF
330
1F
100
AcDbEntity
  8
16
  6
Continuous
 62
     3
370
    25
100
AcDbLine
 10
-67.5625
 20
-27.21249389648437
 30
0.0
 11
-67.5625
 21
57.91250610351562
 31
0.0
  0
LINE
  5
2B0
330
1F
100
AcDbEntity
  8
16
  6
Continuous
 62
     3
370
    25
100
AcDbLine
 10
-102.4375
 20
-78.80125141143799
 30
0.0
 11
-102.4375
 21
-73.91750144958496
 31
0.0
  0
ARC
  5
2B1
330
1F
100
AcDbEntity
  8
16
  6
Continuous
 62
     3
370
    25
100
AcDbCircle
 10
-103.0112491000138
 20
-73.9554086589822
 30
0.0
 40
0.574999988079071
100
AcDbArc
 50
3.779999923706063
 51
73.70000000000016
  0
LINE
  5
2B2
330
1F
100
AcDbEntity
  8
16
  6
Continuous
 62
     3
370
    25
100
AcDbLine
 10
-102.8498655980401
 20
-73.40352067072584
 30
0.0
 11
-103.3898656194978
 21
-73.21352067311003
 31
0.0
  0
ARC
  5
2B3
330
1F
100
AcDbEntity
  8
16
  6
Continuous
 62
     3
370
    25
100
AcDbCircle
 10
-103.3493424086476
 20
-73.17704809629932
 30
0.0
 40
0.0549999997019768
100
AcDbArc
 50
111.909997558594
 51
222.330004882813
  0
LINE
  5
2B4
330
1F
100
AcDbEntity
  8
16
  6
Continuous
 62
     3
370
    25
100
AcDbLine
 10
-103.370002758897
 20
-73.1265850512436
 30
0.0
 11
-103.1900027517444
 21
-73.0390850527337
 31
0.0
  0
LINE
  5
2B5
330
1F
100
AcDbEntity
  8
16
  6
Continuous
 62
     3
370
    25
100
AcDbLine
 10
-103.1900027517444
 20
-73.0390850527337
 30
0.0
 11
-103.1900027517444
 21
-73.01033505221216
 31
0.0
  0
ARC
  5
2B6
330
1F
100
AcDbEntity
  8
16
  6
Continuous
 62
     3
370
    25
100
AcDbCircle
 10
-103.3710802479327
 20
-73.01824106478837
 30
0.0
 40
0.1812500059604645
100
AcDbArc
 50
2.500000000000005
 51
85.55000000000018
  0
ARC
  5
2B7
330
1F
100
AcDbEntity
  8
16
  6
Continuous
 62
     3
370
    25
100
AcDbCircle
 10
-103.3512448920388
 20
-73.17498809597679
 30
0.0
 40
0.3375000059604645
100
AcDbArc
 50
90.97999877929706
 51
246.6800048828131
  0
LINE
  5
2B8
330
1F
100
AcDbEntity
  8
16
  6
Continuous
 62
     3
370
    25
100
AcDbLine
 10
-103.4848499464868
 20
-73.48491702887797
 30
0.0
 11
-102.8760999607919
 21
-73.69866703364634
 31
0.0
  0
ARC
  5
2B9
330
1F
100
AcDbEntity
  8
16
  6
Continuous
 62
     3
370
    25
100
AcDbCircle
 10
-102.9510999488709
 20
-73.91116703960681
 30
0.0
 40
0.2249999940395355
100
AcDbArc
 50
0.0
 51
70.57999877929703
  0
LINE
  5
2BA
330
1F
100
AcDbEntity
  8
16
  6
Continuous
 62
     3
370
    25
100
AcDbLine
 10
-102.7262895553355
 20
-73.91146807471992
 30
0.0
 11
-102.7262895553355
 21
-79.00146822730781
 31
0.0
  0
ARC
  5
2BB
330
1F
100
AcDbEntity
  8
16
  6
Continuous
 62
     3
370
    25
100
AcDbCircle
 10
-102.6387895568257
 20
-79.00146828449691
 30
0.0
 40
0.0874999985098839
100
AcDbArc
 50
180.0000000000004
 51
270.0000000000006
  0
LINE
  5
2BC
330
1F
100
AcDbEntity
  8
16
  6
Continuous
 62
     3
370
    25
100
AcDbLine
 10
-102.6387896426093
 20
-79.08896828300676
 30
0.0
 11
-102.2387896366489
 21
-79.08896828300676
 31
0.0
  0
ARC
  5
2BD
330
1F
100
AcDbEntity
  8
16
  6
Continuous
 62
     3
370
    25
100
AcDbCircle
 10
-102.2387895508652
 20
-79.00146828449691
 30
0.0
 40
0.0874999985098839
100
AcDbArc
 50
270.0000000000006
 51
0.0000000000008142
  0
LINE
  5
2BE
330
1F
100
AcDbEntity
  8
16
  6
Continuous
 62
     3
370
    25
100
AcDbLine
 10
-102.1512895523554
 20
-79.00146839887512
 30
0.0
 11
-102.1512895523554
 21
-73.91146824628723
 31
0.0
  0
ARC
  5
2BF
330
1F
100
AcDbEntity
  8
16
  6
Continuous
 62
     3
370
    25
100
AcDbCircle
 10
-101.9264793201159
 20
-73.91116726803865
 30
0.0
 40
0.2249999940395355
100
AcDbArc
 50
109.4199951171877
 51
180.0000000000004
  0
LINE
  5
2C0
330
1F
100
AcDbEntity
  8
16
  6
Continuous
 62
     3
370
    25
100
AcDbLine
 10
-102.0014793081949
 20
-73.69866711502048
 30
0.0
 11
-101.3927293225
 21
-73.48491711025213
 31
0.0
  0
ARC
  5
2C1
330
1F
100
AcDbEntity
  8
16
  6
Continuous
 62
     3
370
    25
100
AcDbCircle
 10
-101.5263337692486
 20
-73.17498791538283
 30
0.0
 40
0.3375000059604645
100
AcDbArc
 50
293.3199951171881
 51
89.02001953125101
  0
ARC
  5
2C2
330
1F
100
AcDbEntity
  8
16
  6
Continuous
 62
     3
370
    25
100
AcDbCircle
 10
-101.5064979776401
 20
-73.01824090285972
 30
0.0
 40
0.1812500059604645
100
AcDbArc
 50
94.45000000000022
 51
177.5000000000004
  0
LINE
  5
2C3
330
1F
100
AcDbEntity
  8
16
  6
Continuous
 62
     3
370
    25
100
AcDbLine
 10
-101.687575468661
 20
-73.01033477193312
 30
0.0
 11
-101.687575468661
 21
-73.03908477245464
 31
0.0
  0
LINE
  5
2C4
330
1F
100
AcDbEntity
  8
16
  6
Continuous
 62
     3
370
    25
100
AcDbLine
 10
-101.687575468661
 20
-73.03908477245464
 30
0.0
 11
-101.5075754615085
 21
-73.12658477096453
 31
0.0
  0
ARC
  5
2C5
330
1F
100
AcDbEntity
  8
16
  6
Continuous
 62
     3
370
    25
100
AcDbCircle
 10
-101.5282357391369
 20
-73.17704773629475
 30
0.0
 40
0.0549999997019768
100
AcDbArc
 50
317.6699951171883
 51
68.08999023437599
  0
LINE
  5
2C6
330
1F
100
AcDbEntity
  8
16
  6
Continuous
 62
     3
370
    25
100
AcDbLine
 10
-101.4877124173622
 20
-73.2135203577194
 30
0.0
 11
-102.0277124388198
 21
-73.40352035533522
 31
0.0
  0
ARC
  5
2C7
330
1F
100
AcDbEntity
  8
16
  6
Continuous
 62
     3
370
    25
100
AcDbCircle
 10
-101.8663292975545
 20
-73.95540844907006
 30
0.0
 40
0.574999988079071
100
AcDbArc
 50
106.3000000000002
 51
176.2199951171879
  0
LINE
  5
2C8
330
1F
100
AcDbEntity
  8
16
  6
Continuous
 62
     3
370
    25
100
AcDbLine
 10
-98.94999694824219
 20
-78.80125141143799
 30
0.0
 11
-98.94999694824219
 21
-73.91750144958496
 31
0.0
  0
ARC
  5
2C9
330
1F
100
AcDbEntity
  8
16
  6
Continuous
 62
     3
370
    25
100
AcDbCircle
 10
-99.52374604825599
 20
-73.9554086589822
 30
0.0
 40
0.574999988079071
100
AcDbArc
 50
3.779999923706063
 51
73.70000000000016
  0
LINE
  5
2CA
330
1F
100
AcDbEntity
  8
16
  6
Continuous
 62
     3
370
    25
100
AcDbLine
 10
-99.36236254628231
 20
-73.40352067072584
 30
0.0
 11
-99.90236256773998
 21
-73.21352067311003
 31
0.0
  0
ARC
  5
2CB
330
1F
100
AcDbEntity
  8
16
  6
Continuous
 62
     3
370
    25
100
AcDbCircle
 10
-99.86183935688976
 20
-73.17704809629932
 30
0.0
 40
0.0549999997019768
100
AcDbArc
 50
111.909997558594
 51
222.330004882813
  0
LINE
  5
2CC
330
1F
100
AcDbEntity
  8
16
  6
Continuous
 62
     3
370
    25
100
AcDbLine
 10
-99.88249970713917
 20
-73.1265850512436
 30
0.0
 11
-99.70249969998662
 21
-73.0390850527337
 31
0.0
  0
LINE
  5
2CD
330
1F
100
AcDbEntity
  8
16
  6
Continuous
 62
     3
370
    25
100
AcDbLine
 10
-99.70249969998662
 20
-73.0390850527337
 30
0.0
 11
-99.70249969998662
 21
-73.01033505221216
 31
0.0
  0
ARC
  5
2CE
330
1F
100
AcDbEntity
  8
16
  6
Continuous
 62
     3
370
    25
100
AcDbCircle
 10
-99.88357719617488
 20
-73.01824106478837
 30
0.0
 40
0.1812500059604645
100
AcDbArc
 50
2.500000000000005
 51
85.55000000000018
  0
ARC
  5
2CF
330
1F
100
AcDbEntity
  8
16
  6
Continuous
 62
     3
370
    25
100
AcDbCircle
 10
-99.863741840281
 20
-73.17498809597679
 30
0.0
 40
0.3375000059604645
100
AcDbArc
 50
90.97999877929706
 51
246.6800048828131
  0
LINE
  5
2D0
330
1F
100
AcDbEntity
  8
16
  6
Continuous
 62
     3
370
    25
100
AcDbLine
 10
-99.99734689472895
 20
-73.48491702887797
 30
0.0
 11
-99.38859690903406
 21
-73.69866703364634
 31
0.0
  0
ARC
  5
2D1
330
1F
100
AcDbEntity
  8
16
  6
Continuous
 62
     3
370
    25
100
AcDbCircle
 10
-99.46359689711313
 20
-73.91116703960681
 30
0.0
 40
0.2249999940395355
100
AcDbArc
 50
0.0
 51
70.57999877929703
  0
LINE
  5
2D2
330
1F
100
AcDbEntity
  8
16
  6
Continuous
 62
     3
370
    25
100
AcDbLine
 10
-99.23878650357774
 20
-73.91146807471992
 30
0.0
 11
-99.23878650357774
 21
-79.00146822730781
 31
0.0
  0
ARC
  5
2D3
330
1F
100
AcDbEntity
  8
16
  6
Continuous
 62
     3
370
    25
100
AcDbCircle
 10
-99.15128650506787
 20
-79.00146828449691
 30
0.0
 40
0.0874999985098839
100
AcDbArc
 50
180.0000000000004
 51
270.0000000000006
  0
LINE
  5
2D4
330
1F
100
AcDbEntity
  8
16
  6
Continuous
 62
     3
370
    25
100
AcDbLine
 10
-99.15128659085153
 20
-79.08896828300676
 30
0.0
 11
-98.75128658489108
 21
-79.08896828300676
 31
0.0
  0
ARC
  5
2D5
330
1F
100
AcDbEntity
  8
16
  6
Continuous
 62
     3
370
    25
100
AcDbCircle
 10
-98.75128649910741
 20
-79.00146828449691
 30
0.0
 40
0.0874999985098839
100
AcDbArc
 50
270.0000000000006
 51
0.0000000000008142
  0
LINE
  5
2D6
330
1F
100
AcDbEntity
  8
16
  6
Continuous
 62
     3
370
    25
100
AcDbLine
 10
-98.6637865005976
 20
-79.00146839887512
 30
0.0
 11
-98.6637865005976
 21
-73.91146824628723
 31
0.0
  0
ARC
  5
2D7
330
1F
100
AcDbEntity
  8
16
  6
Continuous
 62
     3
370
    25
100
AcDbCircle
 10
-98.4389762683581
 20
-73.91116726803865
 30
0.0
 40
0.2249999940395355
100
AcDbArc
 50
109.4199951171877
 51
180.0000000000004
  0
LINE
  5
2D8
330
1F
100
AcDbEntity
  8
16
  6
Continuous
 62
     3
370
    25
100
AcDbLine
 10
-98.51397625643712
 20
-73.69866711502048
 30
0.0
 11
-97.90522627074223
 21
-73.48491711025213
 31
0.0
  0
ARC
  5
2D9
330
1F
100
AcDbEntity
  8
16
  6
Continuous
 62
     3
370
    25
100
AcDbCircle
 10
-98.03883071749078
 20
-73.17498791538283
 30
0.0
 40
0.3375000059604645
100
AcDbArc
 50
293.3199951171881
 51
89.02001953125101
  0
ARC
  5
2DA
330
1F
100
AcDbEntity
  8
16
  6
Continuous
 62
     3
370
    25
100
AcDbCircle
 10
-98.01899492588227
 20
-73.01824090285972
 30
0.0
 40
0.1812500059604645
100
AcDbArc
 50
94.45000000000022
 51
177.5000000000004
  0
LINE
  5
2DB
330
1F
100
AcDbEntity
  8
16
  6
Continuous
 62
     3
370
    25
100
AcDbLine
 10
-98.20007241690321
 20
-73.01033477193312
 30
0.0
 11
-98.20007241690321
 21
-73.03908477245464
 31
0.0
  0
LINE
  5
2DC
330
1F
100
AcDbEntity
  8
16
  6
Continuous
 62
     3
370
    25
100
AcDbLine
 10
-98.20007241690321
 20
-73.03908477245464
 30
0.0
 11
-98.02007240975065
 21
-73.12658477096453
 31
0.0
  0
ARC
  5
2DD
330
1F
100
AcDbEntity
  8
16
  6
Continuous
 62
     3
370
    25
100
AcDbCircle
 10
-98.04073268737908
 20
-73.17704773629475
 30
0.0
 40
0.0549999997019768
100
AcDbArc
 50
317.6699951171883
 51
68.08999023437599
  0
LINE
  5
2DE
330
1F
100
AcDbEntity
  8
16
  6
Continuous
 62
     3
370
    25
100
AcDbLine
 10
-98.00020936560436
 20
-73.2135203577194
 30
0.0
 11
-98.54020938706203
 21
-73.40352035533522
 31
0.0
  0
ARC
  5
2DF
330
1F
100
AcDbEntity
  8
16
  6
Continuous
 62
     3
370
    25
100
AcDbCircle
 10
-98.37882624579674
 20
-73.95540844907006
 30
0.0
 40
0.574999988079071
100
AcDbArc
 50
106.3000000000002
 51
176.2199951171879
  0
LINE
  5
2E0
330
1F
100
AcDbEntity
  8
16
  6
Continuous
 62
     3
370
    25
100
AcDbLine
 10
-95.4625015258789
 20
-78.80125141143799
 30
0.0
 11
-95.4625015258789
 21
-73.91750144958496
 31
0.0
  0
ARC
  5
2E1
330
1F
100
AcDbEntity
  8
16
  6
Continuous
 62
     3
370
    25
100
AcDbCircle
 10
-96.0362506258927
 20
-73.9554086589822
 30
0.0
 40
0.574999988079071
100
AcDbArc
 50
3.779999923706063
 51
73.70000000000016
  0
LINE
  5
2E2
330
1F
100
AcDbEntity
  8
16
  6
Continuous
 62
     3
370
    25
100
AcDbLine
 10
-95.87486712391902
 20
-73.40352067072584
 30
0.0
 11
-96.4148671453767
 21
-73.21352067311003
 31
0.0
  0
ARC
  5
2E3
330
1F
100
AcDbEntity
  8
16
  6
Continuous
 62
     3
370
    25
100
AcDbCircle
 10
-96.37434393452648
 20
-73.17704809629932
 30
0.0
 40
0.0549999997019768
100
AcDbArc
 50
111.909997558594
 51
222.330004882813
  0
LINE
  5
2E4
330
1F
100
AcDbEntity
  8
16
  6
Continuous
 62
     3
370
    25
100
AcDbLine
 10
-96.3950042847759
 20
-73.1265850512436
 30
0.0
 11
-96.21500427762334
 21
-73.0390850527337
 31
0.0
  0
LINE
  5
2E5
330
1F
100
AcDbEntity
  8
16
  6
Continuous
 62
     3
370
    25
100
AcDbLine
 10
-96.21500427762334
 20
-73.0390850527337
 30
0.0
 11
-96.21500427762334
 21
-73.01033505221216
 31
0.0
  0
ARC
  5
2E6
330
1F
100
AcDbEntity
  8
16
  6
Continuous
 62
     3
370
    25
100
AcDbCircle
 10
-96.39608177381162
 20
-73.01824106478837
 30
0.0
 40
0.1812500059604645
100
AcDbArc
 50
2.500000000000005
 51
85.55000000000018
  0
ARC
  5
2E7
330
1F
100
AcDbEntity
  8
16
  6
Continuous
 62
     3
370
    25
100
AcDbCircle
 10
-96.37624641791771
 20
-73.17498809597679
 30
0.0
 40
0.3375000059604645
100
AcDbArc
 50
90.97999877929706
 51
246.6800048828131
  0
LINE
  5
2E8
330
1F
100
AcDbEntity
  8
16
  6
Continuous
 62
     3
370
    25
100
AcDbLine
 10
-96.50985147236567
 20
-73.48491702887797
 30
0.0
 11
-95.9011014866708
 21
-73.69866703364634
 31
0.0
  0
ARC
  5
2E9
330
1F
100
AcDbEntity
  8
16
  6
Continuous
 62
     3
370
    25
100
AcDbCircle
 10
-95.97610147474985
 20
-73.91116703960681
 30
0.0
 40
0.2249999940395355
100
AcDbArc
 50
0.0
 51
70.57999877929703
  0
LINE
  5
2EA
330
1F
100
AcDbEntity
  8
16
  6
Continuous
 62
     3
370
    25
100
AcDbLine
 10
-95.75129108121446
 20
-73.91146807471992
 30
0.0
 11
-95.75129108121446
 21
-79.00146822730781
 31
0.0
  0
ARC
  5
2EB
330
1F
100
AcDbEntity
  8
16
  6
Continuous
 62
     3
370
    25
100
AcDbCircle
 10
-95.66379108270459
 20
-79.00146828449691
 30
0.0
 40
0.0874999985098839
100
AcDbArc
 50
180.0000000000004
 51
270.0000000000006
  0
LINE
  5
2EC
330
1F
100
AcDbEntity
  8
16
  6
Continuous
 62
     3
370
    25
100
AcDbLine
 10
-95.66379116848825
 20
-79.08896828300676
 30
0.0
 11
-95.2637911625278
 21
-79.08896828300676
 31
0.0
  0
ARC
  5
2ED
330
1F
100
AcDbEntity
  8
16
  6
Continuous
 62
     3
370
    25
100
AcDbCircle
 10
-95.26379107674413
 20
-79.00146828449691
 30
0.0
 40
0.0874999985098839
100
AcDbArc
 50
270.0000000000006
 51
0.0000000000008142
  0
LINE
  5
2EE
330
1F
100
AcDbEntity
  8
16
  6
Continuous
 62
     3
370
    25
100
AcDbLine
 10
-95.17629107823431
 20
-79.00146839887512
 30
0.0
 11
-95.17629107823431
 21
-73.91146824628723
 31
0.0
  0
ARC
  5
2EF
330
1F
100
AcDbEntity
  8
16
  6
Continuous
 62
     3
370
    25
100
AcDbCircle
 10
-94.95148084599482
 20
-73.91116726803865
 30
0.0
 40
0.2249999940395355
100
AcDbArc
 50
109.4199951171877
 51
180.0000000000004
  0
LINE
  5
2F0
330
1F
100
AcDbEntity
  8
16
  6
Continuous
 62
     3
370
    25
100
AcDbLine
 10
-95.02648083407384
 20
-73.69866711502048
 30
0.0
 11
-94.41773084837895
 21
-73.48491711025213
 31
0.0
  0
ARC
  5
2F1
330
1F
100
AcDbEntity
  8
16
  6
Continuous
 62
     3
370
    25
100
AcDbCircle
 10
-94.55133529512749
 20
-73.17498791538283
 30
0.0
 40
0.3375000059604645
100
AcDbArc
 50
293.3199951171881
 51
89.02001953125101
  0
ARC
  5
2F2
330
1F
100
AcDbEntity
  8
16
  6
Continuous
 62
     3
370
    25
100
AcDbCircle
 10
-94.53149950351899
 20
-73.01824090285972
 30
0.0
 40
0.1812500059604645
100
AcDbArc
 50
94.45000000000022
 51
177.5000000000004
  0
LINE
  5
2F3
330
1F
100
AcDbEntity
  8
16
  6
Continuous
 62
     3
370
    25
100
AcDbLine
 10
-94.71257699453993
 20
-73.01033477193312
 30
0.0
 11
-94.71257699453993
 21
-73.03908477245464
 31
0.0
  0
LINE
  5
2F4
330
1F
100
AcDbEntity
  8
16
  6
Continuous
 62
     3
370
    25
100
AcDbLine
 10
-94.71257699453993
 20
-73.03908477245464
 30
0.0
 11
-94.53257698738737
 21
-73.12658477096453
 31
0.0
  0
ARC
  5
2F5
330
1F
100
AcDbEntity
  8
16
  6
Continuous
 62
     3
370
    25
100
AcDbCircle
 10
-94.5532372650158
 20
-73.17704773629475
 30
0.0
 40
0.0549999997019768
100
AcDbArc
 50
317.6699951171883
 51
68.08999023437599
  0
LINE
  5
2F6
330
1F
100
AcDbEntity
  8
16
  6
Continuous
 62
     3
370
    25
100
AcDbLine
 10
-94.51271394324108
 20
-73.2135203577194
 30
0.0
 11
-95.05271396469875
 21
-73.40352035533522
 31
0.0
  0
ARC
  5
2F7
330
1F
100
AcDbEntity
  8
16
  6
Continuous
 62
     3
370
    25
100
AcDbCircle
 10
-94.89133082343345
 20
-73.95540844907006
 30
0.0
 40
0.574999988079071
100
AcDbArc
 50
106.3000000000002
 51
176.2199951171879
  0
LINE
  5
2F8
330
1F
100
AcDbEntity
  8
16
  6
Continuous
 62
     3
370
    25
100
AcDbLine
 10
-91.9749984741211
 20
-78.80125141143799
 30
0.0
 11
-91.9749984741211
 21
-73.91750144958496
 31
0.0
  0
ARC
  5
2F9
330
1F
100
AcDbEntity
  8
16
  6
Continuous
 62
     3
370
    25
100
AcDbCircle
 10
-92.5487475741349
 20
-73.9554086589822
 30
0.0
 40
0.574999988079071
100
AcDbArc
 50
3.779999923706063
 51
73.70000000000016
  0
LINE
  5
2FA
330
1F
100
AcDbEntity
  8
16
  6
Continuous
 62
     3
370
    25
100
AcDbLine
 10
-92.3873640721612
 20
-73.40352067072584
 30
0.0
 11
-92.92736409361888
 21
-73.21352067311003
 31
0.0
  0
ARC
  5
2FB
330
1F
100
AcDbEntity
  8
16
  6
Continuous
 62
     3
370
    25
100
AcDbCircle
 10
-92.88684088276867
 20
-73.17704809629932
 30
0.0
 40
0.0549999997019768
100
AcDbArc
 50
111.909997558594
 51
222.330004882813
  0
LINE
  5
2FC
330
1F
100
AcDbEntity
  8
16
  6
Continuous
 62
     3
370
    25
100
AcDbLine
 10
-92.90750123301808
 20
-73.1265850512436
 30
0.0
 11
-92.72750122586552
 21
-73.0390850527337
 31
0.0
  0
LINE
  5
2FD
330
1F
100
AcDbEntity
  8
16
  6
Continuous
 62
     3
370
    25
100
AcDbLine
 10
-92.72750122586552
 20
-73.0390850527337
 30
0.0
 11
-92.72750122586552
 21
-73.01033505221216
 31
0.0
  0
ARC
  5
2FE
330
1F
100
AcDbEntity
  8
16
  6
Continuous
 62
     3
370
    25
100
AcDbCircle
 10
-92.9085787220538
 20
-73.01824106478837
 30
0.0
 40
0.1812500059604645
100
AcDbArc
 50
2.500000000000005
 51
85.55000000000018
  0
ARC
  5
2FF
330
1F
100
AcDbEntity
  8
16
  6
Continuous
 62
     3
370
    25
100
AcDbCircle
 10
-92.8887433661599
 20
-73.17498809597679
 30
0.0
 40
0.3375000059604645
100
AcDbArc
 50
90.97999877929706
 51
246.6800048828131
  0
LINE
  5
300
330
1F
100
AcDbEntity
  8
16
  6
Continuous
 62
     3
370
    25
100
AcDbLine
 10
-93.02234842060786
 20
-73.48491702887797
 30
0.0
 11
-92.41359843491297
 21
-73.69866703364634
 31
0.0
  0
ARC
  5
301
330
1F
100
AcDbEntity
  8
16
  6
Continuous
 62
     3
370
    25
100
AcDbCircle
 10
-92.48859842299206
 20
-73.91116703960681
 30
0.0
 40
0.2249999940395355
100
AcDbArc
 50
0.0
 51
70.57999877929703
  0
LINE
  5
302
330
1F
100
AcDbEntity
  8
16
  6
Continuous
 62
     3
370
    25
100
AcDbLine
 10
-92.26378802945663
 20
-73.91146807471992
 30
0.0
 11
-92.26378802945663
 21
-79.00146822730781
 31
0.0
  0
ARC
  5
303
330
1F
100
AcDbEntity
  8
16
  6
Continuous
 62
     3
370
    25
100
AcDbCircle
 10
-92.17628803094678
 20
-79.00146828449691
 30
0.0
 40
0.0874999985098839
100
AcDbArc
 50
180.0000000000004
 51
270.0000000000006
  0
LINE
  5
304
330
1F
100
AcDbEntity
  8
16
  6
Continuous
 62
     3
370
    25
100
AcDbLine
 10
-92.17628811673045
 20
-79.08896828300676
 30
0.0
 11
-91.77628811076997
 21
-79.08896828300676
 31
0.0
  0
ARC
  5
305
330
1F
100
AcDbEntity
  8
16
  6
Continuous
 62
     3
370
    25
100
AcDbCircle
 10
-91.77628802498631
 20
-79.00146828449691
 30
0.0
 40
0.0874999985098839
100
AcDbArc
 50
270.0000000000006
 51
0.0000000000008142
  0
LINE
  5
306
330
1F
100
AcDbEntity
  8
16
  6
Continuous
 62
     3
370
    25
100
AcDbLine
 10
-91.6887880264765
 20
-79.00146839887512
 30
0.0
 11
-91.6887880264765
 21
-73.91146824628723
 31
0.0
  0
ARC
  5
307
330
1F
100
AcDbEntity
  8
16
  6
Continuous
 62
     3
370
    25
100
AcDbCircle
 10
-91.463977794237
 20
-73.91116726803865
 30
0.0
 40
0.2249999940395355
100
AcDbArc
 50
109.4199951171877
 51
180.0000000000004
  0
LINE
  5
308
330
1F
100
AcDbEntity
  8
16
  6
Continuous
 62
     3
370
    25
100
AcDbLine
 10
-91.53897778231602
 20
-73.69866711502048
 30
0.0
 11
-90.93022779662114
 21
-73.48491711025213
 31
0.0
  0
ARC
  5
309
330
1F
100
AcDbEntity
  8
16
  6
Continuous
 62
     3
370
    25
100
AcDbCircle
 10
-91.06383224336967
 20
-73.17498791538283
 30
0.0
 40
0.3375000059604645
100
AcDbArc
 50
293.3199951171881
 51
89.02001953125101
  0
ARC
  5
30A
330
1F
100
AcDbEntity
  8
16
  6
Continuous
 62
     3
370
    25
100
AcDbCircle
 10
-91.04399645176117
 20
-73.01824090285972
 30
0.0
 40
0.1812500059604645
100
AcDbArc
 50
94.45000000000022
 51
177.5000000000004
  0
LINE
  5
30B
330
1F
100
AcDbEntity
  8
16
  6
Continuous
 62
     3
370
    25
100
AcDbLine
 10
-91.22507394278212
 20
-73.01033477193312
 30
0.0
 11
-91.22507394278212
 21
-73.03908477245464
 31
0.0
  0
LINE
  5
30C
330
1F
100
AcDbEntity
  8
16
  6
Continuous
 62
     3
370
    25
100
AcDbLine
 10
-91.22507394278212
 20
-73.03908477245464
 30
0.0
 11
-91.04507393562956
 21
-73.12658477096453
 31
0.0
  0
ARC
  5
30D
330
1F
100
AcDbEntity
  8
16
  6
Continuous
 62
     3
370
    25
100
AcDbCircle
 10
-91.06573421325798
 20
-73.17704773629475
 30
0.0
 40
0.0549999997019768
100
AcDbArc
 50
317.6699951171883
 51
68.08999023437599
  0
LINE
  5
30E
330
1F
100
AcDbEntity
  8
16
  6
Continuous
 62
     3
370
    25
100
AcDbLine
 10
-91.02521089148325
 20
-73.2135203577194
 30
0.0
 11
-91.56521091294094
 21
-73.40352035533522
 31
0.0
  0
ARC
  5
30F
330
1F
100
AcDbEntity
  8
16
  6
Continuous
 62
     3
370
    25
100
AcDbCircle
 10
-91.40382777167564
 20
-73.95540844907006
 30
0.0
 40
0.574999988079071
100
AcDbArc
 50
106.3000000000002
 51
176.2199951171879
  0
LINE
  5
310
330
1F
100
AcDbEntity
  8
16
  6
Continuous
 62
     3
370
    25
100
AcDbLine
 10
-88.48750305175781
 20
-78.80125141143799
 30
0.0
 11
-88.48750305175781
 21
-73.91750144958496
 31
0.0
  0
ARC
  5
311
330
1F
100
AcDbEntity
  8
16
  6
Continuous
 62
     3
370
    25
100
AcDbCircle
 10
-89.06125215177161
 20
-73.9554086589822
 30
0.0
 40
0.574999988079071
100
AcDbArc
 50
3.779999923706063
 51
73.70000000000016
  0
LINE
  5
312
330
1F
100
AcDbEntity
  8
16
  6
Continuous
 62
     3
370
    25
100
AcDbLine
 10
-88.89986864979792
 20
-73.40352067072584
 30
0.0
 11
-89.4398686712556
 21
-73.21352067311003
 31
0.0
  0
ARC
  5
313
330
1F
100
AcDbEntity
  8
16
  6
Continuous
 62
     3
370
    25
100
AcDbCircle
 10
-89.39934546040539
 20
-73.17704809629932
 30
0.0
 40
0.0549999997019768
100
AcDbArc
 50
111.909997558594
 51
222.330004882813
  0
LINE
  5
314
330
1F
100
AcDbEntity
  8
16
  6
Continuous
 62
     3
370
    25
100
AcDbLine
 10
-89.4200058106548
 20
-73.1265850512436
 30
0.0
 11
-89.24000580350226
 21
-73.0390850527337
 31
0.0
  0
LINE
  5
315
330
1F
100
AcDbEntity
  8
16
  6
Continuous
 62
     3
370
    25
100
AcDbLine
 10
-89.24000580350226
 20
-73.0390850527337
 30
0.0
 11
-89.24000580350226
 21
-73.01033505221216
 31
0.0
  0
ARC
  5
316
330
1F
100
AcDbEntity
  8
16
  6
Continuous
 62
     3
370
    25
100
AcDbCircle
 10
-89.42108329969052
 20
-73.01824106478837
 30
0.0
 40
0.1812500059604645
100
AcDbArc
 50
2.500000000000005
 51
85.55000000000018
  0
ARC
  5
317
330
1F
100
AcDbEntity
  8
16
  6
Continuous
 62
     3
370
    25
100
AcDbCircle
 10
-89.40124794379662
 20
-73.17498809597679
 30
0.0
 40
0.3375000059604645
100
AcDbArc
 50
90.97999877929706
 51
246.6800048828131
  0
LINE
  5
318
330
1F
100
AcDbEntity
  8
16
  6
Continuous
 62
     3
370
    25
100
AcDbLine
 10
-89.53485299824457
 20
-73.48491702887797
 30
0.0
 11
-88.92610301254969
 21
-73.69866703364634
 31
0.0
  0
ARC
  5
319
330
1F
100
AcDbEntity
  8
16
  6
Continuous
 62
     3
370
    25
100
AcDbCircle
 10
-89.00110300062876
 20
-73.91116703960681
 30
0.0
 40
0.2249999940395355
100
AcDbArc
 50
0.0
 51
70.57999877929703
  0
LINE
  5
31A
330
1F
100
AcDbEntity
  8
16
  6
Continuous
 62
     3
370
    25
100
AcDbLine
 10
-88.77629260709335
 20
-73.91146807471992
 30
0.0
 11
-88.77629260709335
 21
-79.00146822730781
 31
0.0
  0
ARC
  5
31B
330
1F
100
AcDbEntity
  8
16
  6
Continuous
 62
     3
370
    25
100
AcDbCircle
 10
-88.6887926085835
 20
-79.00146828449691
 30
0.0
 40
0.0874999985098839
100
AcDbArc
 50
180.0000000000004
 51
270.0000000000006
  0
LINE
  5
31C
330
1F
100
AcDbEntity
  8
16
  6
Continuous
 62
     3
370
    25
100
AcDbLine
 10
-88.68879269436717
 20
-79.08896828300676
 30
0.0
 11
-88.28879268840669
 21
-79.08896828300676
 31
0.0
  0
ARC
  5
31D
330
1F
100
AcDbEntity
  8
16
  6
Continuous
 62
     3
370
    25
100
AcDbCircle
 10
-88.28879260262303
 20
-79.00146828449691
 30
0.0
 40
0.0874999985098839
100
AcDbArc
 50
270.0000000000006
 51
0.0000000000008142
  0
LINE
  5
31E
330
1F
100
AcDbEntity
  8
16
  6
Continuous
 62
     3
370
    25
100
AcDbLine
 10
-88.20129260411322
 20
-79.00146839887512
 30
0.0
 11
-88.20129260411322
 21
-73.91146824628723
 31
0.0
  0
ARC
  5
31F
330
1F
100
AcDbEntity
  8
16
  6
Continuous
 62
     3
370
    25
100
AcDbCircle
 10
-87.97648237187371
 20
-73.91116726803865
 30
0.0
 40
0.2249999940395355
100
AcDbArc
 50
109.4199951171877
 51
180.0000000000004
  0
LINE
  5
320
330
1F
100
AcDbEntity
  8
16
  6
Continuous
 62
     3
370
    25
100
AcDbLine
 10
-88.05148235995274
 20
-73.69866711502048
 30
0.0
 11
-87.44273237425786
 21
-73.48491711025213
 31
0.0
  0
ARC
  5
321
330
1F
100
AcDbEntity
  8
16
  6
Continuous
 62
     3
370
    25
100
AcDbCircle
 10
-87.5763368210064
 20
-73.17498791538283
 30
0.0
 40
0.3375000059604645
100
AcDbArc
 50
293.3199951171881
 51
89.02001953125101
  0
ARC
  5
322
330
1F
100
AcDbEntity
  8
16
  6
Continuous
 62
     3
370
    25
100
AcDbCircle
 10
-87.5565010293979
 20
-73.01824090285972
 30
0.0
 40
0.1812500059604645
100
AcDbArc
 50
94.45000000000022
 51
177.5000000000004
  0
LINE
  5
323
330
1F
100
AcDbEntity
  8
16
  6
Continuous
 62
     3
370
    25
100
AcDbLine
 10
-87.73757852041884
 20
-73.01033477193312
 30
0.0
 11
-87.73757852041884
 21
-73.03908477245464
 31
0.0
  0
LINE
  5
324
330
1F
100
AcDbEntity
  8
16
  6
Continuous
 62
     3
370
    25
100
AcDbLine
 10
-87.73757852041884
 20
-73.03908477245464
 30
0.0
 11
-87.55757851326628
 21
-73.12658477096453
 31
0.0
  0
ARC
  5
325
330
1F
100
AcDbEntity
  8
16
  6
Continuous
 62
     3
370
    25
100
AcDbCircle
 10
-87.5782387908947
 20
-73.17704773629475
 30
0.0
 40
0.0549999997019768
100
AcDbArc
 50
317.6699951171883
 51
68.08999023437599
  0
LINE
  5
326
330
1F
100
AcDbEntity
  8
16
  6
Continuous
 62
     3
370
    25
100
AcDbLine
 10
-87.53771546911997
 20
-73.2135203577194
 30
0.0
 11
-88.07771549057765
 21
-73.40352035533522
 31
0.0
  0
ARC
  5
327
330
1F
100
AcDbEntity
  8
16
  6
Continuous
 62
     3
370
    25
100
AcDbCircle
 10
-87.91633234931236
 20
-73.95540844907006
 30
0.0
 40
0.574999988079071
100
AcDbArc
 50
106.3000000000002
 51
176.2199951171879
  0
LINE
  5
328
330
1F
100
AcDbEntity
  8
16
  6
Continuous
 62
     3
370
    25
100
AcDbLine
 10
-85.0
 20
-78.80125141143799
 30
0.0
 11
-85.0
 21
-73.91750144958496
 31
0.0
  0
ARC
  5
329
330
1F
100
AcDbEntity
  8
16
  6
Continuous
 62
     3
370
    25
100
AcDbCircle
 10
-85.5737491000138
 20
-73.9554086589822
 30
0.0
 40
0.574999988079071
100
AcDbArc
 50
3.779999923706063
 51
73.70000000000016
  0
LINE
  5
32A
330
1F
100
AcDbEntity
  8
16
  6
Continuous
 62
     3
370
    25
100
AcDbLine
 10
-85.41236559804013
 20
-73.40352067072584
 30
0.0
 11
-85.95236561949778
 21
-73.21352067311003
 31
0.0
  0
ARC
  5
32B
330
1F
100
AcDbEntity
  8
16
  6
Continuous
 62
     3
370
    25
100
AcDbCircle
 10
-85.91184240864757
 20
-73.17704809629932
 30
0.0
 40
0.0549999997019768
100
AcDbArc
 50
111.909997558594
 51
222.330004882813
  0
LINE
  5
32C
330
1F
100
AcDbEntity
  8
16
  6
Continuous
 62
     3
370
    25
100
AcDbLine
 10
-85.93250275889699
 20
-73.1265850512436
 30
0.0
 11
-85.75250275174443
 21
-73.0390850527337
 31
0.0
  0
LINE
  5
32D
330
1F
100
AcDbEntity
  8
16
  6
Continuous
 62
     3
370
    25
100
AcDbLine
 10
-85.75250275174443
 20
-73.0390850527337
 30
0.0
 11
-85.75250275174443
 21
-73.01033505221216
 31
0.0
  0
ARC
  5
32E
330
1F
100
AcDbEntity
  8
16
  6
Continuous
 62
     3
370
    25
100
AcDbCircle
 10
-85.9335802479327
 20
-73.01824106478837
 30
0.0
 40
0.1812500059604645
100
AcDbArc
 50
2.500000000000005
 51
85.55000000000018
  0
ARC
  5
32F
330
1F
100
AcDbEntity
  8
16
  6
Continuous
 62
     3
370
    25
100
AcDbCircle
 10
-85.9137448920388
 20
-73.17498809597679
 30
0.0
 40
0.3375000059604645
100
AcDbArc
 50
90.97999877929706
 51
246.6800048828131
  0
LINE
  5
330
330
1F
100
AcDbEntity
  8
16
  6
Continuous
 62
     3
370
    25
100
AcDbLine
 10
-86.04734994648678
 20
-73.48491702887797
 30
0.0
 11
-85.43859996079188
 21
-73.69866703364634
 31
0.0
  0
ARC
  5
331
330
1F
100
AcDbEntity
  8
16
  6
Continuous
 62
     3
370
    25
100
AcDbCircle
 10
-85.51359994887095
 20
-73.91116703960681
 30
0.0
 40
0.2249999940395355
100
AcDbArc
 50
0.0
 51
70.57999877929703
  0
LINE
  5
332
330
1F
100
AcDbEntity
  8
16
  6
Continuous
 62
     3
370
    25
100
AcDbLine
 10
-85.28878955533555
 20
-73.91146807471992
 30
0.0
 11
-85.28878955533555
 21
-79.00146822730781
 31
0.0
  0
ARC
  5
333
330
1F
100
AcDbEntity
  8
16
  6
Continuous
 62
     3
370
    25
100
AcDbCircle
 10
-85.20128955682569
 20
-79.00146828449691
 30
0.0
 40
0.0874999985098839
100
AcDbArc
 50
180.0000000000004
 51
270.0000000000006
  0
LINE
  5
334
330
1F
100
AcDbEntity
  8
16
  6
Continuous
 62
     3
370
    25
100
AcDbLine
 10
-85.20128964260934
 20
-79.08896828300676
 30
0.0
 11
-84.80128963664887
 21
-79.08896828300676
 31
0.0
  0
ARC
  5
335
330
1F
100
AcDbEntity
  8
16
  6
Continuous
 62
     3
370
    25
100
AcDbCircle
 10
-84.80128955086522
 20
-79.00146828449691
 30
0.0
 40
0.0874999985098839
100
AcDbArc
 50
270.0000000000006
 51
0.0000000000008142
  0
LINE
  5
336
330
1F
100
AcDbEntity
  8
16
  6
Continuous
 62
     3
370
    25
100
AcDbLine
 10
-84.71378955235541
 20
-79.00146839887512
 30
0.0
 11
-84.71378955235541
 21
-73.91146824628723
 31
0.0
  0
ARC
  5
337
330
1F
100
AcDbEntity
  8
16
  6
Continuous
 62
     3
370
    25
100
AcDbCircle
 10
-84.48897932011592
 20
-73.91116726803865
 30
0.0
 40
0.2249999940395355
100
AcDbArc
 50
109.4199951171877
 51
180.0000000000004
  0
LINE
  5
338
330
1F
100
AcDbEntity
  8
16
  6
Continuous
 62
     3
370
    25
100
AcDbLine
 10
-84.56397930819493
 20
-73.69866711502048
 30
0.0
 11
-83.95522932250005
 21
-73.48491711025213
 31
0.0
  0
ARC
  5
339
330
1F
100
AcDbEntity
  8
16
  6
Continuous
 62
     3
370
    25
100
AcDbCircle
 10
-84.0888337692486
 20
-73.17498791538283
 30
0.0
 40
0.3375000059604645
100
AcDbArc
 50
293.3199951171881
 51
89.02001953125101
  0
ARC
  5
33A
330
1F
100
AcDbEntity
  8
16
  6
Continuous
 62
     3
370
    25
100
AcDbCircle
 10
-84.06899797764008
 20
-73.01824090285972
 30
0.0
 40
0.1812500059604645
100
AcDbArc
 50
94.45000000000022
 51
177.5000000000004
  0
LINE
  5
33B
330
1F
100
AcDbEntity
  8
16
  6
Continuous
 62
     3
370
    25
100
AcDbLine
 10
-84.25007546866102
 20
-73.01033477193312
 30
0.0
 11
-84.25007546866102
 21
-73.03908477245464
 31
0.0
  0
LINE
  5
33C
330
1F
100
AcDbEntity
  8
16
  6
Continuous
 62
     3
370
    25
100
AcDbLine
 10
-84.25007546866102
 20
-73.03908477245464
 30
0.0
 11
-84.07007546150847
 21
-73.12658477096453
 31
0.0
  0
ARC
  5
33D
330
1F
100
AcDbEntity
  8
16
  6
Continuous
 62
     3
370
    25
100
AcDbCircle
 10
-84.09073573913687
 20
-73.17704773629475
 30
0.0
 40
0.0549999997019768
100
AcDbArc
 50
317.6699951171883
 51
68.08999023437599
  0
LINE
  5
33E
330
1F
100
AcDbEntity
  8
16
  6
Continuous
 62
     3
370
    25
100
AcDbLine
 10
-84.05021241736218
 20
-73.2135203577194
 30
0.0
 11
-84.59021243881983
 21
-73.40352035533522
 31
0.0
  0
ARC
  5
33F
330
1F
100
AcDbEntity
  8
16
  6
Continuous
 62
     3
370
    25
100
AcDbCircle
 10
-84.42882929755454
 20
-73.95540844907006
 30
0.0
 40
0.574999988079071
100
AcDbArc
 50
106.3000000000002
 51
176.2199951171879
  0
LINE
  5
340
330
1F
100
AcDbEntity
  8
16
  6
Continuous
 62
     3
370
    25
100
AcDbLine
 10
-81.51249694824219
 20
-78.80125141143799
 30
0.0
 11
-81.51249694824219
 21
-73.91750144958496
 31
0.0
  0
ARC
  5
341
330
1F
100
AcDbEntity
  8
16
  6
Continuous
 62
     3
370
    25
100
AcDbCircle
 10
-82.08624604825599
 20
-73.9554086589822
 30
0.0
 40
0.574999988079071
100
AcDbArc
 50
3.779999923706063
 51
73.70000000000016
  0
LINE
  5
342
330
1F
100
AcDbEntity
  8
16
  6
Continuous
 62
     3
370
    25
100
AcDbLine
 10
-81.92486254628231
 20
-73.40352067072584
 30
0.0
 11
-82.46486256773998
 21
-73.21352067311003
 31
0.0
  0
ARC
  5
343
330
1F
100
AcDbEntity
  8
16
  6
Continuous
 62
     3
370
    25
100
AcDbCircle
 10
-82.42433935688976
 20
-73.17704809629932
 30
0.0
 40
0.0549999997019768
100
AcDbArc
 50
111.909997558594
 51
222.330004882813
  0
LINE
  5
344
330
1F
100
AcDbEntity
  8
16
  6
Continuous
 62
     3
370
    25
100
AcDbLine
 10
-82.44499970713917
 20
-73.1265850512436
 30
0.0
 11
-82.26499969998662
 21
-73.0390850527337
 31
0.0
  0
LINE
  5
345
330
1F
100
AcDbEntity
  8
16
  6
Continuous
 62
     3
370
    25
100
AcDbLine
 10
-82.26499969998662
 20
-73.0390850527337
 30
0.0
 11
-82.26499969998662
 21
-73.01033505221216
 31
0.0
  0
ARC
  5
346
330
1F
100
AcDbEntity
  8
16
  6
Continuous
 62
     3
370
    25
100
AcDbCircle
 10
-82.44607719617488
 20
-73.01824106478837
 30
0.0
 40
0.1812500059604645
100
AcDbArc
 50
2.500000000000005
 51
85.55000000000018
  0
ARC
  5
347
330
1F
100
AcDbEntity
  8
16
  6
Continuous
 62
     3
370
    25
100
AcDbCircle
 10
-82.426241840281
 20
-73.17498809597679
 30
0.0
 40
0.3375000059604645
100
AcDbArc
 50
90.97999877929706
 51
246.6800048828131
  0
LINE
  5
348
330
1F
100
AcDbEntity
  8
16
  6
Continuous
 62
     3
370
    25
100
AcDbLine
 10
-82.55984689472895
 20
-73.48491702887797
 30
0.0
 11
-81.95109690903406
 21
-73.69866703364634
 31
0.0
  0
ARC
  5
349
330
1F
100
AcDbEntity
  8
16
  6
Continuous
 62
     3
370
    25
100
AcDbCircle
 10
-82.02609689711313
 20
-73.91116703960681
 30
0.0
 40
0.2249999940395355
100
AcDbArc
 50
0.0
 51
70.57999877929703
  0
LINE
  5
34A
330
1F
100
AcDbEntity
  8
16
  6
Continuous
 62
     3
370
    25
100
AcDbLine
 10
-81.80128650357774
 20
-73.91146807471992
 30
0.0
 11
-81.80128650357774
 21
-79.00146822730781
 31
0.0
  0
ARC
  5
34B
330
1F
100
AcDbEntity
  8
16
  6
Continuous
 62
     3
370
    25
100
AcDbCircle
 10
-81.71378650506787
 20
-79.00146828449691
 30
0.0
 40
0.0874999985098839
100
AcDbArc
 50
180.0000000000004
 51
270.0000000000006
  0
LINE
  5
34C
330
1F
100
AcDbEntity
  8
16
  6
Continuous
 62
     3
370
    25
100
AcDbLine
 10
-81.71378659085153
 20
-79.08896828300676
 30
0.0
 11
-81.31378658489108
 21
-79.08896828300676
 31
0.0
  0
ARC
  5
34D
330
1F
100
AcDbEntity
  8
16
  6
Continuous
 62
     3
370
    25
100
AcDbCircle
 10
-81.31378649910741
 20
-79.00146828449691
 30
0.0
 40
0.0874999985098839
100
AcDbArc
 50
270.0000000000006
 51
0.0000000000008142
  0
LINE
  5
34E
330
1F
100
AcDbEntity
  8
16
  6
Continuous
 62
     3
370
    25
100
AcDbLine
 10
-81.2262865005976
 20
-79.00146839887512
 30
0.0
 11
-81.2262865005976
 21
-73.91146824628723
 31
0.0
  0
ARC
  5
34F
330
1F
100
AcDbEntity
  8
16
  6
Continuous
 62
     3
370
    25
100
AcDbCircle
 10
-81.0014762683581
 20
-73.91116726803865
 30
0.0
 40
0.2249999940395355
100
AcDbArc
 50
109.4199951171877
 51
180.0000000000004
  0
LINE
  5
350
330
1F
100
AcDbEntity
  8
16
  6
Continuous
 62
     3
370
    25
100
AcDbLine
 10
-81.07647625643712
 20
-73.69866711502048
 30
0.0
 11
-80.46772627074223
 21
-73.48491711025213
 31
0.0
  0
ARC
  5
351
330
1F
100
AcDbEntity
  8
16
  6
Continuous
 62
     3
370
    25
100
AcDbCircle
 10
-80.60133071749078
 20
-73.17498791538283
 30
0.0
 40
0.3375000059604645
100
AcDbArc
 50
293.3199951171881
 51
89.02001953125101
  0
ARC
  5
352
330
1F
100
AcDbEntity
  8
16
  6
Continuous
 62
     3
370
    25
100
AcDbCircle
 10
-80.58149492588227
 20
-73.01824090285972
 30
0.0
 40
0.1812500059604645
100
AcDbArc
 50
94.45000000000022
 51
177.5000000000004
  0
LINE
  5
353
330
1F
100
AcDbEntity
  8
16
  6
Continuous
 62
     3
370
    25
100
AcDbLine
 10
-80.76257241690321
 20
-73.01033477193312
 30
0.0
 11
-80.76257241690321
 21
-73.03908477245464
 31
0.0
  0
LINE
  5
354
330
1F
100
AcDbEntity
  8
16
  6
Continuous
 62
     3
370
    25
100
AcDbLine
 10
-80.76257241690321
 20
-73.03908477245464
 30
0.0
 11
-80.58257240975065
 21
-73.12658477096453
 31
0.0
  0
ARC
  5
355
330
1F
100
AcDbEntity
  8
16
  6
Continuous
 62
     3
370
    25
100
AcDbCircle
 10
-80.60323268737908
 20
-73.17704773629475
 30
0.0
 40
0.0549999997019768
100
AcDbArc
 50
317.6699951171883
 51
68.08999023437599
  0
LINE
  5
356
330
1F
100
AcDbEntity
  8
16
  6
Continuous
 62
     3
370
    25
100
AcDbLine
 10
-80.56270936560436
 20
-73.2135203577194
 30
0.0
 11
-81.10270938706203
 21
-73.40352035533522
 31
0.0
  0
ARC
  5
357
330
1F
100
AcDbEntity
  8
16
  6
Continuous
 62
     3
370
    25
100
AcDbCircle
 10
-80.94132624579674
 20
-73.95540844907006
 30
0.0
 40
0.574999988079071
100
AcDbArc
 50
106.3000000000002
 51
176.2199951171879
  0
LINE
  5
358
330
1F
100
AcDbEntity
  8
16
  6
Continuous
 62
     3
370
    25
100
AcDbLine
 10
-78.0250015258789
 20
-78.80125141143799
 30
0.0
 11
-78.0250015258789
 21
-73.91750144958496
 31
0.0
  0
ARC
  5
359
330
1F
100
AcDbEntity
  8
16
  6
Continuous
 62
     3
370
    25
100
AcDbCircle
 10
-78.5987506258927
 20
-73.9554086589822
 30
0.0
 40
0.574999988079071
100
AcDbArc
 50
3.779999923706063
 51
73.70000000000016
  0
LINE
  5
35A
330
1F
100
AcDbEntity
  8
16
  6
Continuous
 62
     3
370
    25
100
AcDbLine
 10
-78.43736712391902
 20
-73.40352067072584
 30
0.0
 11
-78.9773671453767
 21
-73.21352067311003
 31
0.0
  0
ARC
  5
35B
330
1F
100
AcDbEntity
  8
16
  6
Continuous
 62
     3
370
    25
100
AcDbCircle
 10
-78.93684393452648
 20
-73.17704809629932
 30
0.0
 40
0.0549999997019768
100
AcDbArc
 50
111.909997558594
 51
222.330004882813
  0
LINE
  5
35C
330
1F
100
AcDbEntity
  8
16
  6
Continuous
 62
     3
370
    25
100
AcDbLine
 10
-78.9575042847759
 20
-73.1265850512436
 30
0.0
 11
-78.77750427762334
 21
-73.0390850527337
 31
0.0
  0
LINE
  5
35D
330
1F
100
AcDbEntity
  8
16
  6
Continuous
 62
     3
370
    25
100
AcDbLine
 10
-78.77750427762334
 20
-73.0390850527337
 30
0.0
 11
-78.77750427762334
 21
-73.01033505221216
 31
0.0
  0
ARC
  5
35E
330
1F
100
AcDbEntity
  8
16
  6
Continuous
 62
     3
370
    25
100
AcDbCircle
 10
-78.95858177381162
 20
-73.01824106478837
 30
0.0
 40
0.1812500059604645
100
AcDbArc
 50
2.500000000000005
 51
85.55000000000018
  0
ARC
  5
35F
330
1F
100
AcDbEntity
  8
16
  6
Continuous
 62
     3
370
    25
100
AcDbCircle
 10
-78.93874641791771
 20
-73.17498809597679
 30
0.0
 40
0.3375000059604645
100
AcDbArc
 50
90.97999877929706
 51
246.6800048828131
  0
LINE
  5
360
330
1F
100
AcDbEntity
  8
16
  6
Continuous
 62
     3
370
    25
100
AcDbLine
 10
-79.07235147236567
 20
-73.48491702887797
 30
0.0
 11
-78.4636014866708
 21
-73.69866703364634
 31
0.0
  0
ARC
  5
361
330
1F
100
AcDbEntity
  8
16
  6
Continuous
 62
     3
370
    25
100
AcDbCircle
 10
-78.53860147474985
 20
-73.91116703960681
 30
0.0
 40
0.2249999940395355
100
AcDbArc
 50
0.0
 51
70.57999877929703
  0
LINE
  5
362
330
1F
100
AcDbEntity
  8
16
  6
Continuous
 62
     3
370
    25
100
AcDbLine
 10
-78.31379108121446
 20
-73.91146807471992
 30
0.0
 11
-78.31379108121446
 21
-79.00146822730781
 31
0.0
  0
ARC
  5
363
330
1F
100
AcDbEntity
  8
16
  6
Continuous
 62
     3
370
    25
100
AcDbCircle
 10
-78.22629108270459
 20
-79.00146828449691
 30
0.0
 40
0.0874999985098839
100
AcDbArc
 50
180.0000000000004
 51
270.0000000000006
  0
LINE
  5
364
330
1F
100
AcDbEntity
  8
16
  6
Continuous
 62
     3
370
    25
100
AcDbLine
 10
-78.22629116848825
 20
-79.08896828300676
 30
0.0
 11
-77.8262911625278
 21
-79.08896828300676
 31
0.0
  0
ARC
  5
365
330
1F
100
AcDbEntity
  8
16
  6
Continuous
 62
     3
370
    25
100
AcDbCircle
 10
-77.82629107674413
 20
-79.00146828449691
 30
0.0
 40
0.0874999985098839
100
AcDbArc
 50
270.0000000000006
 51
0.0000000000008142
  0
LINE
  5
366
330
1F
100
AcDbEntity
  8
16
  6
Continuous
 62
     3
370
    25
100
AcDbLine
 10
-77.73879107823431
 20
-79.00146839887512
 30
0.0
 11
-77.73879107823431
 21
-73.91146824628723
 31
0.0
  0
ARC
  5
367
330
1F
100
AcDbEntity
  8
16
  6
Continuous
 62
     3
370
    25
100
AcDbCircle
 10
-77.51398084599481
 20
-73.91116726803865
 30
0.0
 40
0.2249999940395355
100
AcDbArc
 50
109.4199951171877
 51
180.0000000000004
  0
LINE
  5
368
330
1F
100
AcDbEntity
  8
16
  6
Continuous
 62
     3
370
    25
100
AcDbLine
 10
-77.58898083407384
 20
-73.69866711502048
 30
0.0
 11
-76.98023084837895
 21
-73.48491711025213
 31
0.0
  0
ARC
  5
369
330
1F
100
AcDbEntity
  8
16
  6
Continuous
 62
     3
370
    25
100
AcDbCircle
 10
-77.11383529512749
 20
-73.17498791538283
 30
0.0
 40
0.3375000059604645
100
AcDbArc
 50
293.3199951171881
 51
89.02001953125101
  0
ARC
  5
36A
330
1F
100
AcDbEntity
  8
16
  6
Continuous
 62
     3
370
    25
100
AcDbCircle
 10
-77.09399950351899
 20
-73.01824090285972
 30
0.0
 40
0.1812500059604645
100
AcDbArc
 50
94.45000000000022
 51
177.5000000000004
  0
LINE
  5
36B
330
1F
100
AcDbEntity
  8
16
  6
Continuous
 62
     3
370
    25
100
AcDbLine
 10
-77.27507699453993
 20
-73.01033477193312
 30
0.0
 11
-77.27507699453993
 21
-73.03908477245464
 31
0.0
  0
LINE
  5
36C
330
1F
100
AcDbEntity
  8
16
  6
Continuous
 62
     3
370
    25
100
AcDbLine
 10
-77.27507699453993
 20
-73.03908477245464
 30
0.0
 11
-77.09507698738737
 21
-73.12658477096453
 31
0.0
  0
ARC
  5
36D
330
1F
100
AcDbEntity
  8
16
  6
Continuous
 62
     3
370
    25
100
AcDbCircle
 10
-77.1157372650158
 20
-73.17704773629475
 30
0.0
 40
0.0549999997019768
100
AcDbArc
 50
317.6699951171883
 51
68.08999023437599
  0
LINE
  5
36E
330
1F
100
AcDbEntity
  8
16
  6
Continuous
 62
     3
370
    25
100
AcDbLine
 10
-77.07521394324107
 20
-73.2135203577194
 30
0.0
 11
-77.61521396469875
 21
-73.40352035533522
 31
0.0
  0
ARC
  5
36F
330
1F
100
AcDbEntity
  8
16
  6
Continuous
 62
     3
370
    25
100
AcDbCircle
 10
-77.45383082343345
 20
-73.95540844907006
 30
0.0
 40
0.574999988079071
100
AcDbArc
 50
106.3000000000002
 51
176.2199951171879
  0
LINE
  5
370
330
1F
100
AcDbEntity
  8
16
  6
Continuous
 62
     3
370
    25
100
AcDbLine
 10
-74.5374984741211
 20
-78.80125141143799
 30
0.0
 11
-74.5374984741211
 21
-73.91750144958496
 31
0.0
  0
ARC
  5
371
330
1F
100
AcDbEntity
  8
16
  6
Continuous
 62
     3
370
    25
100
AcDbCircle
 10
-75.1112475741349
 20
-73.9554086589822
 30
0.0
 40
0.574999988079071
100
AcDbArc
 50
3.779999923706063
 51
73.70000000000016
  0
LINE
  5
372
330
1F
100
AcDbEntity
  8
16
  6
Continuous
 62
     3
370
    25
100
AcDbLine
 10
-74.9498640721612
 20
-73.40352067072584
 30
0.0
 11
-75.48986409361888
 21
-73.21352067311003
 31
0.0
  0
ARC
  5
373
330
1F
100
AcDbEntity
  8
16
  6
Continuous
 62
     3
370
    25
100
AcDbCircle
 10
-75.44934088276867
 20
-73.17704809629932
 30
0.0
 40
0.0549999997019768
100
AcDbArc
 50
111.909997558594
 51
222.330004882813
  0
LINE
  5
374
330
1F
100
AcDbEntity
  8
16
  6
Continuous
 62
     3
370
    25
100
AcDbLine
 10
-75.47000123301808
 20
-73.1265850512436
 30
0.0
 11
-75.29000122586552
 21
-73.0390850527337
 31
0.0
  0
LINE
  5
375
330
1F
100
AcDbEntity
  8
16
  6
Continuous
 62
     3
370
    25
100
AcDbLine
 10
-75.29000122586552
 20
-73.0390850527337
 30
0.0
 11
-75.29000122586552
 21
-73.01033505221216
 31
0.0
  0
ARC
  5
376
330
1F
100
AcDbEntity
  8
16
  6
Continuous
 62
     3
370
    25
100
AcDbCircle
 10
-75.4710787220538
 20
-73.01824106478837
 30
0.0
 40
0.1812500059604645
100
AcDbArc
 50
2.500000000000005
 51
85.55000000000018
  0
ARC
  5
377
330
1F
100
AcDbEntity
  8
16
  6
Continuous
 62
     3
370
    25
100
AcDbCircle
 10
-75.4512433661599
 20
-73.17498809597679
 30
0.0
 40
0.3375000059604645
100
AcDbArc
 50
90.97999877929706
 51
246.6800048828131
  0
LINE
  5
378
330
1F
100
AcDbEntity
  8
16
  6
Continuous
 62
     3
370
    25
100
AcDbLine
 10
-75.58484842060786
 20
-73.48491702887797
 30
0.0
 11
-74.97609843491297
 21
-73.69866703364634
 31
0.0
  0
ARC
  5
379
330
1F
100
AcDbEntity
  8
16
  6
Continuous
 62
     3
370
    25
100
AcDbCircle
 10
-75.05109842299206
 20
-73.91116703960681
 30
0.0
 40
0.2249999940395355
100
AcDbArc
 50
0.0
 51
70.57999877929703
  0
LINE
  5
37A
330
1F
100
AcDbEntity
  8
16
  6
Continuous
 62
     3
370
    25
100
AcDbLine
 10
-74.82628802945663
 20
-73.91146807471992
 30
0.0
 11
-74.82628802945663
 21
-79.00146822730781
 31
0.0
  0
ARC
  5
37B
330
1F
100
AcDbEntity
  8
16
  6
Continuous
 62
     3
370
    25
100
AcDbCircle
 10
-74.73878803094678
 20
-79.00146828449691
 30
0.0
 40
0.0874999985098839
100
AcDbArc
 50
180.0000000000004
 51
270.0000000000006
  0
LINE
  5
37C
330
1F
100
AcDbEntity
  8
16
  6
Continuous
 62
     3
370
    25
100
AcDbLine
 10
-74.73878811673045
 20
-79.08896828300676
 30
0.0
 11
-74.33878811076997
 21
-79.08896828300676
 31
0.0
  0
ARC
  5
37D
330
1F
100
AcDbEntity
  8
16
  6
Continuous
 62
     3
370
    25
100
AcDbCircle
 10
-74.33878802498631
 20
-79.00146828449691
 30
0.0
 40
0.0874999985098839
100
AcDbArc
 50
270.0000000000006
 51
0.0000000000008142
  0
LINE
  5
37E
330
1F
100
AcDbEntity
  8
16
  6
Continuous
 62
     3
370
    25
100
AcDbLine
 10
-74.2512880264765
 20
-79.00146839887512
 30
0.0
 11
-74.2512880264765
 21
-73.91146824628723
 31
0.0
  0
ARC
  5
37F
330
1F
100
AcDbEntity
  8
16
  6
Continuous
 62
     3
370
    25
100
AcDbCircle
 10
-74.026477794237
 20
-73.91116726803865
 30
0.0
 40
0.2249999940395355
100
AcDbArc
 50
109.4199951171877
 51
180.0000000000004
  0
LINE
  5
380
330
1F
100
AcDbEntity
  8
16
  6
Continuous
 62
     3
370
    25
100
AcDbLine
 10
-74.10147778231602
 20
-73.69866711502048
 30
0.0
 11
-73.49272779662114
 21
-73.48491711025213
 31
0.0
  0
ARC
  5
381
330
1F
100
AcDbEntity
  8
16
  6
Continuous
 62
     3
370
    25
100
AcDbCircle
 10
-73.62633224336967
 20
-73.17498791538283
 30
0.0
 40
0.3375000059604645
100
AcDbArc
 50
293.3199951171881
 51
89.02001953125101
  0
ARC
  5
382
330
1F
100
AcDbEntity
  8
16
  6
Continuous
 62
     3
370
    25
100
AcDbCircle
 10
-73.60649645176117
 20
-73.01824090285972
 30
0.0
 40
0.1812500059604645
100
AcDbArc
 50
94.45000000000022
 51
177.5000000000004
  0
LINE
  5
383
330
1F
100
AcDbEntity
  8
16
  6
Continuous
 62
     3
370
    25
100
AcDbLine
 10
-73.78757394278212
 20
-73.01033477193312
 30
0.0
 11
-73.78757394278212
 21
-73.03908477245464
 31
0.0
  0
LINE
  5
384
330
1F
100
AcDbEntity
  8
16
  6
Continuous
 62
     3
370
    25
100
AcDbLine
 10
-73.78757394278212
 20
-73.03908477245464
 30
0.0
 11
-73.60757393562956
 21
-73.12658477096453
 31
0.0
  0
ARC
  5
385
330
1F
100
AcDbEntity
  8
16
  6
Continuous
 62
     3
370
    25
100
AcDbCircle
 10
-73.62823421325798
 20
-73.17704773629475
 30
0.0
 40
0.0549999997019768
100
AcDbArc
 50
317.6699951171883
 51
68.08999023437599
  0
LINE
  5
386
330
1F
100
AcDbEntity
  8
16
  6
Continuous
 62
     3
370
    25
100
AcDbLine
 10
-73.58771089148325
 20
-73.2135203577194
 30
0.0
 11
-74.12771091294093
 21
-73.40352035533522
 31
0.0
  0
ARC
  5
387
330
1F
100
AcDbEntity
  8
16
  6
Continuous
 62
     3
370
    25
100
AcDbCircle
 10
-73.96632777167564
 20
-73.95540844907006
 30
0.0
 40
0.574999988079071
100
AcDbArc
 50
106.3000000000002
 51
176.2199951171879
  0
LINE
  5
388
330
1F
100
AcDbEntity
  8
16
  6
Continuous
 62
     3
370
    25
100
AcDbLine
 10
-71.05000305175781
 20
-78.80125141143799
 30
0.0
 11
-71.05000305175781
 21
-73.91750144958496
 31
0.0
  0
ARC
  5
389
330
1F
100
AcDbEntity
  8
16
  6
Continuous
 62
     3
370
    25
100
AcDbCircle
 10
-71.62375215177161
 20
-73.9554086589822
 30
0.0
 40
0.574999988079071
100
AcDbArc
 50
3.779999923706063
 51
73.70000000000016
  0
LINE
  5
38A
330
1F
100
AcDbEntity
  8
16
  6
Continuous
 62
     3
370
    25
100
AcDbLine
 10
-71.46236864979792
 20
-73.40352067072584
 30
0.0
 11
-72.0023686712556
 21
-73.21352067311003
 31
0.0
  0
ARC
  5
38B
330
1F
100
AcDbEntity
  8
16
  6
Continuous
 62
     3
370
    25
100
AcDbCircle
 10
-71.96184546040539
 20
-73.17704809629932
 30
0.0
 40
0.0549999997019768
100
AcDbArc
 50
111.909997558594
 51
222.330004882813
  0
LINE
  5
38C
330
1F
100
AcDbEntity
  8
16
  6
Continuous
 62
     3
370
    25
100
AcDbLine
 10
-71.9825058106548
 20
-73.1265850512436
 30
0.0
 11
-71.80250580350226
 21
-73.0390850527337
 31
0.0
  0
LINE
  5
38D
330
1F
100
AcDbEntity
  8
16
  6
Continuous
 62
     3
370
    25
100
AcDbLine
 10
-71.80250580350226
 20
-73.0390850527337
 30
0.0
 11
-71.80250580350226
 21
-73.01033505221216
 31
0.0
  0
ARC
  5
38E
330
1F
100
AcDbEntity
  8
16
  6
Continuous
 62
     3
370
    25
100
AcDbCircle
 10
-71.98358329969052
 20
-73.01824106478837
 30
0.0
 40
0.1812500059604645
100
AcDbArc
 50
2.500000000000005
 51
85.55000000000018
  0
ARC
  5
38F
330
1F
100
AcDbEntity
  8
16
  6
Continuous
 62
     3
370
    25
100
AcDbCircle
 10
-71.96374794379662
 20
-73.17498809597679
 30
0.0
 40
0.3375000059604645
100
AcDbArc
 50
90.97999877929706
 51
246.6800048828131
  0
LINE
  5
390
330
1F
100
AcDbEntity
  8
16
  6
Continuous
 62
     3
370
    25
100
AcDbLine
 10
-72.09735299824457
 20
-73.48491702887797
 30
0.0
 11
-71.48860301254969
 21
-73.69866703364634
 31
0.0
  0
ARC
  5
391
330
1F
100
AcDbEntity
  8
16
  6
Continuous
 62
     3
370
    25
100
AcDbCircle
 10
-71.56360300062876
 20
-73.91116703960681
 30
0.0
 40
0.2249999940395355
100
AcDbArc
 50
0.0
 51
70.57999877929703
  0
LINE
  5
392
330
1F
100
AcDbEntity
  8
16
  6
Continuous
 62
     3
370
    25
100
AcDbLine
 10
-71.33879260709335
 20
-73.91146807471992
 30
0.0
 11
-71.33879260709335
 21
-79.00146822730781
 31
0.0
  0
ARC
  5
393
330
1F
100
AcDbEntity
  8
16
  6
Continuous
 62
     3
370
    25
100
AcDbCircle
 10
-71.2512926085835
 20
-79.00146828449691
 30
0.0
 40
0.0874999985098839
100
AcDbArc
 50
180.0000000000004
 51
270.0000000000006
  0
LINE
  5
394
330
1F
100
AcDbEntity
  8
16
  6
Continuous
 62
     3
370
    25
100
AcDbLine
 10
-71.25129269436717
 20
-79.08896828300676
 30
0.0
 11
-70.85129268840669
 21
-79.08896828300676
 31
0.0
  0
ARC
  5
395
330
1F
100
AcDbEntity
  8
16
  6
Continuous
 62
     3
370
    25
100
AcDbCircle
 10
-70.85129260262303
 20
-79.00146828449691
 30
0.0
 40
0.0874999985098839
100
AcDbArc
 50
270.0000000000006
 51
0.0000000000008142
  0
LINE
  5
396
330
1F
100
AcDbEntity
  8
16
  6
Continuous
 62
     3
370
    25
100
AcDbLine
 10
-70.76379260411322
 20
-79.00146839887512
 30
0.0
 11
-70.76379260411322
 21
-73.91146824628723
 31
0.0
  0
ARC
  5
397
330
1F
100
AcDbEntity
  8
16
  6
Continuous
 62
     3
370
    25
100
AcDbCircle
 10
-70.53898237187371
 20
-73.91116726803865
 30
0.0
 40
0.2249999940395355
100
AcDbArc
 50
109.4199951171877
 51
180.0000000000004
  0
LINE
  5
398
330
1F
100
AcDbEntity
  8
16
  6
Continuous
 62
     3
370
    25
100
AcDbLine
 10
-70.61398235995274
 20
-73.69866711502048
 30
0.0
 11
-70.00523237425786
 21
-73.48491711025213
 31
0.0
  0
ARC
  5
399
330
1F
100
AcDbEntity
  8
16
  6
Continuous
 62
     3
370
    25
100
AcDbCircle
 10
-70.1388368210064
 20
-73.17498791538283
 30
0.0
 40
0.3375000059604645
100
AcDbArc
 50
293.3199951171881
 51
89.02001953125101
  0
ARC
  5
39A
330
1F
100
AcDbEntity
  8
16
  6
Continuous
 62
     3
370
    25
100
AcDbCircle
 10
-70.1190010293979
 20
-73.01824090285972
 30
0.0
 40
0.1812500059604645
100
AcDbArc
 50
94.45000000000022
 51
177.5000000000004
  0
LINE
  5
39B
330
1F
100
AcDbEntity
  8
16
  6
Continuous
 62
     3
370
    25
100
AcDbLine
 10
-70.30007852041884
 20
-73.01033477193312
 30
0.0
 11
-70.30007852041884
 21
-73.03908477245464
 31
0.0
  0
LINE
  5
39C
330
1F
100
AcDbEntity
  8
16
  6
Continuous
 62
     3
370
    25
100
AcDbLine
 10
-70.30007852041884
 20
-73.03908477245464
 30
0.0
 11
-70.12007851326628
 21
-73.12658477096453
 31
0.0
  0
ARC
  5
39D
330
1F
100
AcDbEntity
  8
16
  6
Continuous
 62
     3
370
    25
100
AcDbCircle
 10
-70.1407387908947
 20
-73.17704773629475
 30
0.0
 40
0.0549999997019768
100
AcDbArc
 50
317.6699951171883
 51
68.08999023437599
  0
LINE
  5
39E
330
1F
100
AcDbEntity
  8
16
  6
Continuous
 62
     3
370
    25
100
AcDbLine
 10
-70.10021546911997
 20
-73.2135203577194
 30
0.0
 11
-70.64021549057765
 21
-73.40352035533522
 31
0.0
  0
ARC
  5
39F
330
1F
100
AcDbEntity
  8
16
  6
Continuous
 62
     3
370
    25
100
AcDbCircle
 10
-70.47883234931236
 20
-73.95540844907006
 30
0.0
 40
0.574999988079071
100
AcDbArc
 50
106.3000000000002
 51
176.2199951171879
  0
LINE
  5
3A0
330
1F
100
AcDbEntity
  8
16
  6
Continuous
 62
     3
370
    25
100
AcDbLine
 10
-67.5625
 20
-78.80125141143799
 30
0.0
 11
-67.5625
 21
-73.91750144958496
 31
0.0
  0
ARC
  5
3A1
330
1F
100
AcDbEntity
  8
16
  6
Continuous
 62
     3
370
    25
100
AcDbCircle
 10
-68.1362491000138
 20
-73.9554086589822
 30
0.0
 40
0.574999988079071
100
AcDbArc
 50
3.779999923706063
 51
73.70000000000016
  0
LINE
  5
3A2
330
1F
100
AcDbEntity
  8
16
  6
Continuous
 62
     3
370
    25
100
AcDbLine
 10
-67.97486559804013
 20
-73.40352067072584
 30
0.0
 11
-68.51486561949778
 21
-73.21352067311003
 31
0.0
  0
ARC
  5
3A3
330
1F
100
AcDbEntity
  8
16
  6
Continuous
 62
     3
370
    25
100
AcDbCircle
 10
-68.47434240864757
 20
-73.17704809629932
 30
0.0
 40
0.0549999997019768
100
AcDbArc
 50
111.909997558594
 51
222.330004882813
  0
LINE
  5
3A4
330
1F
100
AcDbEntity
  8
16
  6
Continuous
 62
     3
370
    25
100
AcDbLine
 10
-68.49500275889699
 20
-73.1265850512436
 30
0.0
 11
-68.31500275174443
 21
-73.0390850527337
 31
0.0
  0
LINE
  5
3A5
330
1F
100
AcDbEntity
  8
16
  6
Continuous
 62
     3
370
    25
100
AcDbLine
 10
-68.31500275174443
 20
-73.0390850527337
 30
0.0
 11
-68.31500275174443
 21
-73.01033505221216
 31
0.0
  0
ARC
  5
3A6
330
1F
100
AcDbEntity
  8
16
  6
Continuous
 62
     3
370
    25
100
AcDbCircle
 10
-68.4960802479327
 20
-73.01824106478837
 30
0.0
 40
0.1812500059604645
100
AcDbArc
 50
2.500000000000005
 51
85.55000000000018
  0
ARC
  5
3A7
330
1F
100
AcDbEntity
  8
16
  6
Continuous
 62
     3
370
    25
100
AcDbCircle
 10
-68.4762448920388
 20
-73.17498809597679
 30
0.0
 40
0.3375000059604645
100
AcDbArc
 50
90.97999877929706
 51
246.6800048828131
  0
LINE
  5
3A8
330
1F
100
AcDbEntity
  8
16
  6
Continuous
 62
     3
370
    25
100
AcDbLine
 10
-68.60984994648678
 20
-73.48491702887797
 30
0.0
 11
-68.00109996079188
 21
-73.69866703364634
 31
0.0
  0
ARC
  5
3A9
330
1F
100
AcDbEntity
  8
16
  6
Continuous
 62
     3
370
    25
100
AcDbCircle
 10
-68.07609994887095
 20
-73.91116703960681
 30
0.0
 40
0.2249999940395355
100
AcDbArc
 50
0.0
 51
70.57999877929703
  0
LINE
  5
3AA
330
1F
100
AcDbEntity
  8
16
  6
Continuous
 62
     3
370
    25
100
AcDbLine
 10
-67.85128955533555
 20
-73.91146807471992
 30
0.0
 11
-67.85128955533555
 21
-79.00146822730781
 31
0.0
  0
ARC
  5
3AB
330
1F
100
AcDbEntity
  8
16
  6
Continuous
 62
     3
370
    25
100
AcDbCircle
 10
-67.76378955682569
 20
-79.00146828449691
 30
0.0
 40
0.0874999985098839
100
AcDbArc
 50
180.0000000000004
 51
270.0000000000006
  0
LINE
  5
3AC
330
1F
100
AcDbEntity
  8
16
  6
Continuous
 62
     3
370
    25
100
AcDbLine
 10
-67.76378964260934
 20
-79.08896828300676
 30
0.0
 11
-67.36378963664887
 21
-79.08896828300676
 31
0.0
  0
ARC
  5
3AD
330
1F
100
AcDbEntity
  8
16
  6
Continuous
 62
     3
370
    25
100
AcDbCircle
 10
-67.36378955086522
 20
-79.00146828449691
 30
0.0
 40
0.0874999985098839
100
AcDbArc
 50
270.0000000000006
 51
0.0000000000008142
  0
LINE
  5
3AE
330
1F
100
AcDbEntity
  8
16
  6
Continuous
 62
     3
370
    25
100
AcDbLine
 10
-67.27628955235541
 20
-79.00146839887512
 30
0.0
 11
-67.27628955235541
 21
-73.91146824628723
 31
0.0
  0
ARC
  5
3AF
330
1F
100
AcDbEntity
  8
16
  6
Continuous
 62
     3
370
    25
100
AcDbCircle
 10
-67.05147932011592
 20
-73.91116726803865
 30
0.0
 40
0.2249999940395355
100
AcDbArc
 50
109.4199951171877
 51
180.0000000000004
  0
LINE
  5
3B0
330
1F
100
AcDbEntity
  8
16
  6
Continuous
 62
     3
370
    25
100
AcDbLine
 10
-67.12647930819493
 20
-73.69866711502048
 30
0.0
 11
-66.51772932250005
 21
-73.48491711025213
 31
0.0
  0
ARC
  5
3B1
330
1F
100
AcDbEntity
  8
16
  6
Continuous
 62
     3
370
    25
100
AcDbCircle
 10
-66.6513337692486
 20
-73.17498791538283
 30
0.0
 40
0.3375000059604645
100
AcDbArc
 50
293.3199951171881
 51
89.02001953125101
  0
ARC
  5
3B2
330
1F
100
AcDbEntity
  8
16
  6
Continuous
 62
     3
370
    25
100
AcDbCircle
 10
-66.63149797764008
 20
-73.01824090285972
 30
0.0
 40
0.1812500059604645
100
AcDbArc
 50
94.45000000000022
 51
177.5000000000004
  0
LINE
  5
3B3
330
1F
100
AcDbEntity
  8
16
  6
Continuous
 62
     3
370
    25
100
AcDbLine
 10
-66.81257546866102
 20
-73.01033477193312
 30
0.0
 11
-66.81257546866102
 21
-73.03908477245464
 31
0.0
  0
LINE
  5
3B4
330
1F
100
AcDbEntity
  8
16
  6
Continuous
 62
     3
370
    25
100
AcDbLine
 10
-66.81257546866102
 20
-73.03908477245464
 30
0.0
 11
-66.63257546150847
 21
-73.12658477096453
 31
0.0
  0
ARC
  5
3B5
330
1F
100
AcDbEntity
  8
16
  6
Continuous
 62
     3
370
    25
100
AcDbCircle
 10
-66.65323573913687
 20
-73.17704773629475
 30
0.0
 40
0.0549999997019768
100
AcDbArc
 50
317.6699951171883
 51
68.08999023437599
  0
LINE
  5
3B6
330
1F
100
AcDbEntity
  8
16
  6
Continuous
 62
     3
370
    25
100
AcDbLine
 10
-66.61271241736218
 20
-73.2135203577194
 30
0.0
 11
-67.15271243881983
 21
-73.40352035533522
 31
0.0
  0
ARC
  5
3B7
330
1F
100
AcDbEntity
  8
16
  6
Continuous
 62
     3
370
    25
100
AcDbCircle
 10
-66.99132929755454
 20
-73.95540844907006
 30
0.0
 40
0.574999988079071
100
AcDbArc
 50
106.3000000000002
 51
176.2199951171879
  0
LINE
  5
3B8
330
1F
100
AcDbEntity
  8
16
  6
Continuous
 62
     3
370
    25
100
AcDbLine
 10
-103.6875
 20
-72.8375015258789
 30
0.0
 11
-66.3125
 21
-72.8375015258789
 31
0.0
  0
LINE
  5
3B9
330
1F
100
AcDbEntity
  8
16
  6
Continuous
 62
     3
370
    25
100
AcDbLine
 10
-103.6875
 20
-72.8375015258789
 30
0.0
 11
-103.6875
 21
-78.3375015258789
 31
0.0
  0
LINE
  5
3BA
330
1F
100
AcDbEntity
  8
16
  6
Continuous
 62
     3
370
    25
100
AcDbLine
 10
-103.6875
 20
-78.3375015258789
 30
0.0
 11
-102.7250000238419
 21
-78.3375015258789
 31
0.0
  0
LINE
  5
3BB
330
1F
100
AcDbEntity
  8
16
  6
Continuous
 62
     3
370
    25
100
AcDbLine
 10
-102.1500015258789
 20
-78.3375015258789
 30
0.0
 11
-99.23750162124634
 21
-78.3375015258789
 31
0.0
  0
LINE
  5
3BC
330
1F
100
AcDbEntity
  8
16
  6
Continuous
 62
     3
370
    25
100
AcDbLine
 10
-98.6624984741211
 20
-78.3375015258789
 30
0.0
 11
-95.74999856948853
 21
-78.3375015258789
 31
0.0
  0
LINE
  5
3BD
330
1F
100
AcDbEntity
  8
16
  6
Continuous
 62
     3
370
    25
100
AcDbLine
 10
-95.17500305175781
 20
-78.3375015258789
 30
0.0
 11
-92.26250314712524
 21
-78.3375015258789
 31
0.0
  0
LINE
  5
3BE
330
1F
100
AcDbEntity
  8
16
  6
Continuous
 62
     3
370
    25
100
AcDbLine
 10
-91.6875
 20
-78.3375015258789
 30
0.0
 11
-88.77500009536743
 21
-78.3375015258789
 31
0.0
  0
LINE
  5
3BF
330
1F
100
AcDbEntity
  8
16
  6
Continuous
 62
     3
370
    25
100
AcDbLine
 10
-88.19999694824219
 20
-78.3375015258789
 30
0.0
 11
-85.28749704360962
 21
-78.3375015258789
 31
0.0
  0
LINE
  5
3C0
330
1F
100
AcDbEntity
  8
16
  6
Continuous
 62
     3
370
    25
100
AcDbLine
 10
-84.7125015258789
 20
-78.3375015258789
 30
0.0
 11
-81.80000162124634
 21
-78.3375015258789
 31
0.0
  0
LINE
  5
3C1
330
1F
100
AcDbEntity
  8
16
  6
Continuous
 62
     3
370
    25
100
AcDbLine
 10
-81.2249984741211
 20
-78.3375015258789
 30
0.0
 11
-78.31249856948853
 21
-78.3375015258789
 31
0.0
  0
LINE
  5
3C2
330
1F
100
AcDbEntity
  8
16
  6
Continuous
 62
     3
370
    25
100
AcDbLine
 10
-77.73750305175781
 20
-78.3375015258789
 30
0.0
 11
-74.82500314712524
 21
-78.3375015258789
 31
0.0
  0
LINE
  5
3C3
330
1F
100
AcDbEntity
  8
16
  6
Continuous
 62
     3
370
    25
100
AcDbLine
 10
-74.25
 20
-78.3375015258789
 30
0.0
 11
-71.33750009536743
 21
-78.3375015258789
 31
0.0
  0
LINE
  5
3C4
330
1F
100
AcDbEntity
  8
16
  6
Continuous
 62
     3
370
    25
100
AcDbLine
 10
-70.76249694824219
 20
-78.3375015258789
 30
0.0
 11
-67.84999704360962
 21
-78.3375015258789
 31
0.0
  0
LINE
  5
3C5
330
1F
100
AcDbEntity
  8
16
  6
Continuous
 62
     3
370
    25
100
AcDbLine
 10
-67.2750015258789
 20
-78.3375015258789
 30
0.0
 11
-66.31250154972076
 21
-78.3375015258789
 31
0.0
  0
LINE
  5
3C6
330
1F
100
AcDbEntity
  8
16
  6
Continuous
 62
     3
370
    25
100
AcDbLine
 10
-66.31250154972076
 20
-78.3375015258789
 30
0.0
 11
-66.31250154972076
 21
-72.8375015258789
 31
0.0
  0
LINE
  5
3C7
330
1F
100
AcDbEntity
  8
16
  6
Continuous
 62
     3
370
    25
100
AcDbLine
 10
-101.4437484741211
 20
-74.3375015258789
 30
0.0
 11
-101.4437484741211
 21
-74.8375015258789
 31
0.0
  0
ARC
  5
3C8
330
1F
100
AcDbEntity
  8
16
  6
Continuous
 62
     3
370
    25
100
AcDbCircle
 10
-100.6937484741213
 20
-74.83750201607126
 30
0.0
 40
0.75
100
AcDbArc
 50
180.0000000000004
 51
0.0000000000008142
  0
LINE
  5
3C9
330
1F
100
AcDbEntity
  8
16
  6
Continuous
 62
     3
370
    25
100
AcDbLine
 10
-99.94374847412189
 20
-74.83750299645594
 30
0.0
 11
-99.94374847412189
 21
-74.33750299645594
 31
0.0
  0
ARC
  5
3CA
330
1F
100
AcDbEntity
  8
16
  6
Continuous
 62
     3
370
    25
100
AcDbCircle
 10
-100.6937484741219
 20
-74.33750299645594
 30
0.0
 40
0.75
100
AcDbArc
 50
0.0
 51
180.0000000000004
  0
LINE
  5
3CB
330
1F
100
AcDbEntity
  8
16
  6
Continuous
 62
     3
370
    25
100
AcDbLine
 10
-101.8187484741211
 20
-74.5875015258789
 30
0.0
 11
-99.5687484741211
 21
-74.5875015258789
 31
0.0
  0
LINE
  5
3CC
330
1F
100
AcDbEntity
  8
16
  6
Continuous
 62
     3
370
    25
100
AcDbLine
 10
-100.6937484741211
 20
-73.2125015258789
 30
0.0
 11
-100.6937484741211
 21
-75.9625015258789
 31
0.0
  0
LINE
  5
3CD
330
1F
100
AcDbEntity
  8
16
  6
Continuous
 62
     3
370
    25
100
AcDbLine
 10
-98.66874694824219
 20
-74.4625015258789
 30
0.0
 11
-98.54374694824219
 21
-74.3375015258789
 31
0.0
  0
LINE
  5
3CE
330
1F
100
AcDbEntity
  8
16
  6
Continuous
 62
     3
370
    25
100
AcDbLine
 10
-98.54374694824219
 20
-74.3375015258789
 30
0.0
 11
-95.8687469959259
 21
-74.3375015258789
 31
0.0
  0
LINE
  5
3CF
330
1F
100
AcDbEntity
  8
16
  6
Continuous
 62
     3
370
    25
100
AcDbLine
 10
-95.8687469959259
 20
-74.3375015258789
 30
0.0
 11
-95.7437469959259
 21
-74.4625015258789
 31
0.0
  0
LINE
  5
3D0
330
1F
100
AcDbEntity
  8
16
  6
Continuous
 62
     3
370
    25
100
AcDbLine
 10
-95.7437469959259
 20
-75.7125015258789
 30
0.0
 11
-95.8687469959259
 21
-75.8375015258789
 31
0.0
  0
LINE
  5
3D1
330
1F
100
AcDbEntity
  8
16
  6
Continuous
 62
     3
370
    25
100
AcDbLine
 10
-95.8687469959259
 20
-75.8375015258789
 30
0.0
 11
-98.54374694824219
 21
-75.8375015258789
 31
0.0
  0
LINE
  5
3D2
330
1F
100
AcDbEntity
  8
16
  6
Continuous
 62
     3
370
    25
100
AcDbLine
 10
-98.54374694824219
 20
-75.8375015258789
 30
0.0
 11
-98.66874694824219
 21
-75.7125015258789
 31
0.0
  0
LINE
  5
3D3
330
1F
100
AcDbEntity
  8
16
  6
Continuous
 62
     3
370
    25
100
AcDbLine
 10
-95.1812515258789
 20
-74.4625015258789
 30
0.0
 11
-95.0562515258789
 21
-74.3375015258789
 31
0.0
  0
LINE
  5
3D4
330
1F
100
AcDbEntity
  8
16
  6
Continuous
 62
     3
370
    25
100
AcDbLine
 10
-95.0562515258789
 20
-74.3375015258789
 30
0.0
 11
-92.38125157356262
 21
-74.3375015258789
 31
0.0
  0
LINE
  5
3D5
330
1F
100
AcDbEntity
  8
16
  6
Continuous
 62
     3
370
    25
100
AcDbLine
 10
-92.38125157356262
 20
-74.3375015258789
 30
0.0
 11
-92.25625157356262
 21
-74.4625015258789
 31
0.0
  0
LINE
  5
3D6
330
1F
100
AcDbEntity
  8
16
  6
Continuous
 62
     3
370
    25
100
AcDbLine
 10
-92.25625157356262
 20
-75.7125015258789
 30
0.0
 11
-92.38125157356262
 21
-75.8375015258789
 31
0.0
  0
LINE
  5
3D7
330
1F
100
AcDbEntity
  8
16
  6
Continuous
 62
     3
370
    25
100
AcDbLine
 10
-92.38125157356262
 20
-75.8375015258789
 30
0.0
 11
-95.0562515258789
 21
-75.8375015258789
 31
0.0
  0
LINE
  5
3D8
330
1F
100
AcDbEntity
  8
16
  6
Continuous
 62
     3
370
    25
100
AcDbLine
 10
-95.0562515258789
 20
-75.8375015258789
 30
0.0
 11
-95.1812515258789
 21
-75.7125015258789
 31
0.0
  0
LINE
  5
3D9
330
1F
100
AcDbEntity
  8
16
  6
Continuous
 62
     3
370
    25
100
AcDbLine
 10
-91.6937484741211
 20
-74.4625015258789
 30
0.0
 11
-91.5687484741211
 21
-74.3375015258789
 31
0.0
  0
LINE
  5
3DA
330
1F
100
AcDbEntity
  8
16
  6
Continuous
 62
     3
370
    25
100
AcDbLine
 10
-91.5687484741211
 20
-74.3375015258789
 30
0.0
 11
-88.89374852180481
 21
-74.3375015258789
 31
0.0
  0
LINE
  5
3DB
330
1F
100
AcDbEntity
  8
16
  6
Continuous
 62
     3
370
    25
100
AcDbLine
 10
-88.89374852180481
 20
-74.3375015258789
 30
0.0
 11
-88.76874852180481
 21
-74.4625015258789
 31
0.0
  0
LINE
  5
3DC
330
1F
100
AcDbEntity
  8
16
  6
Continuous
 62
     3
370
    25
100
AcDbLine
 10
-88.76874852180481
 20
-75.7125015258789
 30
0.0
 11
-88.89374852180481
 21
-75.8375015258789
 31
0.0
  0
LINE
  5
3DD
330
1F
100
AcDbEntity
  8
16
  6
Continuous
 62
     3
370
    25
100
AcDbLine
 10
-88.89374852180481
 20
-75.8375015258789
 30
0.0
 11
-91.5687484741211
 21
-75.8375015258789
 31
0.0
  0
LINE
  5
3DE
330
1F
100
AcDbEntity
  8
16
  6
Continuous
 62
     3
370
    25
100
AcDbLine
 10
-91.5687484741211
 20
-75.8375015258789
 30
0.0
 11
-91.6937484741211
 21
-75.7125015258789
 31
0.0
  0
LINE
  5
3DF
330
1F
100
AcDbEntity
  8
16
  6
Continuous
 62
     3
370
    25
100
AcDbLine
 10
-88.20625305175781
 20
-74.4625015258789
 30
0.0
 11
-88.08125305175781
 21
-74.3375015258789
 31
0.0
  0
LINE
  5
3E0
330
1F
100
AcDbEntity
  8
16
  6
Continuous
 62
     3
370
    25
100
AcDbLine
 10
-88.08125305175781
 20
-74.3375015258789
 30
0.0
 11
-85.40625309944153
 21
-74.3375015258789
 31
0.0
  0
LINE
  5
3E1
330
1F
100
AcDbEntity
  8
16
  6
Continuous
 62
     3
370
    25
100
AcDbLine
 10
-85.40625309944153
 20
-74.3375015258789
 30
0.0
 11
-85.28125309944153
 21
-74.4625015258789
 31
0.0
  0
LINE
  5
3E2
330
1F
100
AcDbEntity
  8
16
  6
Continuous
 62
     3
370
    25
100
AcDbLine
 10
-85.28125309944153
 20
-75.7125015258789
 30
0.0
 11
-85.40625309944153
 21
-75.8375015258789
 31
0.0
  0
LINE
  5
3E3
330
1F
100
AcDbEntity
  8
16
  6
Continuous
 62
     3
370
    25
100
AcDbLine
 10
-85.40625309944153
 20
-75.8375015258789
 30
0.0
 11
-88.08125305175781
 21
-75.8375015258789
 31
0.0
  0
LINE
  5
3E4
330
1F
100
AcDbEntity
  8
16
  6
Continuous
 62
     3
370
    25
100
AcDbLine
 10
-88.08125305175781
 20
-75.8375015258789
 30
0.0
 11
-88.20625305175781
 21
-75.7125015258789
 31
0.0
  0
LINE
  5
3E5
330
1F
100
AcDbEntity
  8
16
  6
Continuous
 62
     3
370
    25
100
AcDbLine
 10
-84.71875
 20
-74.4625015258789
 30
0.0
 11
-84.59375
 21
-74.3375015258789
 31
0.0
  0
LINE
  5
3E6
330
1F
100
AcDbEntity
  8
16
  6
Continuous
 62
     3
370
    25
100
AcDbLine
 10
-84.59375
 20
-74.3375015258789
 30
0.0
 11
-81.91875004768372
 21
-74.3375015258789
 31
0.0
  0
LINE
  5
3E7
330
1F
100
AcDbEntity
  8
16
  6
Continuous
 62
     3
370
    25
100
AcDbLine
 10
-81.91875004768372
 20
-74.3375015258789
 30
0.0
 11
-81.79375004768372
 21
-74.4625015258789
 31
0.0
  0
LINE
  5
3E8
330
1F
100
AcDbEntity
  8
16
  6
Continuous
 62
     3
370
    25
100
AcDbLine
 10
-81.79375004768372
 20
-75.7125015258789
 30
0.0
 11
-81.91875004768372
 21
-75.8375015258789
 31
0.0
  0
LINE
  5
3E9
330
1F
100
AcDbEntity
  8
16
  6
Continuous
 62
     3
370
    25
100
AcDbLine
 10
-81.91875004768372
 20
-75.8375015258789
 30
0.0
 11
-84.59375
 21
-75.8375015258789
 31
0.0
  0
LINE
  5
3EA
330
1F
100
AcDbEntity
  8
16
  6
Continuous
 62
     3
370
    25
100
AcDbLine
 10
-84.59375
 20
-75.8375015258789
 30
0.0
 11
-84.71875
 21
-75.7125015258789
 31
0.0
  0
LINE
  5
3EB
330
1F
100
AcDbEntity
  8
16
  6
Continuous
 62
     3
370
    25
100
AcDbLine
 10
-81.23124694824219
 20
-74.4625015258789
 30
0.0
 11
-81.10624694824219
 21
-74.3375015258789
 31
0.0
  0
LINE
  5
3EC
330
1F
100
AcDbEntity
  8
16
  6
Continuous
 62
     3
370
    25
100
AcDbLine
 10
-81.10624694824219
 20
-74.3375015258789
 30
0.0
 11
-78.4312469959259
 21
-74.3375015258789
 31
0.0
  0
LINE
  5
3ED
330
1F
100
AcDbEntity
  8
16
  6
Continuous
 62
     3
370
    25
100
AcDbLine
 10
-78.4312469959259
 20
-74.3375015258789
 30
0.0
 11
-78.3062469959259
 21
-74.4625015258789
 31
0.0
  0
LINE
  5
3EE
330
1F
100
AcDbEntity
  8
16
  6
Continuous
 62
     3
370
    25
100
AcDbLine
 10
-78.3062469959259
 20
-75.7125015258789
 30
0.0
 11
-78.4312469959259
 21
-75.8375015258789
 31
0.0
  0
LINE
  5
3EF
330
1F
100
AcDbEntity
  8
16
  6
Continuous
 62
     3
370
    25
100
AcDbLine
 10
-78.4312469959259
 20
-75.8375015258789
 30
0.0
 11
-81.10624694824219
 21
-75.8375015258789
 31
0.0
  0
LINE
  5
3F0
330
1F
100
AcDbEntity
  8
16
  6
Continuous
 62
     3
370
    25
100
AcDbLine
 10
-81.10624694824219
 20
-75.8375015258789
 30
0.0
 11
-81.23124694824219
 21
-75.7125015258789
 31
0.0
  0
LINE
  5
3F1
330
1F
100
AcDbEntity
  8
16
  6
Continuous
 62
     3
370
    25
100
AcDbLine
 10
-77.7437515258789
 20
-74.4625015258789
 30
0.0
 11
-77.6187515258789
 21
-74.3375015258789
 31
0.0
  0
LINE
  5
3F2
330
1F
100
AcDbEntity
  8
16
  6
Continuous
 62
     3
370
    25
100
AcDbLine
 10
-77.6187515258789
 20
-74.3375015258789
 30
0.0
 11
-74.94375157356262
 21
-74.3375015258789
 31
0.0
  0
LINE
  5
3F3
330
1F
100
AcDbEntity
  8
16
  6
Continuous
 62
     3
370
    25
100
AcDbLine
 10
-74.94375157356262
 20
-74.3375015258789
 30
0.0
 11
-74.81875157356262
 21
-74.4625015258789
 31
0.0
  0
LINE
  5
3F4
330
1F
100
AcDbEntity
  8
16
  6
Continuous
 62
     3
370
    25
100
AcDbLine
 10
-74.81875157356262
 20
-75.7125015258789
 30
0.0
 11
-74.94375157356262
 21
-75.8375015258789
 31
0.0
  0
LINE
  5
3F5
330
1F
100
AcDbEntity
  8
16
  6
Continuous
 62
     3
370
    25
100
AcDbLine
 10
-74.94375157356262
 20
-75.8375015258789
 30
0.0
 11
-77.6187515258789
 21
-75.8375015258789
 31
0.0
  0
LINE
  5
3F6
330
1F
100
AcDbEntity
  8
16
  6
Continuous
 62
     3
370
    25
100
AcDbLine
 10
-77.6187515258789
 20
-75.8375015258789
 30
0.0
 11
-77.7437515258789
 21
-75.7125015258789
 31
0.0
  0
LINE
  5
3F7
330
1F
100
AcDbEntity
  8
16
  6
Continuous
 62
     3
370
    25
100
AcDbLine
 10
-74.2562484741211
 20
-74.4625015258789
 30
0.0
 11
-74.1312484741211
 21
-74.3375015258789
 31
0.0
  0
LINE
  5
3F8
330
1F
100
AcDbEntity
  8
16
  6
Continuous
 62
     3
370
    25
100
AcDbLine
 10
-74.1312484741211
 20
-74.3375015258789
 30
0.0
 11
-71.45624852180481
 21
-74.3375015258789
 31
0.0
  0
LINE
  5
3F9
330
1F
100
AcDbEntity
  8
16
  6
Continuous
 62
     3
370
    25
100
AcDbLine
 10
-71.45624852180481
 20
-74.3375015258789
 30
0.0
 11
-71.33124852180481
 21
-74.4625015258789
 31
0.0
  0
LINE
  5
3FA
330
1F
100
AcDbEntity
  8
16
  6
Continuous
 62
     3
370
    25
100
AcDbLine
 10
-71.33124852180481
 20
-75.7125015258789
 30
0.0
 11
-71.45624852180481
 21
-75.8375015258789
 31
0.0
  0
LINE
  5
3FB
330
1F
100
AcDbEntity
  8
16
  6
Continuous
 62
     3
370
    25
100
AcDbLine
 10
-71.45624852180481
 20
-75.8375015258789
 30
0.0
 11
-74.1312484741211
 21
-75.8375015258789
 31
0.0
  0
LINE
  5
3FC
330
1F
100
AcDbEntity
  8
16
  6
Continuous
 62
     3
370
    25
100
AcDbLine
 10
-74.1312484741211
 20
-75.8375015258789
 30
0.0
 11
-74.2562484741211
 21
-75.7125015258789
 31
0.0
  0
LINE
  5
3FD
330
1F
100
AcDbEntity
  8
16
  6
Continuous
 62
     3
370
    25
100
AcDbLine
 10
-70.76875305175781
 20
-74.4625015258789
 30
0.0
 11
-70.64375305175781
 21
-74.3375015258789
 31
0.0
  0
LINE
  5
3FE
330
1F
100
AcDbEntity
  8
16
  6
Continuous
 62
     3
370
    25
100
AcDbLine
 10
-70.64375305175781
 20
-74.3375015258789
 30
0.0
 11
-67.96875309944153
 21
-74.3375015258789
 31
0.0
  0
LINE
  5
3FF
330
1F
100
AcDbEntity
  8
16
  6
Continuous
 62
     3
370
    25
100
AcDbLine
 10
-67.96875309944153
 20
-74.3375015258789
 30
0.0
 11
-67.84375309944153
 21
-74.4625015258789
 31
0.0
  0
LINE
  5
400
330
1F
100
AcDbEntity
  8
16
  6
Continuous
 62
     3
370
    25
100
AcDbLine
 10
-67.84375309944153
 20
-75.7125015258789
 30
0.0
 11
-67.96875309944153
 21
-75.8375015258789
 31
0.0
  0
LINE
  5
401
330
1F
100
AcDbEntity
  8
16
  6
Continuous
 62
     3
370
    25
100
AcDbLine
 10
-67.96875309944153
 20
-75.8375015258789
 30
0.0
 11
-70.64375305175781
 21
-75.8375015258789
 31
0.0
  0
LINE
  5
402
330
1F
100
AcDbEntity
  8
16
  6
Continuous
 62
     3
370
    25
100
AcDbLine
 10
-70.64375305175781
 20
-75.8375015258789
 30
0.0
 11
-70.76875305175781
 21
-75.7125015258789
 31
0.0
  0
LINE
  5
403
330
1F
100
AcDbEntity
  8
16
  6
Continuous
 62
     3
370
    25
100
AcDbLine
 10
-21.3125
 20
58.53750610351562
 30
0.0
 11
-15.8125
 21
58.53750610351562
 31
0.0
  0
LINE
  5
404
330
1F
100
AcDbEntity
  8
16
  6
Continuous
 62
     3
370
    25
100
AcDbLine
 10
-15.8125
 20
58.53750610351562
 30
0.0
 11
-15.8125
 21
59.10000610351562
 31
0.0
  0
LINE
  5
405
330
1F
100
AcDbEntity
  8
16
  6
Continuous
 62
     3
370
    25
100
AcDbLine
 10
-15.8125
 20
59.10000610351562
 30
0.0
 11
-21.3125
 21
59.10000610351562
 31
0.0
  0
LINE
  5
406
330
1F
100
AcDbEntity
  8
16
  6
Continuous
 62
     3
370
    25
100
AcDbLine
 10
-21.3125
 20
59.10000610351562
 30
0.0
 11
-21.3125
 21
58.53750610351562
 31
0.0
  0
LINE
  5
407
330
1F
100
AcDbEntity
  8
16
  6
Continuous
 62
     3
370
    25
100
AcDbLine
 10
-21.3125
 20
-27.83750152587891
 30
0.0
 11
-15.8125
 21
-27.83750152587891
 31
0.0
  0
LINE
  5
408
330
1F
100
AcDbEntity
  8
16
  6
Continuous
 62
     3
370
    25
100
AcDbLine
 10
-15.8125
 20
-27.83750152587891
 30
0.0
 11
-15.8125
 21
-28.40000152587891
 31
0.0
  0
LINE
  5
409
330
1F
100
AcDbEntity
  8
16
  6
Continuous
 62
     3
370
    25
100
AcDbLine
 10
-15.8125
 20
-28.40000152587891
 30
0.0
 11
-21.3125
 21
-28.40000152587891
 31
0.0
  0
LINE
  5
40A
330
1F
100
AcDbEntity
  8
16
  6
Continuous
 62
     3
370
    25
100
AcDbLine
 10
-21.3125
 20
-28.40000152587891
 30
0.0
 11
-21.3125
 21
-27.83750152587891
 31
0.0
  0
ARC
  5
40B
330
1F
100
AcDbEntity
  8
16
  6
Continuous
 62
     3
370
    25
100
AcDbCircle
 10
-19.0625
 20
46.60000610351562
 30
0.0
 40
0.5
100
AcDbArc
 50
46.60000000000011
 51
133.4000000000003
  0
ARC
  5
40C
330
1F
100
AcDbEntity
  8
16
  6
Continuous
 62
     3
370
    25
100
AcDbCircle
 10
-19.0625
 20
46.60000610351562
 30
0.0
 40
0.5
100
AcDbArc
 50
226.6000000000004
 51
313.4000000000007
  0
LINE
  5
40D
330
1F
100
AcDbEntity
  8
16
  6
Continuous
 62
     3
370
    25
100
AcDbLine
 10
-18.8125
 20
46.97500610351562
 30
0.0
 11
-19.3125
 21
46.97500610351562
 31
0.0
  0
ARC
  5
40E
330
1F
100
AcDbEntity
  8
16
  6
Continuous
 62
     3
370
    25
100
AcDbCircle
 10
-19.31250012254809
 20
46.60000610351565
 30
0.0
 40
0.375
100
AcDbArc
 50
90.0000000000002
 51
270.0000000000006
  0
LINE
  5
40F
330
1F
100
AcDbEntity
  8
16
  6
Continuous
 62
     3
370
    25
100
AcDbLine
 10
-19.31250049019235
 20
46.22500610351583
 30
0.0
 11
-18.81250049019235
 21
46.22500610351583
 31
0.0
  0
ARC
  5
410
330
1F
100
AcDbEntity
  8
16
  6
Continuous
 62
     3
370
    25
100
AcDbCircle
 10
-18.81250012254809
 20
46.60000610351565
 30
0.0
 40
0.375
100
AcDbArc
 50
270.0000000000006
 51
90.00000000000102
  0
LINE
  5
411
330
1F
100
AcDbEntity
  8
16
  6
Continuous
 62
     3
370
    25
100
AcDbLine
 10
-20.0625
 20
46.60000610351562
 30
0.0
 11
-18.0625
 21
46.60000610351562
 31
0.0
  0
LINE
  5
412
330
1F
100
AcDbEntity
  8
16
  6
Continuous
 62
     3
370
    25
100
AcDbLine
 10
-19.0625
 20
47.35000610351562
 30
0.0
 11
-19.0625
 21
45.85000610351562
 31
0.0
  0
ARC
  5
413
330
1F
100
AcDbEntity
  8
16
  6
Continuous
 62
     3
370
    25
100
AcDbCircle
 10
-19.0625
 20
34.10000610351562
 30
0.0
 40
0.5
100
AcDbArc
 50
46.60000000000011
 51
133.4000000000003
  0
ARC
  5
414
330
1F
100
AcDbEntity
  8
16
  6
Continuous
 62
     3
370
    25
100
AcDbCircle
 10
-19.0625
 20
34.10000610351562
 30
0.0
 40
0.5
100
AcDbArc
 50
226.6000000000004
 51
313.4000000000007
  0
LINE
  5
415
330
1F
100
AcDbEntity
  8
16
  6
Continuous
 62
     3
370
    25
100
AcDbLine
 10
-18.8125
 20
34.47500610351562
 30
0.0
 11
-19.3125
 21
34.47500610351562
 31
0.0
  0
ARC
  5
416
330
1F
100
AcDbEntity
  8
16
  6
Continuous
 62
     3
370
    25
100
AcDbCircle
 10
-19.31250012254809
 20
34.10000610351565
 30
0.0
 40
0.375
100
AcDbArc
 50
90.0000000000002
 51
270.0000000000006
  0
LINE
  5
417
330
1F
100
AcDbEntity
  8
16
  6
Continuous
 62
     3
370
    25
100
AcDbLine
 10
-19.31250049019235
 20
33.72500610351583
 30
0.0
 11
-18.81250049019235
 21
33.72500610351583
 31
0.0
  0
ARC
  5
418
330
1F
100
AcDbEntity
  8
16
  6
Continuous
 62
     3
370
    25
100
AcDbCircle
 10
-18.81250012254809
 20
34.10000610351565
 30
0.0
 40
0.375
100
AcDbArc
 50
270.0000000000006
 51
90.00000000000102
  0
LINE
  5
419
330
1F
100
AcDbEntity
  8
16
  6
Continuous
 62
     3
370
    25
100
AcDbLine
 10
-20.0625
 20
34.10000610351562
 30
0.0
 11
-18.0625
 21
34.10000610351562
 31
0.0
  0
LINE
  5
41A
330
1F
100
AcDbEntity
  8
16
  6
Continuous
 62
     3
370
    25
100
AcDbLine
 10
-19.0625
 20
34.85000610351562
 30
0.0
 11
-19.0625
 21
33.35000610351562
 31
0.0
  0
ARC
  5
41B
330
1F
100
AcDbEntity
  8
16
  6
Continuous
 62
     3
370
    25
100
AcDbCircle
 10
-19.0625
 20
21.60000610351562
 30
0.0
 40
0.5
100
AcDbArc
 50
46.60000000000011
 51
133.4000000000003
  0
ARC
  5
41C
330
1F
100
AcDbEntity
  8
16
  6
Continuous
 62
     3
370
    25
100
AcDbCircle
 10
-19.0625
 20
21.60000610351562
 30
0.0
 40
0.5
100
AcDbArc
 50
226.6000000000004
 51
313.4000000000007
  0
LINE
  5
41D
330
1F
100
AcDbEntity
  8
16
  6
Continuous
 62
     3
370
    25
100
AcDbLine
 10
-18.8125
 20
21.97500610351562
 30
0.0
 11
-19.3125
 21
21.97500610351562
 31
0.0
  0
ARC
  5
41E
330
1F
100
AcDbEntity
  8
16
  6
Continuous
 62
     3
370
    25
100
AcDbCircle
 10
-19.31250012254809
 20
21.60000610351565
 30
0.0
 40
0.375
100
AcDbArc
 50
90.0000000000002
 51
270.0000000000006
  0
LINE
  5
41F
330
1F
100
AcDbEntity
  8
16
  6
Continuous
 62
     3
370
    25
100
AcDbLine
 10
-19.31250049019235
 20
21.22500610351583
 30
0.0
 11
-18.81250049019235
 21
21.22500610351583
 31
0.0
  0
ARC
  5
420
330
1F
100
AcDbEntity
  8
16
  6
Continuous
 62
     3
370
    25
100
AcDbCircle
 10
-18.81250012254809
 20
21.60000610351565
 30
0.0
 40
0.375
100
AcDbArc
 50
270.0000000000006
 51
90.00000000000102
  0
LINE
  5
421
330
1F
100
AcDbEntity
  8
16
  6
Continuous
 62
     3
370
    25
100
AcDbLine
 10
-20.0625
 20
21.60000610351562
 30
0.0
 11
-18.0625
 21
21.60000610351562
 31
0.0
  0
LINE
  5
422
330
1F
100
AcDbEntity
  8
16
  6
Continuous
 62
     3
370
    25
100
AcDbLine
 10
-19.0625
 20
22.35000610351562
 30
0.0
 11
-19.0625
 21
20.85000610351562
 31
0.0
  0
ARC
  5
423
330
1F
100
AcDbEntity
  8
16
  6
Continuous
 62
     3
370
    25
100
AcDbCircle
 10
-19.0625
 20
9.100006103515625
 30
0.0
 40
0.5
100
AcDbArc
 50
46.60000000000011
 51
133.4000000000003
  0
ARC
  5
424
330
1F
100
AcDbEntity
  8
16
  6
Continuous
 62
     3
370
    25
100
AcDbCircle
 10
-19.0625
 20
9.100006103515625
 30
0.0
 40
0.5
100
AcDbArc
 50
226.6000000000004
 51
313.4000000000007
  0
LINE
  5
425
330
1F
100
AcDbEntity
  8
16
  6
Continuous
 62
     3
370
    25
100
AcDbLine
 10
-18.8125
 20
9.475006103515625
 30
0.0
 11
-19.3125
 21
9.475006103515625
 31
0.0
  0
ARC
  5
426
330
1F
100
AcDbEntity
  8
16
  6
Continuous
 62
     3
370
    25
100
AcDbCircle
 10
-19.31250012254809
 20
9.100006103515646
 30
0.0
 40
0.375
100
AcDbArc
 50
90.0000000000002
 51
270.0000000000006
  0
LINE
  5
427
330
1F
100
AcDbEntity
  8
16
  6
Continuous
 62
     3
370
    25
100
AcDbLine
 10
-19.31250049019235
 20
8.725006103515828
 30
0.0
 11
-18.81250049019235
 21
8.725006103515828
 31
0.0
  0
ARC
  5
428
330
1F
100
AcDbEntity
  8
16
  6
Continuous
 62
     3
370
    25
100
AcDbCircle
 10
-18.81250012254809
 20
9.100006103515646
 30
0.0
 40
0.375
100
AcDbArc
 50
270.0000000000006
 51
90.00000000000102
  0
LINE
  5
429
330
1F
100
AcDbEntity
  8
16
  6
Continuous
 62
     3
370
    25
100
AcDbLine
 10
-20.0625
 20
9.100006103515625
 30
0.0
 11
-18.0625
 21
9.100006103515625
 31
0.0
  0
LINE
  5
42A
330
1F
100
AcDbEntity
  8
16
  6
Continuous
 62
     3
370
    25
100
AcDbLine
 10
-19.0625
 20
9.850006103515625
 30
0.0
 11
-19.0625
 21
8.350006103515625
 31
0.0
  0
ARC
  5
42B
330
1F
100
AcDbEntity
  8
16
  6
Continuous
 62
     3
370
    25
100
AcDbCircle
 10
-19.0625
 20
-3.400001525878906
 30
0.0
 40
0.5
100
AcDbArc
 50
46.60000000000011
 51
133.4000000000003
  0
ARC
  5
42C
330
1F
100
AcDbEntity
  8
16
  6
Continuous
 62
     3
370
    25
100
AcDbCircle
 10
-19.0625
 20
-3.400001525878906
 30
0.0
 40
0.5
100
AcDbArc
 50
226.6000000000004
 51
313.4000000000007
  0
LINE
  5
42D
330
1F
100
AcDbEntity
  8
16
  6
Continuous
 62
     3
370
    25
100
AcDbLine
 10
-18.8125
 20
-3.025001525878906
 30
0.0
 11
-19.3125
 21
-3.025001525878906
 31
0.0
  0
ARC
  5
42E
330
1F
100
AcDbEntity
  8
16
  6
Continuous
 62
     3
370
    25
100
AcDbCircle
 10
-19.31250012254809
 20
-3.400001525878887
 30
0.0
 40
0.375
100
AcDbArc
 50
90.0000000000002
 51
270.0000000000006
  0
LINE
  5
42F
330
1F
100
AcDbEntity
  8
16
  6
Continuous
 62
     3
370
    25
100
AcDbLine
 10
-19.31250049019235
 20
-3.775001525878707
 30
0.0
 11
-18.81250049019235
 21
-3.775001525878707
 31
0.0
  0
ARC
  5
430
330
1F
100
AcDbEntity
  8
16
  6
Continuous
 62
     3
370
    25
100
AcDbCircle
 10
-18.81250012254809
 20
-3.400001525878887
 30
0.0
 40
0.375
100
AcDbArc
 50
270.0000000000006
 51
90.00000000000102
  0
LINE
  5
431
330
1F
100
AcDbEntity
  8
16
  6
Continuous
 62
     3
370
    25
100
AcDbLine
 10
-20.0625
 20
-3.400001525878906
 30
0.0
 11
-18.0625
 21
-3.400001525878906
 31
0.0
  0
LINE
  5
432
330
1F
100
AcDbEntity
  8
16
  6
Continuous
 62
     3
370
    25
100
AcDbLine
 10
-19.0625
 20
-2.650001525878906
 30
0.0
 11
-19.0625
 21
-4.150001525878906
 31
0.0
  0
ARC
  5
433
330
1F
100
AcDbEntity
  8
16
  6
Continuous
 62
     3
370
    25
100
AcDbCircle
 10
-19.0625
 20
-15.90000152587891
 30
0.0
 40
0.5
100
AcDbArc
 50
46.60000000000011
 51
133.4000000000003
  0
ARC
  5
434
330
1F
100
AcDbEntity
  8
16
  6
Continuous
 62
     3
370
    25
100
AcDbCircle
 10
-19.0625
 20
-15.90000152587891
 30
0.0
 40
0.5
100
AcDbArc
 50
226.6000000000004
 51
313.4000000000007
  0
LINE
  5
435
330
1F
100
AcDbEntity
  8
16
  6
Continuous
 62
     3
370
    25
100
AcDbLine
 10
-18.8125
 20
-15.52500152587891
 30
0.0
 11
-19.3125
 21
-15.52500152587891
 31
0.0
  0
ARC
  5
436
330
1F
100
AcDbEntity
  8
16
  6
Continuous
 62
     3
370
    25
100
AcDbCircle
 10
-19.31250012254809
 20
-15.90000152587889
 30
0.0
 40
0.375
100
AcDbArc
 50
90.0000000000002
 51
270.0000000000006
  0
LINE
  5
437
330
1F
100
AcDbEntity
  8
16
  6
Continuous
 62
     3
370
    25
100
AcDbLine
 10
-19.31250049019235
 20
-16.27500152587871
 30
0.0
 11
-18.81250049019235
 21
-16.27500152587871
 31
0.0
  0
ARC
  5
438
330
1F
100
AcDbEntity
  8
16
  6
Continuous
 62
     3
370
    25
100
AcDbCircle
 10
-18.81250012254809
 20
-15.90000152587889
 30
0.0
 40
0.375
100
AcDbArc
 50
270.0000000000006
 51
90.00000000000102
  0
LINE
  5
439
330
1F
100
AcDbEntity
  8
16
  6
Continuous
 62
     3
370
    25
100
AcDbLine
 10
-20.0625
 20
-15.90000152587891
 30
0.0
 11
-18.0625
 21
-15.90000152587891
 31
0.0
  0
LINE
  5
43A
330
1F
100
AcDbEntity
  8
16
  6
Continuous
 62
     3
370
    25
100
AcDbLine
 10
-19.0625
 20
-15.15000152587891
 30
0.0
 11
-19.0625
 21
-16.65000152587891
 31
0.0
  0
LINE
  5
43B
330
1F
100
AcDbEntity
  8
16
  6
Continuous
 62
     3
370
    25
100
AcDbLine
 10
-21.3125
 20
58.53750610351562
 30
0.0
 11
-21.3125
 21
-27.83749389648437
 31
0.0
  0
LINE
  5
43C
330
1F
100
AcDbEntity
  8
16
  6
Continuous
 62
     3
370
    25
100
AcDbLine
 10
-21.3125
 20
-27.83749389648437
 30
0.0
 11
-15.0625
 21
-27.83749389648437
 31
0.0
  0
LINE
  5
43D
330
1F
100
AcDbEntity
  8
16
  6
Continuous
 62
     3
370
    25
100
AcDbLine
 10
-15.0625
 20
-27.83749389648437
 30
0.0
 11
-15.0625
 21
58.53750610351562
 31
0.0
  0
LINE
  5
43E
330
1F
100
AcDbEntity
  8
16
  6
Continuous
 62
     3
370
    25
100
AcDbLine
 10
-15.0625
 20
58.53750610351562
 30
0.0
 11
-21.3125
 21
58.53750610351562
 31
0.0
  0
LINE
  5
43F
330
1F
100
AcDbEntity
  8
16
  6
Continuous
 62
     3
370
    25
100
AcDbLine
 10
-21.0625
 20
58.53750610351562
 30
0.0
 11
-21.0625
 21
-27.83749389648437
 31
0.0
  0
LINE
  5
440
330
1F
100
AcDbEntity
  8
16
  6
Continuous
 62
     3
370
    25
100
AcDbLine
 10
-20.1875
 20
-27.83749389648437
 30
0.0
 11
-20.1875
 21
58.53750610351562
 31
0.0
  0
LINE
  5
441
330
1F
100
AcDbEntity
  8
19
  6
Continuous
 62
     6
370
    25
100
AcDbLine
 10
-105.8125
 20
60.35000610351562
 30
0.0
 11
-64.1875
 21
60.35000610351562
 31
0.0
  0
LINE
  5
442
330
1F
100
AcDbEntity
  8
19
  6
Continuous
 62
     6
370
    25
100
AcDbLine
 10
-64.1875
 20
-29.64999389648437
 30
0.0
 11
-64.1875
 21
60.35000610351562
 31
0.0
  0
LINE
  5
443
330
1F
100
AcDbEntity
  8
19
  6
Continuous
 62
     6
370
    25
100
AcDbLine
 10
-105.8125
 20
-29.64999389648437
 30
0.0
 11
-64.1875
 21
-29.64999389648437
 31
0.0
  0
LINE
  5
444
330
1F
100
AcDbEntity
  8
19
  6
Continuous
 62
     6
370
    25
100
AcDbLine
 10
-105.8125
 20
-29.64999389648437
 30
0.0
 11
-105.8125
 21
60.35000610351562
 31
0.0
  0
LINE
  5
445
330
1F
100
AcDbEntity
  8
19
  6
Continuous
 62
     6
370
    25
100
AcDbLine
 10
-105.8125
 20
59.60000610351562
 30
0.0
 11
-64.1875
 21
59.60000610351562
 31
0.0
  0
LINE
  5
446
330
1F
100
AcDbEntity
  8
19
  6
Continuous
 62
     6
370
    25
100
AcDbLine
 10
-65.3125
 20
-28.89999389648437
 30
0.0
 11
-65.3125
 21
59.60000610351562
 31
0.0
  0
LINE
  5
447
330
1F
100
AcDbEntity
  8
19
  6
Continuous
 62
     6
370
    25
100
AcDbLine
 10
-105.8125
 20
-28.89999389648437
 30
0.0
 11
-64.1875
 21
-28.89999389648437
 31
0.0
  0
LINE
  5
448
330
1F
100
AcDbEntity
  8
19
  6
Continuous
 62
     6
370
    25
100
AcDbLine
 10
-104.6875
 20
-28.89999389648437
 30
0.0
 11
-104.6875
 21
59.60000610351562
 31
0.0
  0
LINE
  5
449
330
1F
100
AcDbEntity
  8
19
  6
Continuous
 62
     6
370
    25
100
AcDbLine
 10
-104.6875
 20
52.85000610351562
 30
0.0
 11
-103.6875
 21
52.85000610351562
 31
0.0
  0
LINE
  5
44A
330
1F
100
AcDbEntity
  8
19
  6
Continuous
 62
     6
370
    25
100
AcDbLine
 10
-104.6875
 20
-22.15000152587891
 30
0.0
 11
-103.6875
 21
-22.15000152587891
 31
0.0
  0
LINE
  5
44B
330
1F
100
AcDbEntity
  8
19
  6
Continuous
 62
     6
370
    25
100
AcDbLine
 10
-66.3125
 20
52.85000610351562
 30
0.0
 11
-65.3125
 21
52.85000610351562
 31
0.0
  0
LINE
  5
44C
330
1F
100
AcDbEntity
  8
19
  6
Continuous
 62
     6
370
    25
100
AcDbLine
 10
-66.3125
 20
-22.15000152587891
 30
0.0
 11
-65.3125
 21
-22.15000152587891
 31
0.0
  0
LINE
  5
44D
330
1F
100
AcDbEntity
  8
19
  6
Continuous
 62
     6
370
    25
100
AcDbLine
 10
-101.1875
 20
52.85000610351562
 30
0.0
 11
-100.1999999880791
 21
52.85000610351562
 31
0.0
  0
LINE
  5
44E
330
1F
100
AcDbEntity
  8
19
  6
Continuous
 62
     6
370
    25
100
AcDbLine
 10
-97.69999694824219
 20
52.85000610351562
 30
0.0
 11
-96.7125015258789
 21
52.85000610351562
 31
0.0
  0
LINE
  5
44F
330
1F
100
AcDbEntity
  8
19
  6
Continuous
 62
     6
370
    25
100
AcDbLine
 10
-94.2125015258789
 20
52.85000610351562
 30
0.0
 11
-93.22500151395798
 21
52.85000610351562
 31
0.0
  0
LINE
  5
450
330
1F
100
AcDbEntity
  8
19
  6
Continuous
 62
     6
370
    25
100
AcDbLine
 10
-90.7249984741211
 20
52.85000610351562
 30
0.0
 11
-89.73749846220016
 21
52.85000610351562
 31
0.0
  0
LINE
  5
451
330
1F
100
AcDbEntity
  8
19
  6
Continuous
 62
     6
370
    25
100
AcDbLine
 10
-87.23750305175781
 20
52.85000610351562
 30
0.0
 11
-86.25000303983688
 21
52.85000610351562
 31
0.0
  0
LINE
  5
452
330
1F
100
AcDbEntity
  8
19
  6
Continuous
 62
     6
370
    25
100
AcDbLine
 10
-83.75
 20
52.85000610351562
 30
0.0
 11
-82.76249998807907
 21
52.85000610351562
 31
0.0
  0
LINE
  5
453
330
1F
100
AcDbEntity
  8
19
  6
Continuous
 62
     6
370
    25
100
AcDbLine
 10
-80.26249694824219
 20
52.85000610351562
 30
0.0
 11
-79.2750015258789
 21
52.85000610351562
 31
0.0
  0
LINE
  5
454
330
1F
100
AcDbEntity
  8
19
  6
Continuous
 62
     6
370
    25
100
AcDbLine
 10
-76.7750015258789
 20
52.85000610351562
 30
0.0
 11
-75.78750151395798
 21
52.85000610351562
 31
0.0
  0
LINE
  5
455
330
1F
100
AcDbEntity
  8
19
  6
Continuous
 62
     6
370
    25
100
AcDbLine
 10
-73.2874984741211
 20
52.85000610351562
 30
0.0
 11
-72.30000305175781
 21
52.85000610351562
 31
0.0
  0
LINE
  5
456
330
1F
100
AcDbEntity
  8
19
  6
Continuous
 62
     6
370
    25
100
AcDbLine
 10
-69.80000305175781
 20
52.85000610351562
 30
0.0
 11
-68.81250303983688
 21
52.85000610351562
 31
0.0
  0
LINE
  5
457
330
1F
100
AcDbEntity
  8
19
  6
Continuous
 62
     6
370
    25
100
AcDbLine
 10
-101.1875
 20
-22.15000152587891
 30
0.0
 11
-100.1999999880791
 21
-22.15000152587891
 31
0.0
  0
LINE
  5
458
330
1F
100
AcDbEntity
  8
19
  6
Continuous
 62
     6
370
    25
100
AcDbLine
 10
-97.69999694824219
 20
-22.15000152587891
 30
0.0
 11
-96.7125015258789
 21
-22.15000152587891
 31
0.0
  0
LINE
  5
459
330
1F
100
AcDbEntity
  8
19
  6
Continuous
 62
     6
370
    25
100
AcDbLine
 10
-94.2125015258789
 20
-22.15000152587891
 30
0.0
 11
-93.22500151395798
 21
-22.15000152587891
 31
0.0
  0
LINE
  5
45A
330
1F
100
AcDbEntity
  8
19
  6
Continuous
 62
     6
370
    25
100
AcDbLine
 10
-90.7249984741211
 20
-22.15000152587891
 30
0.0
 11
-89.73749846220016
 21
-22.15000152587891
 31
0.0
  0
LINE
  5
45B
330
1F
100
AcDbEntity
  8
19
  6
Continuous
 62
     6
370
    25
100
AcDbLine
 10
-87.23750305175781
 20
-22.15000152587891
 30
0.0
 11
-86.25000303983688
 21
-22.15000152587891
 31
0.0
  0
LINE
  5
45C
330
1F
100
AcDbEntity
  8
19
  6
Continuous
 62
     6
370
    25
100
AcDbLine
 10
-83.75
 20
-22.15000152587891
 30
0.0
 11
-82.76249998807907
 21
-22.15000152587891
 31
0.0
  0
LINE
  5
45D
330
1F
100
AcDbEntity
  8
19
  6
Continuous
 62
     6
370
    25
100
AcDbLine
 10
-80.26249694824219
 20
-22.15000152587891
 30
0.0
 11
-79.2750015258789
 21
-22.15000152587891
 31
0.0
  0
LINE
  5
45E
330
1F
100
AcDbEntity
  8
19
  6
Continuous
 62
     6
370
    25
100
AcDbLine
 10
-76.7750015258789
 20
-22.15000152587891
 30
0.0
 11
-75.78750151395798
 21
-22.15000152587891
 31
0.0
  0
LINE
  5
45F
330
1F
100
AcDbEntity
  8
19
  6
Continuous
 62
     6
370
    25
100
AcDbLine
 10
-73.2874984741211
 20
-22.15000152587891
 30
0.0
 11
-72.30000305175781
 21
-22.15000152587891
 31
0.0
  0
LINE
  5
460
330
1F
100
AcDbEntity
  8
19
  6
Continuous
 62
     6
370
    25
100
AcDbLine
 10
-69.80000305175781
 20
-22.15000152587891
 30
0.0
 11
-68.81250303983688
 21
-22.15000152587891
 31
0.0
  0
LINE
  5
461
330
1F
100
AcDbEntity
  8
19
  6
Continuous
 62
     6
370
    25
100
AcDbLine
 10
-102.5625
 20
60.35000610351562
 30
0.0
 11
-102.5625
 21
64.35000610351562
 31
0.0
  0
LINE
  5
462
330
1F
100
AcDbEntity
  8
19
  6
Continuous
 62
     6
370
    25
100
AcDbLine
 10
-102.5625
 20
64.35000610351562
 30
0.0
 11
-99.8125
 21
64.35000610351562
 31
0.0
  0
LINE
  5
463
330
1F
100
AcDbEntity
  8
19
  6
Continuous
 62
     6
370
    25
100
AcDbLine
 10
-99.8125
 20
64.35000610351562
 30
0.0
 11
-99.8125
 21
60.35000610351562
 31
0.0
  0
LINE
  5
464
330
1F
100
AcDbEntity
  8
19
  6
Continuous
 62
     6
370
    25
100
AcDbLine
 10
-100.4375
 20
59.10000610351562
 30
0.0
 11
-100.4375
 21
59.60000610351562
 31
0.0
  0
LINE
  5
465
330
1F
100
AcDbEntity
  8
19
  6
Continuous
 62
     6
370
    25
100
AcDbLine
 10
-100.4375
 20
56.60000610351562
 30
0.0
 11
-100.4375
 21
58.53750610351562
 31
0.0
  0
LINE
  5
466
330
1F
100
AcDbEntity
  8
19
  6
Continuous
 62
     6
370
    25
100
AcDbLine
 10
-101.1875
 20
56.60000610351562
 30
0.0
 11
-100.4375
 21
56.60000610351562
 31
0.0
  0
LINE
  5
467
330
1F
100
AcDbEntity
  8
19
  6
Continuous
 62
     6
370
    25
100
AcDbLine
 10
-101.9375
 20
59.10000610351562
 30
0.0
 11
-101.9375
 21
59.60000610351562
 31
0.0
  0
LINE
  5
468
330
1F
100
AcDbEntity
  8
19
  6
Continuous
 62
     6
370
    25
100
AcDbLine
 10
-102.1875
 20
-30.15000152587891
 30
0.0
 11
-102.1875
 21
-29.65000152587891
 31
0.0
  0
LINE
  5
469
330
1F
100
AcDbEntity
  8
19
  6
Continuous
 62
     6
370
    25
100
AcDbLine
 10
-102.1875
 20
-30.15000152587891
 30
0.0
 11
-100.1875
 21
-30.15000152587891
 31
0.0
  0
LINE
  5
46A
330
1F
100
AcDbEntity
  8
19
  6
Continuous
 62
     6
370
    25
100
AcDbLine
 10
-100.1875
 20
-30.15000152587891
 30
0.0
 11
-100.1875
 21
-29.65000152587891
 31
0.0
  0
LINE
  5
46B
330
1F
100
AcDbEntity
  8
19
  6
Continuous
 62
     6
370
    25
100
AcDbLine
 10
-100.4375
 20
-28.90000152587891
 30
0.0
 11
-100.4375
 21
-28.40000152587891
 31
0.0
  0
LINE
  5
46C
330
1F
100
AcDbEntity
  8
19
  6
Continuous
 62
     6
370
    25
100
AcDbLine
 10
-100.4375
 20
-27.83750152587891
 30
0.0
 11
-100.4375
 21
-25.90000152587891
 31
0.0
  0
LINE
  5
46D
330
1F
100
AcDbEntity
  8
19
  6
Continuous
 62
     6
370
    25
100
AcDbLine
 10
-101.1875
 20
-25.90000152587891
 30
0.0
 11
-100.4375
 21
-25.90000152587891
 31
0.0
  0
LINE
  5
46E
330
1F
100
AcDbEntity
  8
19
  6
Continuous
 62
     6
370
    25
100
AcDbLine
 10
-101.9375
 20
-28.90000152587891
 30
0.0
 11
-101.9375
 21
-28.40000152587891
 31
0.0
  0
CIRCLE
  5
46F
330
1F
100
AcDbEntity
  8
19
  6
Continuous
 62
     6
370
    25
100
AcDbCircle
 10
-98.3125
 20
61.16250610351562
 30
0.0
 40
0.8125
  0
LINE
  5
470
330
1F
100
AcDbEntity
  8
19
  6
Continuous
 62
     6
370
    25
100
AcDbLine
 10
-99.125
 20
61.16250610351562
 30
0.0
 11
-99.125
 21
66.36500597000122
 31
0.0
  0
LINE
  5
471
330
1F
100
AcDbEntity
  8
19
  6
Continuous
 62
     6
370
    25
100
AcDbLine
 10
-99.125
 20
66.36500597000122
 30
0.0
 11
-97.5
 21
66.36500597000122
 31
0.0
  0
LINE
  5
472
330
1F
100
AcDbEntity
  8
19
  6
Continuous
 62
     6
370
    25
100
AcDbLine
 10
-97.5
 20
61.16250610351562
 30
0.0
 11
-97.5
 21
66.36500597000122
 31
0.0
  0
ARC
  5
473
330
1F
100
AcDbEntity
  8
19
  6
Continuous
 62
     6
370
    25
100
AcDbCircle
 10
-98.3125
 20
63.39250612258911
 30
0.0
 40
0.8125
100
AcDbArc
 50
0.0
 51
180.0000000000004
  0
CIRCLE
  5
474
330
1F
100
AcDbEntity
  8
19
  6
Continuous
 62
     6
370
    25
100
AcDbCircle
 10
-71.6875
 20
61.16250610351562
 30
0.0
 40
0.8125
  0
LINE
  5
475
330
1F
100
AcDbEntity
  8
19
  6
Continuous
 62
     6
370
    25
100
AcDbLine
 10
-72.5
 20
61.16250610351562
 30
0.0
 11
-72.5
 21
66.36500597000122
 31
0.0
  0
LINE
  5
476
330
1F
100
AcDbEntity
  8
19
  6
Continuous
 62
     6
370
    25
100
AcDbLine
 10
-72.5
 20
66.36500597000122
 30
0.0
 11
-70.875
 21
66.36500597000122
 31
0.0
  0
LINE
  5
477
330
1F
100
AcDbEntity
  8
19
  6
Continuous
 62
     6
370
    25
100
AcDbLine
 10
-70.875
 20
61.16250610351562
 30
0.0
 11
-70.875
 21
66.36500597000122
 31
0.0
  0
ARC
  5
478
330
1F
100
AcDbEntity
  8
19
  6
Continuous
 62
     6
370
    25
100
AcDbCircle
 10
-71.6875
 20
63.39250612258911
 30
0.0
 40
0.8125
100
AcDbArc
 50
0.0
 51
180.0000000000004
  0
CIRCLE
  5
479
330
1F
100
AcDbEntity
  8
19
  6
Continuous
 62
     6
370
    25
100
AcDbCircle
 10
-98.3125
 20
-30.46250152587891
 30
0.0
 40
0.8125
  0
LINE
  5
47A
330
1F
100
AcDbEntity
  8
19
  6
Continuous
 62
     6
370
    25
100
AcDbLine
 10
-99.125
 20
-35.6650013923645
 30
0.0
 11
-99.125
 21
-30.46250152587891
 31
0.0
  0
LINE
  5
47B
330
1F
100
AcDbEntity
  8
19
  6
Continuous
 62
     6
370
    25
100
AcDbLine
 10
-99.125
 20
-35.6650013923645
 30
0.0
 11
-97.5
 21
-35.6650013923645
 31
0.0
  0
LINE
  5
47C
330
1F
100
AcDbEntity
  8
19
  6
Continuous
 62
     6
370
    25
100
AcDbLine
 10
-97.5
 20
-35.6650013923645
 30
0.0
 11
-97.5
 21
-30.46250152587891
 31
0.0
  0
ARC
  5
47D
330
1F
100
AcDbEntity
  8
19
  6
Continuous
 62
     6
370
    25
100
AcDbCircle
 10
-98.3125
 20
-32.69250154495239
 30
0.0
 40
0.8125
100
AcDbArc
 50
180.0000000000004
 51
0.0000000000008142
  0
CIRCLE
  5
47E
330
1F
100
AcDbEntity
  8
19
  6
Continuous
 62
     6
370
    25
100
AcDbCircle
 10
-71.6875
 20
-30.46250152587891
 30
0.0
 40
0.8125
  0
LINE
  5
47F
330
1F
100
AcDbEntity
  8
19
  6
Continuous
 62
     6
370
    25
100
AcDbLine
 10
-72.5
 20
-35.6650013923645
 30
0.0
 11
-72.5
 21
-30.46250152587891
 31
0.0
  0
LINE
  5
480
330
1F
100
AcDbEntity
  8
19
  6
Continuous
 62
     6
370
    25
100
AcDbLine
 10
-72.5
 20
-35.6650013923645
 30
0.0
 11
-70.875
 21
-35.6650013923645
 31
0.0
  0
LINE
  5
481
330
1F
100
AcDbEntity
  8
19
  6
Continuous
 62
     6
370
    25
100
AcDbLine
 10
-70.875
 20
-35.6650013923645
 30
0.0
 11
-70.875
 21
-30.46250152587891
 31
0.0
  0
ARC
  5
482
330
1F
100
AcDbEntity
  8
19
  6
Continuous
 62
     6
370
    25
100
AcDbCircle
 10
-71.6875
 20
-32.69250154495239
 30
0.0
 40
0.8125
100
AcDbArc
 50
180.0000000000004
 51
0.0000000000008142
  0
LINE
  5
483
330
1F
100
AcDbEntity
  8
19
  6
Continuous
 62
     6
370
    25
100
AcDbLine
 10
-103.6875
 20
-72.8375015258789
 30
0.0
 11
-105.8125
 21
-72.8375015258789
 31
0.0
  0
LINE
  5
484
330
1F
100
AcDbEntity
  8
19
  6
Continuous
 62
     6
370
    25
100
AcDbLine
 10
-105.8125
 20
-72.8375015258789
 30
0.0
 11
-105.8125
 21
-79.8375015258789
 31
0.0
  0
LINE
  5
485
330
1F
100
AcDbEntity
  8
19
  6
Continuous
 62
     6
370
    25
100
AcDbLine
 10
-105.8125
 20
-79.8375015258789
 30
0.0
 11
-64.1875
 21
-79.8375015258789
 31
0.0
  0
LINE
  5
486
330
1F
100
AcDbEntity
  8
19
  6
Continuous
 62
     6
370
    25
100
AcDbLine
 10
-64.1875
 20
-79.8375015258789
 30
0.0
 11
-64.1875
 21
-72.8375015258789
 31
0.0
  0
LINE
  5
487
330
1F
100
AcDbEntity
  8
19
  6
Continuous
 62
     6
370
    25
100
AcDbLine
 10
-64.1875
 20
-72.8375015258789
 30
0.0
 11
-66.3125
 21
-72.8375015258789
 31
0.0
  0
LINE
  5
488
330
1F
100
AcDbEntity
  8
19
  6
Continuous
 62
     6
370
    25
100
AcDbLine
 10
-65.3125
 20
-72.8375015258789
 30
0.0
 11
-65.3125
 21
-79.0875015258789
 31
0.0
  0
LINE
  5
489
330
1F
100
AcDbEntity
  8
19
  6
Continuous
 62
     6
370
    25
100
AcDbLine
 10
-65.3125
 20
-79.0875015258789
 30
0.0
 11
-104.6875
 21
-79.0875015258789
 31
0.0
  0
LINE
  5
48A
330
1F
100
AcDbEntity
  8
19
  6
Continuous
 62
     6
370
    25
100
AcDbLine
 10
-104.6875
 20
-79.0875015258789
 30
0.0
 11
-104.6875
 21
-72.8375015258789
 31
0.0
  0
LINE
  5
48B
330
1F
100
AcDbEntity
  8
19
  6
Continuous
 62
     6
370
    25
100
AcDbLine
 10
-104.6875
 20
-79.0875015258789
 30
0.0
 11
-105.8125
 21
-79.0875015258789
 31
0.0
  0
LINE
  5
48C
330
1F
100
AcDbEntity
  8
19
  6
Continuous
 62
     6
370
    25
100
AcDbLine
 10
-65.3125
 20
-79.0875015258789
 30
0.0
 11
-64.1875
 21
-79.0875015258789
 31
0.0
  0
LINE
  5
48D
330
1F
100
AcDbEntity
  8
19
  6
Continuous
 62
     6
370
    25
100
AcDbLine
 10
-99.125
 20
-79.8375015258789
 30
0.0
 11
-99.125
 21
-87.47625160217285
 31
0.0
  0
ARC
  5
48E
330
1F
100
AcDbEntity
  8
19
  6
Continuous
 62
     6
370
    25
100
AcDbCircle
 10
-98.31250000000017
 20
-87.47625213321456
 30
0.0
 40
0.8125
100
AcDbArc
 50
180.0000000000004
 51
0.0000000000008142
  0
LINE
  5
48F
330
1F
100
AcDbEntity
  8
19
  6
Continuous
 62
     6
370
    25
100
AcDbLine
 10
-97.50000000000087
 20
-87.47625319529797
 30
0.0
 11
-97.50000000000087
 21
-79.83750311900403
 31
0.0
  0
LINE
  5
490
330
1F
100
AcDbEntity
  8
19
  6
Continuous
 62
     6
370
    25
100
AcDbLine
 10
-72.5
 20
-79.8375015258789
 30
0.0
 11
-72.5
 21
-87.47625160217285
 31
0.0
  0
ARC
  5
491
330
1F
100
AcDbEntity
  8
19
  6
Continuous
 62
     6
370
    25
100
AcDbCircle
 10
-71.68750000000017
 20
-87.47625213321456
 30
0.0
 40
0.8125
100
AcDbArc
 50
180.0000000000004
 51
0.0000000000008142
  0
LINE
  5
492
330
1F
100
AcDbEntity
  8
19
  6
Continuous
 62
     6
370
    25
100
AcDbLine
 10
-70.87500000000087
 20
-87.47625319529797
 30
0.0
 11
-70.87500000000087
 21
-79.83750311900403
 31
0.0
  0
LINE
  5
493
330
1F
100
AcDbEntity
  8
19
  6
Continuous
 62
     6
370
    25
100
AcDbLine
 10
-21.3125
 20
59.10000610351562
 30
0.0
 11
-21.3125
 21
60.35000610351562
 31
0.0
  0
LINE
  5
494
330
1F
100
AcDbEntity
  8
19
  6
Continuous
 62
     6
370
    25
100
AcDbLine
 10
-21.3125
 20
59.60000610351562
 30
0.0
 11
-21.3125
 21
60.35000610351562
 31
0.0
  0
LINE
  5
495
330
1F
100
AcDbEntity
  8
19
  6
Continuous
 62
     6
370
    25
100
AcDbLine
 10
-21.3125
 20
60.35000610351562
 30
0.0
 11
-14.3125
 21
60.35000610351562
 31
0.0
  0
LINE
  5
496
330
1F
100
AcDbEntity
  8
19
  6
Continuous
 62
     6
370
    25
100
AcDbLine
 10
-14.3125
 20
60.35000610351562
 30
0.0
 11
-14.3125
 21
52.85000610351562
 31
0.0
  0
LINE
  5
497
330
1F
100
AcDbEntity
  8
19
  6
Continuous
 62
     6
370
    25
100
AcDbLine
 10
-14.3125
 20
52.85000610351562
 30
0.0
 11
-15.0625
 21
52.85000610351562
 31
0.0
  0
LINE
  5
498
330
1F
100
AcDbEntity
  8
19
  6
Continuous
 62
     6
370
    25
100
AcDbLine
 10
-15.0625
 20
52.85000610351562
 30
0.0
 11
-15.0625
 21
59.60000610351562
 31
0.0
  0
LINE
  5
499
330
1F
100
AcDbEntity
  8
19
  6
Continuous
 62
     6
370
    25
100
AcDbLine
 10
-15.0625
 20
59.60000610351562
 30
0.0
 11
-21.3125
 21
59.60000610351562
 31
0.0
  0
LINE
  5
49A
330
1F
100
AcDbEntity
  8
19
  6
Continuous
 62
     6
370
    25
100
AcDbLine
 10
-21.3125
 20
-28.90000152587891
 30
0.0
 11
-21.3125
 21
-29.65000152587891
 31
0.0
  0
LINE
  5
49B
330
1F
100
AcDbEntity
  8
19
  6
Continuous
 62
     6
370
    25
100
AcDbLine
 10
-21.3125
 20
-29.65000152587891
 30
0.0
 11
-14.3125
 21
-29.65000152587891
 31
0.0
  0
LINE
  5
49C
330
1F
100
AcDbEntity
  8
19
  6
Continuous
 62
     6
370
    25
100
AcDbLine
 10
-14.3125
 20
-29.65000152587891
 30
0.0
 11
-14.3125
 21
-22.15000152587891
 31
0.0
  0
LINE
  5
49D
330
1F
100
AcDbEntity
  8
19
  6
Continuous
 62
     6
370
    25
100
AcDbLine
 10
-14.3125
 20
-22.15000152587891
 30
0.0
 11
-15.0625
 21
-22.15000152587891
 31
0.0
  0
LINE
  5
49E
330
1F
100
AcDbEntity
  8
19
  6
Continuous
 62
     6
370
    25
100
AcDbLine
 10
-15.0625
 20
-22.15000152587891
 30
0.0
 11
-15.0625
 21
-28.90000152587891
 31
0.0
  0
LINE
  5
49F
330
1F
100
AcDbEntity
  8
19
  6
Continuous
 62
     6
370
    25
100
AcDbLine
 10
-15.0625
 20
-28.90000152587891
 30
0.0
 11
-21.3125
 21
-28.90000152587891
 31
0.0
  0
LINE
  5
4A0
330
1F
100
AcDbEntity
  8
19
  6
Continuous
 62
     6
370
    25
100
AcDbLine
 10
-21.3125
 20
-28.90000152587891
 30
0.0
 11
-21.3125
 21
-27.65000152587891
 31
0.0
  0
LINE
  5
4A1
330
1F
100
AcDbEntity
  8
19
  6
Continuous
 62
     6
370
    25
100
AcDbLine
 10
-16.8125
 20
-29.65000152587891
 30
0.0
 11
-14.3125
 21
-29.65000152587891
 31
0.0
  0
LINE
  5
4A2
330
1F
100
AcDbEntity
  8
19
  6
Continuous
 62
     6
370
    25
100
AcDbLine
 10
-14.3125
 20
-29.65000152587891
 30
0.0
 11
-5.861249923706055
 21
-31.91500163078308
 31
0.0
  0
LINE
  5
4A3
330
1F
100
AcDbEntity
  8
19
  6
Continuous
 62
     6
370
    25
100
AcDbLine
 10
-5.861249923706055
 20
-35.66500163078308
 30
0.0
 11
-5.861249923706055
 21
-31.91500163078308
 31
0.0
  0
LINE
  5
4A4
330
1F
100
AcDbEntity
  8
19
  6
Continuous
 62
     6
370
    25
100
AcDbLine
 10
-7.486249923706055
 20
-35.66500163078308
 30
0.0
 11
-5.861249923706055
 21
-35.66500163078308
 31
0.0
  0
LINE
  5
4A5
330
1F
100
AcDbEntity
  8
19
  6
Continuous
 62
     6
370
    25
100
AcDbLine
 10
-7.486249923706055
 20
-35.66500163078308
 30
0.0
 11
-7.486249923706055
 21
-33.16250157356262
 31
0.0
  0
LINE
  5
4A6
330
1F
100
AcDbEntity
  8
19
  6
Continuous
 62
     6
370
    25
100
AcDbLine
 10
-7.486249923706055
 20
-33.16250157356262
 30
0.0
 11
-14.52750015258789
 21
-31.27625155448914
 31
0.0
  0
LINE
  5
4A7
330
1F
100
AcDbEntity
  8
19
  6
Continuous
 62
     6
370
    25
100
AcDbLine
 10
-16.81375026702881
 20
-31.27625155448914
 30
0.0
 11
-14.52750015258789
 21
-31.27625155448914
 31
0.0
  0
LINE
  5
4A8
330
1F
100
AcDbEntity
  8
19
  6
Continuous
 62
     6
370
    25
100
AcDbLine
 10
-16.81375026702881
 20
-31.27625155448914
 30
0.0
 11
-16.81375026702881
 21
-29.65125155448914
 31
0.0
  0
LINE
  5
4A9
330
1F
100
AcDbEntity
  8
19
  6
Continuous
 62
     6
370
    25
100
AcDbLine
 10
-16.8125
 20
60.35000610351562
 30
0.0
 11
-14.3125
 21
60.35000610351562
 31
0.0
  0
LINE
  5
4AA
330
1F
100
AcDbEntity
  8
19
  6
Continuous
 62
     6
370
    25
100
AcDbLine
 10
-14.3125
 20
60.35000610351562
 30
0.0
 11
-5.861249923706055
 21
62.6150062084198
 31
0.0
  0
LINE
  5
4AB
330
1F
100
AcDbEntity
  8
19
  6
Continuous
 62
     6
370
    25
100
AcDbLine
 10
-5.861249923706055
 20
62.6150062084198
 30
0.0
 11
-5.861249923706055
 21
66.3650062084198
 31
0.0
  0
LINE
  5
4AC
330
1F
100
AcDbEntity
  8
19
  6
Continuous
 62
     6
370
    25
100
AcDbLine
 10
-7.486249923706055
 20
66.3650062084198
 30
0.0
 11
-5.861249923706055
 21
66.3650062084198
 31
0.0
  0
LINE
  5
4AD
330
1F
100
AcDbEntity
  8
19
  6
Continuous
 62
     6
370
    25
100
AcDbLine
 10
-7.486249923706055
 20
63.86250615119934
 30
0.0
 11
-7.486249923706055
 21
66.3650062084198
 31
0.0
  0
LINE
  5
4AE
330
1F
100
AcDbEntity
  8
19
  6
Continuous
 62
     6
370
    25
100
AcDbLine
 10
-7.486249923706055
 20
63.86250615119934
 30
0.0
 11
-14.52750015258789
 21
61.97625613212585
 31
0.0
  0
LINE
  5
4AF
330
1F
100
AcDbEntity
  8
19
  6
Continuous
 62
     6
370
    25
100
AcDbLine
 10
-16.81375026702881
 20
61.97625613212585
 30
0.0
 11
-14.52750015258789
 21
61.97625613212585
 31
0.0
  0
LINE
  5
4B0
330
1F
100
AcDbEntity
  8
19
  6
Continuous
 62
     6
370
    25
100
AcDbLine
 10
-16.81375026702881
 20
60.35125613212585
 30
0.0
 11
-16.81375026702881
 21
61.97625613212585
 31
0.0
  0
LINE
  5
4B1
330
1F
100
AcDbEntity
  8
19
  6
Continuous
 62
     6
370
    25
100
AcDbLine
 10
-20.5625
 20
60.35000610351562
 30
0.0
 11
-20.5625
 21
64.35000610351562
 31
0.0
  0
LINE
  5
4B2
330
1F
100
AcDbEntity
  8
19
  6
Continuous
 62
     6
370
    25
100
AcDbLine
 10
-20.5625
 20
64.35000610351562
 30
0.0
 11
-17.8125
 21
64.35000610351562
 31
0.0
  0
LINE
  5
4B3
330
1F
100
AcDbEntity
  8
19
  6
Continuous
 62
     6
370
    25
100
AcDbLine
 10
-17.8125
 20
64.35000610351562
 30
0.0
 11
-17.8125
 21
60.35000610351562
 31
0.0
  0
LINE
  5
4B4
330
1F
100
AcDbEntity
  8
19
  6
Continuous
 62
     6
370
    25
100
AcDbLine
 10
-19.9375
 20
59.10000610351562
 30
0.0
 11
-19.9375
 21
59.60000610351562
 31
0.0
  0
LINE
  5
4B5
330
1F
100
AcDbEntity
  8
19
  6
Continuous
 62
     6
370
    25
100
AcDbLine
 10
-18.4375
 20
59.60000610351562
 30
0.0
 11
-18.4375
 21
59.10000610351562
 31
0.0
  0
LINE
  5
4B6
330
1F
100
AcDbEntity
  8
19
  6
Continuous
 62
     6
370
    25
100
AcDbLine
 10
-20.1875
 20
-29.65000152587891
 30
0.0
 11
-20.1875
 21
-30.15000152587891
 31
0.0
  0
LINE
  5
4B7
330
1F
100
AcDbEntity
  8
19
  6
Continuous
 62
     6
370
    25
100
AcDbLine
 10
-20.1875
 20
-30.15000152587891
 30
0.0
 11
-18.1875
 21
-30.15000152587891
 31
0.0
  0
LINE
  5
4B8
330
1F
100
AcDbEntity
  8
19
  6
Continuous
 62
     6
370
    25
100
AcDbLine
 10
-18.1875
 20
-30.15000152587891
 30
0.0
 11
-18.1875
 21
-29.65000152587891
 31
0.0
  0
LINE
  5
4B9
330
1F
100
AcDbEntity
  8
19
  6
Continuous
 62
     6
370
    25
100
AcDbLine
 10
-19.9375
 20
-28.40000152587891
 30
0.0
 11
-19.9375
 21
-28.90000152587891
 31
0.0
  0
LINE
  5
4BA
330
1F
100
AcDbEntity
  8
19
  6
Continuous
 62
     6
370
    25
100
AcDbLine
 10
-18.4375
 20
-28.90000152587891
 30
0.0
 11
-18.4375
 21
-28.40000152587891
 31
0.0
  0
LINE
  5
4BB
330
1F
100
AcDbEntity
  8
19
  6
CENTERX2
 62
     6
370
    25
100
AcDbLine
 10
-101.1875
 20
64.72500610351562
 30
0.0
 11
-101.1875
 21
56.22500610351562
 31
0.0
  0
LINE
  5
4BC
330
1F
100
AcDbEntity
  8
19
  6
CENTERX2
 62
     6
370
    25
100
AcDbLine
 10
-101.1875
 20
-30.52500152587891
 30
0.0
 11
-101.1875
 21
-25.52500152587891
 31
0.0
  0
LINE
  5
4BD
330
1F
100
AcDbEntity
  8
19
  6
CENTERX2
 62
     6
370
    25
100
AcDbLine
 10
-19.1875
 20
64.72500610351562
 30
0.0
 11
-19.1875
 21
56.22500610351562
 31
0.0
  0
LINE
  5
4BE
330
1F
100
AcDbEntity
  8
19
  6
CENTERX2
 62
     6
370
    25
100
AcDbLine
 10
-19.1875
 20
-30.52500152587891
 30
0.0
 11
-19.1875
 21
-25.52500152587891
 31
0.0
  0
LINE
  5
4BF
330
1F
100
AcDbEntity
  8
22
  6
Continuous
 62
     4
370
    25
100
AcDbLine
 10
-117.1875002011657
 20
30.91250568348914
 30
0.0
 11
-117.5875002071261
 21
29.4125056611374
 31
0.0
  0
LINE
  5
4C0
330
1F
100
AcDbEntity
  8
22
  6
Continuous
 62
     4
370
    25
100
AcDbLine
 10
-116.7875001952052
 20
29.4125056611374
 30
0.0
 11
-117.1875002011657
 21
30.91250568348914
 31
0.0
  0
LINE
  5
4C1
330
1F
100
AcDbEntity
  8
22
  6
Continuous
 62
     4
370
    25
100
AcDbLine
 10
-117.1875002011657
 20
30.91250568348914
 30
0.0
 11
-117.1875002011657
 21
0.912505236454308
 31
0.0
  0
LINE
  5
4C2
330
1F
100
AcDbEntity
  8
22
  6
Continuous
 62
     4
370
    25
100
AcDbLine
 10
-117.1875002011657
 20
0.912505236454308
 30
0.0
 11
-117.5875002071261
 21
2.41250525880605
 31
0.0
  0
LINE
  5
4C3
330
1F
100
AcDbEntity
  8
22
  6
Continuous
 62
     4
370
    25
100
AcDbLine
 10
-116.7875001952052
 20
2.41250525880605
 30
0.0
 11
-117.1875002011657
 21
0.912505236454308
 31
0.0
  0
LINE
  5
4C4
330
1F
100
AcDbEntity
  8
22
  6
Continuous
 62
     4
370
    25
100
AcDbLine
 10
-101.1875
 20
40.78750610351562
 30
0.0
 11
-100.8874999955297
 21
42.24750616341829
 31
0.0
  0
LINE
  5
4C5
330
1F
100
AcDbEntity
  8
22
  6
Continuous
 62
     4
370
    25
100
AcDbLine
 10
-101.1875
 20
40.78750610351562
 30
0.0
 11
-100.1874999850988
 21
41.8875061199069
 31
0.0
  0
LINE
  5
4C6
330
1F
100
AcDbEntity
  8
22
  6
Continuous
 62
     4
370
    25
100
AcDbLine
 10
-101.1875
 20
40.78750610351562
 30
0.0
 11
-77.71869929628372
 21
87.72500680293888
 31
0.0
  0
LINE
  5
4C7
330
1F
100
AcDbEntity
  8
22
  6
Continuous
 62
     4
370
    25
100
AcDbLine
 10
-77.71869929628372
 20
87.72500680293888
 30
0.0
 11
-29.71869858102798
 21
87.72500680293888
 31
0.0
  0
LINE
  5
4C8
330
1F
100
AcDbEntity
  8
22
  6
Continuous
 62
     4
370
    25
100
AcDbLine
 10
-93.71875
 20
47.03750610351562
 30
0.0
 11
-93.41874999552965
 21
48.49750616341829
 31
0.0
  0
LINE
  5
4C9
330
1F
100
AcDbEntity
  8
22
  6
Continuous
 62
     4
370
    25
100
AcDbLine
 10
-93.71875
 20
47.03750610351562
 30
0.0
 11
-92.71874998509884
 21
48.1375061199069
 31
0.0
  0
LINE
  5
4CA
330
1F
100
AcDbEntity
  8
22
  6
Continuous
 62
     4
370
    25
100
AcDbLine
 10
-93.71875
 20
47.03750610351562
 30
0.0
 11
-75.56255008345545
 21
83.35000664461404
 31
0.0
  0
LINE
  5
4CB
330
1F
100
AcDbEntity
  8
22
  6
Continuous
 62
     4
370
    25
100
AcDbLine
 10
-75.56255008345545
 20
83.35000664461404
 30
0.0
 11
-31.56254942780436
 21
83.35000664461404
 31
0.0
  0
LINE
  5
4CC
330
1F
100
AcDbEntity
  8
22
  6
Continuous
 62
     4
370
    25
100
AcDbLine
 10
-83.2562484741211
 20
59.10000610351562
 30
0.0
 11
-82.95624846965075
 21
60.56000616341829
 31
0.0
  0
LINE
  5
4CD
330
1F
100
AcDbEntity
  8
22
  6
Continuous
 62
     4
370
    25
100
AcDbLine
 10
-83.2562484741211
 20
59.10000610351562
 30
0.0
 11
-82.25624845921993
 21
60.2000061199069
 31
0.0
  0
LINE
  5
4CE
330
1F
100
AcDbEntity
  8
22
  6
Continuous
 62
     4
370
    25
100
AcDbLine
 10
-83.2562484741211
 20
59.10000610351562
 30
0.0
 11
-73.53749832930043
 21
78.53750639315695
 31
0.0
  0
LINE
  5
4CF
330
1F
100
AcDbEntity
  8
22
  6
Continuous
 62
     4
370
    25
100
AcDbLine
 10
-73.53749832930043
 20
78.53750639315695
 30
0.0
 11
-31.53749770345166
 21
78.53750639315695
 31
0.0
  0
LINE
  5
4D0
330
1F
100
AcDbEntity
  8
22
  6
Continuous
 62
     4
370
    25
100
AcDbLine
 10
-105.8125
 20
60.53750610351562
 30
0.0
 11
-105.8125
 21
72.53750628232956
 31
0.0
  0
LINE
  5
4D1
330
1F
100
AcDbEntity
  8
22
  6
Continuous
 62
     4
370
    25
100
AcDbLine
 10
-105.8125
 20
71.5375062674284
 30
0.0
 11
-107.3125000223517
 21
71.93750627338886
 31
0.0
  0
LINE
  5
4D2
330
1F
100
AcDbEntity
  8
22
  6
Continuous
 62
     4
370
    25
100
AcDbLine
 10
-107.3125000223517
 20
71.13750626146793
 30
0.0
 11
-105.8125
 21
71.5375062674284
 31
0.0
  0
LINE
  5
4D3
330
1F
100
AcDbEntity
  8
22
  6
Continuous
 62
     4
370
    25
100
AcDbLine
 10
-112.8125001043081
 20
71.5375062674284
 30
0.0
 11
-105.8125
 21
71.5375062674284
 31
0.0
  0
LINE
  5
4D4
330
1F
100
AcDbEntity
  8
22
  6
Continuous
 62
     4
370
    25
100
AcDbLine
 10
-105.8125
 20
71.5375062674284
 30
0.0
 11
-101.1874999310821
 21
71.5375062674284
 31
0.0
  0
LINE
  5
4D5
330
1F
100
AcDbEntity
  8
22
  6
Continuous
 62
     4
370
    25
100
AcDbLine
 10
-101.1874999310821
 20
71.5375062674284
 30
0.0
 11
-99.68749990873039
 21
71.93750627338886
 31
0.0
  0
LINE
  5
4D6
330
1F
100
AcDbEntity
  8
22
  6
Continuous
 62
     4
370
    25
100
AcDbLine
 10
-99.68749990873039
 20
71.13750626146793
 30
0.0
 11
-101.1874999310821
 21
71.5375062674284
 31
0.0
  0
LINE
  5
4D7
330
1F
100
AcDbEntity
  8
22
  6
Continuous
 62
     4
370
    25
100
AcDbLine
 10
-101.1874999310821
 20
71.5375062674284
 30
0.0
 11
-98.18749988637865
 21
71.5375062674284
 31
0.0
  0
LINE
  5
4D8
330
1F
100
AcDbEntity
  8
22
  6
Continuous
 62
     4
370
    25
100
AcDbLine
 10
-101.1874999310821
 20
64.85000287741423
 30
0.0
 11
-101.1874999310821
 21
72.53750628232956
 31
0.0
  0
LINE
  5
4D9
330
1F
100
AcDbEntity
  8
22
  6
Continuous
 62
     4
370
    25
100
AcDbLine
 10
-99.8125
 20
64.35000610351562
 30
0.0
 11
-99.51249999552965
 21
65.8100061634183
 31
0.0
  0
LINE
  5
4DA
330
1F
100
AcDbEntity
  8
22
  6
Continuous
 62
     4
370
    25
100
AcDbLine
 10
-99.8125
 20
64.35000610351562
 30
0.0
 11
-98.81249998509884
 21
65.4500061199069
 31
0.0
  0
LINE
  5
4DB
330
1F
100
AcDbEntity
  8
22
  6
Continuous
 62
     4
370
    25
100
AcDbLine
 10
-99.8125
 20
64.35000610351562
 30
0.0
 11
-92.09374988498166
 21
79.7875063335523
 31
0.0
  0
LINE
  5
4DC
330
1F
100
AcDbEntity
  8
22
  6
Continuous
 62
     4
370
    25
100
AcDbLine
 10
-104.0937500637956
 20
79.7875063335523
 30
0.0
 11
-92.09374988498166
 21
79.7875063335523
 31
0.0
  0
LINE
  5
4DD
330
1F
100
AcDbEntity
  8
22
  6
Continuous
 62
     4
370
    25
100
AcDbLine
 10
-85.0
 20
-72.3375015258789
 30
0.0
 11
-85.0
 21
-67.3375014513731
 31
0.0
  0
LINE
  5
4DE
330
1F
100
AcDbEntity
  8
22
  6
Continuous
 62
     4
370
    25
100
AcDbLine
 10
-85.0
 20
-68.33750146627426
 30
0.0
 11
-86.50000002235174
 21
-67.9375014603138
 31
0.0
  0
LINE
  5
4DF
330
1F
100
AcDbEntity
  8
22
  6
Continuous
 62
     4
370
    25
100
AcDbLine
 10
-86.50000002235174
 20
-68.73750147223473
 30
0.0
 11
-85.0
 21
-68.33750146627426
 31
0.0
  0
LINE
  5
4E0
330
1F
100
AcDbEntity
  8
22
  6
Continuous
 62
     4
370
    25
100
AcDbLine
 10
-85.0
 20
-68.33750146627426
 30
0.0
 11
-88.00000004470348
 21
-68.33750146627426
 31
0.0
  0
LINE
  5
4E1
330
1F
100
AcDbEntity
  8
22
  6
Continuous
 62
     4
370
    25
100
AcDbLine
 10
-85.0
 20
-68.33750146627426
 30
0.0
 11
-81.5124999480322
 21
-68.33750146627426
 31
0.0
  0
LINE
  5
4E2
330
1F
100
AcDbEntity
  8
22
  6
Continuous
 62
     4
370
    25
100
AcDbLine
 10
-81.5124999480322
 20
-68.33750146627426
 30
0.0
 11
-80.01249992568046
 21
-67.9375014603138
 31
0.0
  0
LINE
  5
4E3
330
1F
100
AcDbEntity
  8
22
  6
Continuous
 62
     4
370
    25
100
AcDbLine
 10
-80.01249992568046
 20
-68.73750147223473
 30
0.0
 11
-81.5124999480322
 21
-68.33750146627426
 31
0.0
  0
LINE
  5
4E4
330
1F
100
AcDbEntity
  8
22
  6
Continuous
 62
     4
370
    25
100
AcDbLine
 10
-81.5124999480322
 20
-68.33750146627426
 30
0.0
 11
-69.51249976921827
 21
-68.33750146627426
 31
0.0
  0
LINE
  5
4E5
330
1F
100
AcDbEntity
  8
22
  6
Continuous
 62
     4
370
    25
100
AcDbLine
 10
-81.5124999480322
 20
-67.3375014513731
 30
0.0
 11
-81.5124999480322
 21
-72.3375015258789
 31
0.0
  0
LINE
  5
4E6
330
1F
100
AcDbEntity
  8
22
  6
Continuous
 62
     4
370
    25
100
AcDbLine
 10
-105.8125
 20
-72.3375015258789
 30
0.0
 11
-105.8125
 21
-60.33750134706497
 31
0.0
  0
LINE
  5
4E7
330
1F
100
AcDbEntity
  8
22
  6
Continuous
 62
     4
370
    25
100
AcDbLine
 10
-105.8125
 20
-61.33750136196613
 30
0.0
 11
-107.3125000223517
 21
-60.93750135600567
 31
0.0
  0
LINE
  5
4E8
330
1F
100
AcDbEntity
  8
22
  6
Continuous
 62
     4
370
    25
100
AcDbLine
 10
-107.3125000223517
 20
-61.7375013679266
 30
0.0
 11
-105.8125
 21
-61.33750136196613
 31
0.0
  0
LINE
  5
4E9
330
1F
100
AcDbEntity
  8
22
  6
Continuous
 62
     4
370
    25
100
AcDbLine
 10
-112.8125001043081
 20
-61.33750136196613
 30
0.0
 11
-105.8125
 21
-61.33750136196613
 31
0.0
  0
LINE
  5
4EA
330
1F
100
AcDbEntity
  8
22
  6
Continuous
 62
     4
370
    25
100
AcDbLine
 10
-105.8125
 20
-61.33750136196613
 30
0.0
 11
-103.687499968335
 21
-61.33750136196613
 31
0.0
  0
LINE
  5
4EB
330
1F
100
AcDbEntity
  8
22
  6
Continuous
 62
     4
370
    25
100
AcDbLine
 10
-103.687499968335
 20
-72.3375015258789
 30
0.0
 11
-103.687499968335
 21
-60.33750134706497
 31
0.0
  0
LINE
  5
4EC
330
1F
100
AcDbEntity
  8
22
  6
Continuous
 62
     4
370
    25
100
AcDbLine
 10
-103.6875
 20
-61.33750136196613
 30
0.0
 11
-102.1874999776483
 21
-60.93750135600567
 31
0.0
  0
LINE
  5
4ED
330
1F
100
AcDbEntity
  8
22
  6
Continuous
 62
     4
370
    25
100
AcDbLine
 10
-102.1874999776483
 20
-61.7375013679266
 30
0.0
 11
-103.6875
 21
-61.33750136196613
 31
0.0
  0
LINE
  5
4EE
330
1F
100
AcDbEntity
  8
22
  6
Continuous
 62
     4
370
    25
100
AcDbLine
 10
-103.6875
 20
-61.33750136196613
 30
0.0
 11
-66.3124994430691
 21
-61.33750136196613
 31
0.0
  0
LINE
  5
4EF
330
1F
100
AcDbEntity
  8
22
  6
Continuous
 62
     4
370
    25
100
AcDbLine
 10
-66.3124994430691
 20
-61.33750136196613
 30
0.0
 11
-67.81249946542084
 21
-60.93750135600567
 31
0.0
  0
LINE
  5
4F0
330
1F
100
AcDbEntity
  8
22
  6
Continuous
 62
     4
370
    25
100
AcDbLine
 10
-67.81249946542084
 20
-61.7375013679266
 30
0.0
 11
-66.3124994430691
 21
-61.33750136196613
 31
0.0
  0
LINE
  5
4F1
330
1F
100
AcDbEntity
  8
22
  6
Continuous
 62
     4
370
    25
100
AcDbLine
 10
-66.3124994430691
 20
-72.3375015258789
 30
0.0
 11
-66.3124994430691
 21
-60.33750134706497
 31
0.0
  0
LINE
  5
4F2
330
1F
100
AcDbEntity
  8
22
  6
Continuous
 62
     4
370
    25
100
AcDbLine
 10
-66.3125
 20
-61.33750136196613
 30
0.0
 11
-64.18749996833503
 21
-61.33750136196613
 31
0.0
  0
LINE
  5
4F3
330
1F
100
AcDbEntity
  8
22
  6
Continuous
 62
     4
370
    25
100
AcDbLine
 10
-64.18749996833503
 20
-61.33750136196613
 30
0.0
 11
-62.68749994598329
 21
-60.93750135600567
 31
0.0
  0
LINE
  5
4F4
330
1F
100
AcDbEntity
  8
22
  6
Continuous
 62
     4
370
    25
100
AcDbLine
 10
-62.68749994598329
 20
-61.7375013679266
 30
0.0
 11
-64.18749996833503
 21
-61.33750136196613
 31
0.0
  0
LINE
  5
4F5
330
1F
100
AcDbEntity
  8
22
  6
Continuous
 62
     4
370
    25
100
AcDbLine
 10
-64.18749996833503
 20
-61.33750136196613
 30
0.0
 11
-57.1874998640269
 21
-61.33750136196613
 31
0.0
  0
LINE
  5
4F6
330
1F
100
AcDbEntity
  8
22
  6
Continuous
 62
     4
370
    25
100
AcDbLine
 10
-64.18749996833503
 20
-72.3375015258789
 30
0.0
 11
-64.18749996833503
 21
-60.33750134706497
 31
0.0
  0
LINE
  5
4F7
330
1F
100
AcDbEntity
  8
22
  6
Continuous
 62
     4
370
    25
100
AcDbLine
 10
-105.8125
 20
-72.3375015258789
 30
0.0
 11
-105.8125
 21
-53.33750124275684
 31
0.0
  0
LINE
  5
4F8
330
1F
100
AcDbEntity
  8
22
  6
Continuous
 62
     4
370
    25
100
AcDbLine
 10
-105.8125
 20
-54.337501257658
 30
0.0
 11
-104.3124999776483
 21
-53.93750125169754
 31
0.0
  0
LINE
  5
4F9
330
1F
100
AcDbEntity
  8
22
  6
Continuous
 62
     4
370
    25
100
AcDbLine
 10
-104.3124999776483
 20
-54.73750126361847
 30
0.0
 11
-105.8125
 21
-54.337501257658
 31
0.0
  0
LINE
  5
4FA
330
1F
100
AcDbEntity
  8
22
  6
Continuous
 62
     4
370
    25
100
AcDbLine
 10
-105.8125
 20
-54.337501257658
 30
0.0
 11
-64.18749937973917
 21
-54.337501257658
 31
0.0
  0
LINE
  5
4FB
330
1F
100
AcDbEntity
  8
22
  6
Continuous
 62
     4
370
    25
100
AcDbLine
 10
-64.18749937973917
 20
-54.337501257658
 30
0.0
 11
-65.6874994020909
 21
-53.93750125169754
 31
0.0
  0
LINE
  5
4FC
330
1F
100
AcDbEntity
  8
22
  6
Continuous
 62
     4
370
    25
100
AcDbLine
 10
-65.6874994020909
 20
-54.73750126361847
 30
0.0
 11
-64.18749937973917
 21
-54.337501257658
 31
0.0
  0
LINE
  5
4FD
330
1F
100
AcDbEntity
  8
22
  6
Continuous
 62
     4
370
    25
100
AcDbLine
 10
-64.18749937973917
 20
-72.3375015258789
 30
0.0
 11
-64.18749937973917
 21
-53.33750124275684
 31
0.0
  0
LINE
  5
4FE
330
1F
100
AcDbEntity
  8
22
  6
Continuous
 62
     4
370
    25
100
AcDbLine
 10
-105.8125
 20
-99.13750180602074
 30
0.0
 11
-105.8125
 21
-80.3375015258789
 31
0.0
  0
LINE
  5
4FF
330
1F
100
AcDbEntity
  8
22
  6
Continuous
 62
     4
370
    25
100
AcDbLine
 10
-105.8125
 20
-98.13750179111958
 30
0.0
 11
-107.3125000223517
 21
-97.73750178515911
 31
0.0
  0
LINE
  5
500
330
1F
100
AcDbEntity
  8
22
  6
Continuous
 62
     4
370
    25
100
AcDbLine
 10
-107.3125000223517
 20
-98.53750179708004
 30
0.0
 11
-105.8125
 21
-98.13750179111958
 31
0.0
  0
LINE
  5
501
330
1F
100
AcDbEntity
  8
22
  6
Continuous
 62
     4
370
    25
100
AcDbLine
 10
-110.3125000670552
 20
-98.13750179111958
 30
0.0
 11
-105.8125
 21
-98.13750179111958
 31
0.0
  0
LINE
  5
502
330
1F
100
AcDbEntity
  8
22
  6
Continuous
 62
     4
370
    25
100
AcDbLine
 10
-105.8125
 20
-98.13750179111958
 30
0.0
 11
-104.6874999832362
 21
-98.13750179111958
 31
0.0
  0
LINE
  5
503
330
1F
100
AcDbEntity
  8
22
  6
Continuous
 62
     4
370
    25
100
AcDbLine
 10
-104.6874999832362
 20
-99.13750180602074
 30
0.0
 11
-104.6874999832362
 21
-80.3375015258789
 31
0.0
  0
LINE
  5
504
330
1F
100
AcDbEntity
  8
22
  6
Continuous
 62
     4
370
    25
100
AcDbLine
 10
-104.6875
 20
-98.13750179111958
 30
0.0
 11
-103.1874999776483
 21
-97.73750178515911
 31
0.0
  0
LINE
  5
505
330
1F
100
AcDbEntity
  8
22
  6
Continuous
 62
     4
370
    25
100
AcDbLine
 10
-103.1874999776483
 20
-98.53750179708004
 30
0.0
 11
-104.6875
 21
-98.13750179111958
 31
0.0
  0
LINE
  5
506
330
1F
100
AcDbEntity
  8
22
  6
Continuous
 62
     4
370
    25
100
AcDbLine
 10
-104.6875
 20
-98.13750179111958
 30
0.0
 11
-65.31249941326678
 21
-98.13750179111958
 31
0.0
  0
LINE
  5
507
330
1F
100
AcDbEntity
  8
22
  6
Continuous
 62
     4
370
    25
100
AcDbLine
 10
-65.31249941326678
 20
-98.13750179111958
 30
0.0
 11
-66.81249943561852
 21
-97.73750178515911
 31
0.0
  0
LINE
  5
508
330
1F
100
AcDbEntity
  8
22
  6
Continuous
 62
     4
370
    25
100
AcDbLine
 10
-66.81249943561852
 20
-98.53750179708004
 30
0.0
 11
-65.31249941326678
 21
-98.13750179111958
 31
0.0
  0
LINE
  5
509
330
1F
100
AcDbEntity
  8
22
  6
Continuous
 62
     4
370
    25
100
AcDbLine
 10
-65.31249941326678
 20
-99.13750180602074
 30
0.0
 11
-65.31249941326678
 21
-80.3375015258789
 31
0.0
  0
LINE
  5
50A
330
1F
100
AcDbEntity
  8
22
  6
Continuous
 62
     4
370
    25
100
AcDbLine
 10
-65.3125
 20
-98.13750179111958
 30
0.0
 11
-64.1874999832362
 21
-98.13750179111958
 31
0.0
  0
LINE
  5
50B
330
1F
100
AcDbEntity
  8
22
  6
Continuous
 62
     4
370
    25
100
AcDbLine
 10
-64.1874999832362
 20
-98.13750179111958
 30
0.0
 11
-62.68749996088445
 21
-97.73750178515911
 31
0.0
  0
LINE
  5
50C
330
1F
100
AcDbEntity
  8
22
  6
Continuous
 62
     4
370
    25
100
AcDbLine
 10
-62.68749996088445
 20
-98.53750179708004
 30
0.0
 11
-64.1874999832362
 21
-98.13750179111958
 31
0.0
  0
LINE
  5
50D
330
1F
100
AcDbEntity
  8
22
  6
Continuous
 62
     4
370
    25
100
AcDbLine
 10
-64.1874999832362
 20
-98.13750179111958
 30
0.0
 11
-59.68749991618097
 21
-98.13750179111958
 31
0.0
  0
LINE
  5
50E
330
1F
100
AcDbEntity
  8
22
  6
Continuous
 62
     4
370
    25
100
AcDbLine
 10
-64.1874999832362
 20
-99.13750180602074
 30
0.0
 11
-64.1874999832362
 21
-80.3375015258789
 31
0.0
  0
LINE
  5
50F
330
1F
100
AcDbEntity
  8
22
  6
Continuous
 62
     4
370
    25
100
AcDbLine
 10
-64.1875
 20
-72.8375015258789
 30
0.0
 11
-63.88749999552965
 21
-71.37750146597624
 31
0.0
  0
LINE
  5
510
330
1F
100
AcDbEntity
  8
22
  6
Continuous
 62
     4
370
    25
100
AcDbLine
 10
-64.1875
 20
-72.8375015258789
 30
0.0
 11
-63.18749998509884
 21
-71.73750150948763
 31
0.0
  0
LINE
  5
511
330
1F
100
AcDbEntity
  8
22
  6
Continuous
 62
     4
370
    25
100
AcDbLine
 10
-64.1875
 20
-72.8375015258789
 30
0.0
 11
-61.18749995529652
 21
-66.83750143647194
 31
0.0
  0
LINE
  5
512
330
1F
100
AcDbEntity
  8
22
  6
Continuous
 62
     4
370
    25
100
AcDbLine
 10
-61.18749995529652
 20
-66.83750143647194
 30
0.0
 11
-45.18749971687794
 21
-66.83750143647194
 31
0.0
  0
LINE
  5
513
330
1F
100
AcDbEntity
  8
22
  6
Continuous
 62
     4
370
    25
100
AcDbLine
 10
-88.48750305175781
 20
-72.33750151842833
 30
0.0
 11
-88.78750305622816
 21
-70.87750145852566
 31
0.0
  0
LINE
  5
514
330
1F
100
AcDbEntity
  8
22
  6
Continuous
 62
     4
370
    25
100
AcDbLine
 10
-88.48750305175781
 20
-72.33750151842833
 30
0.0
 11
-89.48750306665897
 21
-71.23750150203705
 31
0.0
  0
LINE
  5
515
330
1F
100
AcDbEntity
  8
22
  6
Continuous
 62
     4
370
    25
100
AcDbLine
 10
-88.48750305175781
 20
-72.33750151842833
 30
0.0
 11
-93.48750312626362
 21
-62.33750136941671
 31
0.0
  0
LINE
  5
516
330
1F
100
AcDbEntity
  8
22
  6
Continuous
 62
     4
370
    25
100
AcDbLine
 10
-94.48750314116478
 20
-60.33750133961439
 30
0.0
 11
-96.98750317841768
 21
-55.33750126510859
 31
0.0
  0
LINE
  5
517
330
1F
100
AcDbEntity
  8
22
  6
Continuous
 62
     4
370
    25
100
AcDbLine
 10
-97.98750319331884
 20
-53.33750123530626
 30
0.0
 11
-100.4875032305717
 21
-48.33750116080046
 31
0.0
  0
LINE
  5
518
330
1F
100
AcDbEntity
  8
22
  6
Continuous
 62
     4
370
    25
100
AcDbLine
 10
-122.4875035583973
 20
-48.33750116080046
 30
0.0
 11
-100.4875032305717
 21
-48.33750116080046
 31
0.0
  0
LINE
  5
519
330
1F
100
AcDbEntity
  8
22
  6
Continuous
 62
     4
370
    25
100
AcDbLine
 10
-21.8125
 20
59.10000610351562
 30
0.0
 11
-26.81250007450581
 21
59.10000610351562
 31
0.0
  0
LINE
  5
51A
330
1F
100
AcDbEntity
  8
22
  6
Continuous
 62
     4
370
    25
100
AcDbLine
 10
-25.81250005960464
 20
59.10000610351562
 30
0.0
 11
-26.21250006556511
 21
57.60000608116388
 31
0.0
  0
LINE
  5
51B
330
1F
100
AcDbEntity
  8
22
  6
Continuous
 62
     4
370
    25
100
AcDbLine
 10
-25.41250005364418
 20
57.60000608116388
 30
0.0
 11
-25.81250005960464
 21
59.10000610351562
 31
0.0
  0
LINE
  5
51C
330
1F
100
AcDbEntity
  8
22
  6
Continuous
 62
     4
370
    25
100
AcDbLine
 10
-25.81250005960464
 20
59.10000610351562
 30
0.0
 11
-25.81250005960464
 21
46.60000591725111
 31
0.0
  0
LINE
  5
51D
330
1F
100
AcDbEntity
  8
22
  6
Continuous
 62
     4
370
    25
100
AcDbLine
 10
-25.81250005960464
 20
46.60000591725111
 30
0.0
 11
-26.21250006556511
 21
48.10000593960285
 31
0.0
  0
LINE
  5
51E
330
1F
100
AcDbEntity
  8
22
  6
Continuous
 62
     4
370
    25
100
AcDbLine
 10
-25.41250005364418
 20
48.10000593960285
 30
0.0
 11
-25.81250005960464
 21
46.60000591725111
 31
0.0
  0
LINE
  5
51F
330
1F
100
AcDbEntity
  8
22
  6
Continuous
 62
     4
370
    25
100
AcDbLine
 10
-26.81250007450581
 20
46.60000591725111
 30
0.0
 11
-21.8125
 21
46.60000591725111
 31
0.0
  0
LINE
  5
520
330
1F
100
AcDbEntity
  8
22
  6
Continuous
 62
     4
370
    25
100
AcDbLine
 10
-25.81250005960464
 20
46.60000610351562
 30
0.0
 11
-26.21250006556511
 21
45.10000608116388
 31
0.0
  0
LINE
  5
521
330
1F
100
AcDbEntity
  8
22
  6
Continuous
 62
     4
370
    25
100
AcDbLine
 10
-25.41250005364418
 20
45.10000608116388
 30
0.0
 11
-25.81250005960464
 21
46.60000610351562
 31
0.0
  0
LINE
  5
522
330
1F
100
AcDbEntity
  8
22
  6
Continuous
 62
     4
370
    25
100
AcDbLine
 10
-25.81250005960464
 20
46.60000610351562
 30
0.0
 11
-25.81250005960464
 21
34.10000591725111
 31
0.0
  0
LINE
  5
523
330
1F
100
AcDbEntity
  8
22
  6
Continuous
 62
     4
370
    25
100
AcDbLine
 10
-25.81250005960464
 20
34.10000591725111
 30
0.0
 11
-26.21250006556511
 21
35.60000593960285
 31
0.0
  0
LINE
  5
524
330
1F
100
AcDbEntity
  8
22
  6
Continuous
 62
     4
370
    25
100
AcDbLine
 10
-25.41250005364418
 20
35.60000593960285
 30
0.0
 11
-25.81250005960464
 21
34.10000591725111
 31
0.0
  0
LINE
  5
525
330
1F
100
AcDbEntity
  8
22
  6
Continuous
 62
     4
370
    25
100
AcDbLine
 10
-26.81250007450581
 20
34.10000591725111
 30
0.0
 11
-21.8125
 21
34.10000591725111
 31
0.0
  0
LINE
  5
526
330
1F
100
AcDbEntity
  8
22
  6
Continuous
 62
     4
370
    25
100
AcDbLine
 10
-21.8125
 20
60.35000610351562
 30
0.0
 11
-33.81250017881393
 21
60.35000610351562
 31
0.0
  0
LINE
  5
527
330
1F
100
AcDbEntity
  8
22
  6
Continuous
 62
     4
370
    25
100
AcDbLine
 10
-32.81250016391277
 20
60.35000610351562
 30
0.0
 11
-33.21250016987324
 21
61.85000612586737
 31
0.0
  0
LINE
  5
528
330
1F
100
AcDbEntity
  8
22
  6
Continuous
 62
     4
370
    25
100
AcDbLine
 10
-32.41250015795231
 20
61.85000612586737
 30
0.0
 11
-32.81250016391277
 21
60.35000610351562
 31
0.0
  0
LINE
  5
529
330
1F
100
AcDbEntity
  8
22
  6
Continuous
 62
     4
370
    25
100
AcDbLine
 10
-32.81250016391277
 20
60.35000610351562
 30
0.0
 11
-32.81250016391277
 21
67.35000620782375
 31
0.0
  0
LINE
  5
52A
330
1F
100
AcDbEntity
  8
22
  6
Continuous
 62
     4
370
    25
100
AcDbLine
 10
-32.81250016391277
 20
60.35000610351562
 30
0.0
 11
-32.81250016391277
 21
59.10000608488917
 31
0.0
  0
LINE
  5
52B
330
1F
100
AcDbEntity
  8
22
  6
Continuous
 62
     4
370
    25
100
AcDbLine
 10
-33.81250017881393
 20
59.10000608488917
 30
0.0
 11
-21.8125
 21
59.10000608488917
 31
0.0
  0
LINE
  5
52C
330
1F
100
AcDbEntity
  8
22
  6
Continuous
 62
     4
370
    25
100
AcDbLine
 10
-33.21250016987324
 20
57.60000608116388
 30
0.0
 11
-32.81250016391277
 21
59.10000610351562
 31
0.0
  0
LINE
  5
52D
330
1F
100
AcDbEntity
  8
22
  6
Continuous
 62
     4
370
    25
100
AcDbLine
 10
-32.41250015795231
 20
57.60000608116388
 30
0.0
 11
-32.81250016391277
 21
59.10000610351562
 31
0.0
  0
LINE
  5
52E
330
1F
100
AcDbEntity
  8
22
  6
Continuous
 62
     4
370
    25
100
AcDbLine
 10
-32.81250016391277
 20
-28.39999520033598
 30
0.0
 11
-32.81250016391277
 21
59.10000610351562
 31
0.0
  0
LINE
  5
52F
330
1F
100
AcDbEntity
  8
22
  6
Continuous
 62
     4
370
    25
100
AcDbLine
 10
-32.81250016391277
 20
-28.39999520033598
 30
0.0
 11
-33.21250016987324
 21
-26.89999517798424
 31
0.0
  0
LINE
  5
530
330
1F
100
AcDbEntity
  8
22
  6
Continuous
 62
     4
370
    25
100
AcDbLine
 10
-32.81250016391277
 20
-28.39999520033598
 30
0.0
 11
-32.41250015795231
 21
-26.89999517798424
 31
0.0
  0
LINE
  5
531
330
1F
100
AcDbEntity
  8
22
  6
Continuous
 62
     4
370
    25
100
AcDbLine
 10
-33.81250017881393
 20
-28.39999520033598
 30
0.0
 11
-21.8125
 21
-28.39999520033598
 31
0.0
  0
LINE
  5
532
330
1F
100
AcDbEntity
  8
22
  6
Continuous
 62
     4
370
    25
100
AcDbLine
 10
-32.81250016391277
 20
-29.65000154450536
 30
0.0
 11
-32.81250016391277
 21
-28.40000152587891
 31
0.0
  0
LINE
  5
533
330
1F
100
AcDbEntity
  8
22
  6
Continuous
 62
     4
370
    25
100
AcDbLine
 10
-33.21250016987324
 20
-31.1500015668571
 30
0.0
 11
-32.81250016391277
 21
-29.65000154450536
 31
0.0
  0
LINE
  5
534
330
1F
100
AcDbEntity
  8
22
  6
Continuous
 62
     4
370
    25
100
AcDbLine
 10
-32.41250015795231
 20
-31.1500015668571
 30
0.0
 11
-32.81250016391277
 21
-29.65000154450536
 31
0.0
  0
LINE
  5
535
330
1F
100
AcDbEntity
  8
22
  6
Continuous
 62
     4
370
    25
100
AcDbLine
 10
-32.81250016391277
 20
-36.65000164881349
 30
0.0
 11
-32.81250016391277
 21
-29.65000154450536
 31
0.0
  0
LINE
  5
536
330
1F
100
AcDbEntity
  8
22
  6
Continuous
 62
     4
370
    25
100
AcDbLine
 10
-33.81250017881393
 20
-29.65000154450536
 30
0.0
 11
-21.8125
 21
-29.65000154450536
 31
0.0
  0
LINE
  5
537
330
1F
100
AcDbEntity
  8
22
  6
Continuous
 62
     4
370
    25
100
AcDbLine
 10
-40.81250028312206
 20
60.35000610351562
 30
0.0
 11
-21.8125
 21
60.35000610351562
 31
0.0
  0
LINE
  5
538
330
1F
100
AcDbEntity
  8
22
  6
Continuous
 62
     4
370
    25
100
AcDbLine
 10
-40.21250027418137
 20
58.85000608116388
 30
0.0
 11
-39.8125002682209
 21
60.35000610351562
 31
0.0
  0
LINE
  5
539
330
1F
100
AcDbEntity
  8
22
  6
Continuous
 62
     4
370
    25
100
AcDbLine
 10
-39.41250026226044
 20
58.85000608116388
 30
0.0
 11
-39.8125002682209
 21
60.35000610351562
 31
0.0
  0
LINE
  5
53A
330
1F
100
AcDbEntity
  8
22
  6
Continuous
 62
     4
370
    25
100
AcDbLine
 10
-39.8125002682209
 20
-29.64999523758888
 30
0.0
 11
-39.8125002682209
 21
60.35000610351562
 31
0.0
  0
LINE
  5
53B
330
1F
100
AcDbEntity
  8
22
  6
Continuous
 62
     4
370
    25
100
AcDbLine
 10
-39.8125002682209
 20
-29.64999523758888
 30
0.0
 11
-40.21250027418137
 21
-28.14999521523714
 31
0.0
  0
LINE
  5
53C
330
1F
100
AcDbEntity
  8
22
  6
Continuous
 62
     4
370
    25
100
AcDbLine
 10
-39.8125002682209
 20
-29.64999523758888
 30
0.0
 11
-39.41250026226044
 21
-28.14999521523714
 31
0.0
  0
LINE
  5
53D
330
1F
100
AcDbEntity
  8
22
  6
Continuous
 62
     4
370
    25
100
AcDbLine
 10
-40.81250028312206
 20
-29.64999523758888
 30
0.0
 11
-21.8125
 21
-29.64999523758888
 31
0.0
  0
LINE
  5
53E
330
1F
100
AcDbEntity
  8
22
  6
Continuous
 62
     4
370
    25
100
AcDbLine
 10
-13.3125
 20
60.35000610351562
 30
0.0
 11
5.48750028014183
 21
60.35000610351562
 31
0.0
  0
LINE
  5
53F
330
1F
100
AcDbEntity
  8
22
  6
Continuous
 62
     4
370
    25
100
AcDbLine
 10
4.087500259280205
 20
58.85000608116388
 30
0.0
 11
4.487500265240669
 21
60.35000610351562
 31
0.0
  0
LINE
  5
540
330
1F
100
AcDbEntity
  8
22
  6
Continuous
 62
     4
370
    25
100
AcDbLine
 10
4.887500271201134
 20
58.85000608116388
 30
0.0
 11
4.487500265240669
 21
60.35000610351562
 31
0.0
  0
LINE
  5
541
330
1F
100
AcDbEntity
  8
22
  6
Continuous
 62
     4
370
    25
100
AcDbLine
 10
4.487500265240669
 20
52.85000599175692
 30
0.0
 11
4.487500265240669
 21
60.35000610351562
 31
0.0
  0
LINE
  5
542
330
1F
100
AcDbEntity
  8
22
  6
Continuous
 62
     4
370
    25
100
AcDbLine
 10
4.487500265240669
 20
52.85000599175692
 30
0.0
 11
4.087500259280205
 21
54.35000601410866
 31
0.0
  0
LINE
  5
543
330
1F
100
AcDbEntity
  8
22
  6
Continuous
 62
     4
370
    25
100
AcDbLine
 10
4.487500265240669
 20
52.85000599175692
 30
0.0
 11
4.887500271201134
 21
54.35000601410866
 31
0.0
  0
LINE
  5
544
330
1F
100
AcDbEntity
  8
22
  6
Continuous
 62
     4
370
    25
100
AcDbLine
 10
-13.3125
 20
52.85000599175692
 30
0.0
 11
5.48750028014183
 21
52.85000599175692
 31
0.0
  0
LINE
  5
545
330
1F
100
AcDbEntity
  8
22
  6
Continuous
 62
     4
370
    25
100
AcDbLine
 10
4.087500259280205
 20
51.35000608116388
 30
0.0
 11
4.487500265240669
 21
52.85000610351562
 31
0.0
  0
LINE
  5
546
330
1F
100
AcDbEntity
  8
22
  6
Continuous
 62
     4
370
    25
100
AcDbLine
 10
4.887500271201134
 20
51.35000608116388
 30
0.0
 11
4.487500265240669
 21
52.85000610351562
 31
0.0
  0
LINE
  5
547
330
1F
100
AcDbEntity
  8
22
  6
Continuous
 62
     4
370
    25
100
AcDbLine
 10
4.487500265240669
 20
-22.14999501407146
 30
0.0
 11
4.487500265240669
 21
52.85000610351562
 31
0.0
  0
LINE
  5
548
330
1F
100
AcDbEntity
  8
22
  6
Continuous
 62
     4
370
    25
100
AcDbLine
 10
4.487500265240669
 20
-22.14999501407146
 30
0.0
 11
4.087500259280205
 21
-20.64999499171972
 31
0.0
  0
LINE
  5
549
330
1F
100
AcDbEntity
  8
22
  6
Continuous
 62
     4
370
    25
100
AcDbLine
 10
4.487500265240669
 20
-22.14999501407146
 30
0.0
 11
4.887500271201134
 21
-20.64999499171972
 31
0.0
  0
LINE
  5
54A
330
1F
100
AcDbEntity
  8
22
  6
Continuous
 62
     4
370
    25
100
AcDbLine
 10
-13.3125
 20
-22.14999501407146
 30
0.0
 11
5.48750028014183
 21
-22.14999501407146
 31
0.0
  0
LINE
  5
54B
330
1F
100
AcDbEntity
  8
22
  6
Continuous
 62
     4
370
    25
100
AcDbLine
 10
4.087500259280205
 20
-23.65000154823065
 30
0.0
 11
4.487500265240669
 21
-22.15000152587891
 31
0.0
  0
LINE
  5
54C
330
1F
100
AcDbEntity
  8
22
  6
Continuous
 62
     4
370
    25
100
AcDbLine
 10
4.887500271201134
 20
-23.65000154823065
 30
0.0
 11
4.487500265240669
 21
-22.15000152587891
 31
0.0
  0
LINE
  5
54D
330
1F
100
AcDbEntity
  8
22
  6
Continuous
 62
     4
370
    25
100
AcDbLine
 10
4.487500265240669
 20
-29.65000163763761
 30
0.0
 11
4.487500265240669
 21
-22.15000152587891
 31
0.0
  0
LINE
  5
54E
330
1F
100
AcDbEntity
  8
22
  6
Continuous
 62
     4
370
    25
100
AcDbLine
 10
4.487500265240669
 20
-29.65000163763761
 30
0.0
 11
4.087500259280205
 21
-28.15000161528587
 31
0.0
  0
LINE
  5
54F
330
1F
100
AcDbEntity
  8
22
  6
Continuous
 62
     4
370
    25
100
AcDbLine
 10
4.487500265240669
 20
-29.65000163763761
 30
0.0
 11
4.887500271201134
 21
-28.15000161528587
 31
0.0
  0
LINE
  5
550
330
1F
100
AcDbEntity
  8
22
  6
Continuous
 62
     4
370
    25
100
AcDbLine
 10
-13.3125
 20
-29.65000163763761
 30
0.0
 11
5.48750028014183
 21
-29.65000163763761
 31
0.0
  0
LINE
  5
551
330
1F
100
AcDbEntity
  8
22
  6
Continuous
 62
     4
370
    25
100
AcDbLine
 10
-5.8125
 20
66.35000610351562
 30
0.0
 11
-5.512499995529652
 21
67.8100061634183
 31
0.0
  0
LINE
  5
552
330
1F
100
AcDbEntity
  8
22
  6
Continuous
 62
     4
370
    25
100
AcDbLine
 10
-5.8125
 20
66.35000610351562
 30
0.0
 11
-4.812499985098839
 21
67.4500061199069
 31
0.0
  0
LINE
  5
553
330
1F
100
AcDbEntity
  8
22
  6
Continuous
 62
     4
370
    25
100
AcDbLine
 10
-5.8125
 20
66.35000610351562
 30
0.0
 11
1.187500104308128
 21
80.35000631213188
 31
0.0
  0
LINE
  5
554
330
1F
100
AcDbEntity
  8
22
  6
Continuous
 62
     4
370
    25
100
AcDbLine
 10
-14.81250013411045
 20
80.35000631213188
 30
0.0
 11
1.187500104308128
 21
80.35000631213188
 31
0.0
  0
LINE
  5
555
330
1F
100
AcDbEntity
  8
22
  6
Continuous
 62
     4
370
    25
100
AcDbLine
 10
-21.3125
 20
-46.15000176429748
 30
0.0
 11
-21.3125
 21
-30.15000152587891
 31
0.0
  0
LINE
  5
556
330
1F
100
AcDbEntity
  8
22
  6
Continuous
 62
     4
370
    25
100
AcDbLine
 10
-21.3125
 20
-45.15000174939632
 30
0.0
 11
-22.81250002235174
 21
-44.75000174343586
 31
0.0
  0
LINE
  5
557
330
1F
100
AcDbEntity
  8
22
  6
Continuous
 62
     4
370
    25
100
AcDbLine
 10
-22.81250002235174
 20
-45.55000175535679
 30
0.0
 11
-21.3125
 21
-45.15000174939632
 31
0.0
  0
LINE
  5
558
330
1F
100
AcDbEntity
  8
22
  6
Continuous
 62
     4
370
    25
100
AcDbLine
 10
-28.31250010430813
 20
-45.15000174939632
 30
0.0
 11
-21.3125
 21
-45.15000174939632
 31
0.0
  0
LINE
  5
559
330
1F
100
AcDbEntity
  8
22
  6
Continuous
 62
     4
370
    25
100
AcDbLine
 10
-21.3125
 20
-45.15000174939632
 30
0.0
 11
-15.06249990686774
 21
-45.15000174939632
 31
0.0
  0
LINE
  5
55A
330
1F
100
AcDbEntity
  8
22
  6
Continuous
 62
     4
370
    25
100
AcDbLine
 10
-15.06249990686774
 20
-45.15000174939632
 30
0.0
 11
-13.562499884516
 21
-44.75000174343586
 31
0.0
  0
LINE
  5
55B
330
1F
100
AcDbEntity
  8
22
  6
Continuous
 62
     4
370
    25
100
AcDbLine
 10
-13.562499884516
 20
-45.55000175535679
 30
0.0
 11
-15.06249990686774
 21
-45.15000174939632
 31
0.0
  0
LINE
  5
55C
330
1F
100
AcDbEntity
  8
22
  6
Continuous
 62
     4
370
    25
100
AcDbLine
 10
-15.06249990686774
 20
-45.15000174939632
 30
0.0
 11
-12.06249986216426
 21
-45.15000174939632
 31
0.0
  0
LINE
  5
55D
330
1F
100
AcDbEntity
  8
22
  6
Continuous
 62
     4
370
    25
100
AcDbLine
 10
-15.06249990686774
 20
-46.15000176429748
 30
0.0
 11
-15.06249990686774
 21
-31.57499855943024
 31
0.0
  0
LINE
  5
55E
330
1F
100
AcDbEntity
  8
22
  6
Continuous
 62
     4
370
    25
100
AcDbLine
 10
-21.3125
 20
-53.15000186860561
 30
0.0
 11
-21.3125
 21
-30.15000152587891
 31
0.0
  0
LINE
  5
55F
330
1F
100
AcDbEntity
  8
22
  6
Continuous
 62
     4
370
    25
100
AcDbLine
 10
-21.3125
 20
-52.15000185370445
 30
0.0
 11
-19.81249997764826
 21
-51.75000184774399
 31
0.0
  0
LINE
  5
560
330
1F
100
AcDbEntity
  8
22
  6
Continuous
 62
     4
370
    25
100
AcDbLine
 10
-19.81249997764826
 20
-52.55000185966492
 30
0.0
 11
-21.3125
 21
-52.15000185370445
 31
0.0
  0
LINE
  5
561
330
1F
100
AcDbEntity
  8
22
  6
Continuous
 62
     4
370
    25
100
AcDbLine
 10
-21.3125
 20
-52.15000185370445
 30
0.0
 11
-14.31249989569187
 21
-52.15000185370445
 31
0.0
  0
LINE
  5
562
330
1F
100
AcDbEntity
  8
22
  6
Continuous
 62
     4
370
    25
100
AcDbLine
 10
-14.31249989569187
 20
-52.15000185370445
 30
0.0
 11
-15.81249991804361
 21
-51.75000184774399
 31
0.0
  0
LINE
  5
563
330
1F
100
AcDbEntity
  8
22
  6
Continuous
 62
     4
370
    25
100
AcDbLine
 10
-15.81249991804361
 20
-52.55000185966492
 30
0.0
 11
-14.31249989569187
 21
-52.15000185370445
 31
0.0
  0
LINE
  5
564
330
1F
100
AcDbEntity
  8
22
  6
Continuous
 62
     4
370
    25
100
AcDbLine
 10
-14.31249989569187
 20
-53.15000186860561
 30
0.0
 11
-14.31249989569187
 21
-46.14999877661467
 31
0.0
  0
LINE
  5
565
330
1F
100
AcDbEntity
  8
22
  6
Continuous
 62
     4
370
    25
100
AcDbLine
 10
-14.31249989569187
 20
-44.14999874681234
 30
0.0
 11
-14.31249989569187
 21
-31.57499855943024
 31
0.0
  0
LINE
  5
566
330
1F
100
AcDbEntity
  8
22
  6
Continuous
 62
     4
370
    25
100
AcDbLine
 10
-21.3125
 20
60.85000610351562
 30
0.0
 11
-21.3125
 21
71.8500062674284
 31
0.0
  0
LINE
  5
567
330
1F
100
AcDbEntity
  8
22
  6
Continuous
 62
     4
370
    25
100
AcDbLine
 10
-21.3125
 20
70.85000625252724
 30
0.0
 11
-22.81250002235174
 21
71.2500062584877
 31
0.0
  0
LINE
  5
568
330
1F
100
AcDbEntity
  8
22
  6
Continuous
 62
     4
370
    25
100
AcDbLine
 10
-22.81250002235174
 20
70.45000624656677
 30
0.0
 11
-21.3125
 21
70.85000625252724
 31
0.0
  0
LINE
  5
569
330
1F
100
AcDbEntity
  8
22
  6
Continuous
 62
     4
370
    25
100
AcDbLine
 10
-28.31250010430813
 20
70.85000625252724
 30
0.0
 11
-21.3125
 21
70.85000625252724
 31
0.0
  0
LINE
  5
56A
330
1F
100
AcDbEntity
  8
22
  6
Continuous
 62
     4
370
    25
100
AcDbLine
 10
-21.3125
 20
70.85000625252724
 30
0.0
 11
-19.18749996833503
 21
70.85000625252724
 31
0.0
  0
LINE
  5
56B
330
1F
100
AcDbEntity
  8
22
  6
Continuous
 62
     4
370
    25
100
AcDbLine
 10
-19.18749996833503
 20
70.85000625252724
 30
0.0
 11
-17.68749994598329
 21
71.2500062584877
 31
0.0
  0
LINE
  5
56C
330
1F
100
AcDbEntity
  8
22
  6
Continuous
 62
     4
370
    25
100
AcDbLine
 10
-17.68749994598329
 20
70.45000624656677
 30
0.0
 11
-19.18749996833503
 21
70.85000625252724
 31
0.0
  0
LINE
  5
56D
330
1F
100
AcDbEntity
  8
22
  6
Continuous
 62
     4
370
    25
100
AcDbLine
 10
-19.18749996833503
 20
70.85000625252724
 30
0.0
 11
-16.18749992363155
 21
70.85000625252724
 31
0.0
  0
LINE
  5
56E
330
1F
100
AcDbEntity
  8
22
  6
Continuous
 62
     4
370
    25
100
AcDbLine
 10
-19.18749996833503
 20
64.85000287741423
 30
0.0
 11
-19.18749996833503
 21
71.8500062674284
 31
0.0
  0
LINE
  5
56F
330
1F
100
AcDbEntity
  8
22
  6
Continuous
 62
     4
370
    25
100
AcDbLine
 10
-23.11250002682209
 20
-30.95000154525042
 30
0.0
 11
-21.81250000745058
 21
-30.15000153332949
 31
0.0
  0
LINE
  5
570
330
1F
100
AcDbEntity
  8
22
  6
Continuous
 62
     4
370
    25
100
AcDbLine
 10
-22.61250001937151
 20
-31.450001552701
 30
0.0
 11
-21.81250000745058
 21
-30.15000153332949
 31
0.0
  0
LINE
  5
571
330
1F
100
AcDbEntity
  8
22
  6
Continuous
 62
     4
370
    25
100
AcDbLine
 10
-36.812500230968
 20
-45.1500017568469
 30
0.0
 11
-21.81250000745058
 21
-30.15000153332949
 31
0.0
  0
LINE
  5
572
330
1F
100
AcDbEntity
  8
22
  6
Continuous
 62
     4
370
    25
100
AcDbLine
 10
-56.81250052899122
 20
-45.1500017568469
 30
0.0
 11
-36.812500230968
 21
-45.1500017568469
 31
0.0
  0
LINE
  5
573
330
1F
100
AcDbEntity
  8
22
  6
Continuous
 62
     4
370
    25
100
AcDbLine
 10
92.40000408887863
 20
94.85000332444906
 30
0.0
 11
87.40000401437283
 21
94.85000332444906
 31
0.0
  0
LINE
  5
574
330
1F
100
AcDbEntity
  8
22
  6
Continuous
 62
     4
370
    25
100
AcDbLine
 10
87.40000401437283
 20
94.85000332444906
 30
0.0
 11
87.40000401437283
 21
90.85000326484442
 31
0.0
  0
LINE
  5
575
330
1F
100
AcDbEntity
  8
22
  6
Continuous
 62
     4
370
    25
100
AcDbLine
 10
87.40000401437283
 20
90.85000326484442
 30
0.0
 11
145.4000048786402
 21
90.85000326484442
 31
0.0
  0
LINE
  5
576
330
1F
100
AcDbEntity
  8
22
  6
Continuous
 62
     4
370
    25
100
AcDbLine
 10
145.4000048786402
 20
90.85000326484442
 30
0.0
 11
145.4000048786402
 21
94.85000332444906
 31
0.0
  0
LINE
  5
577
330
1F
100
AcDbEntity
  8
22
  6
Continuous
 62
     4
370
    25
100
AcDbLine
 10
145.4000048786402
 20
94.85000332444906
 30
0.0
 11
140.4000048041344
 21
94.85000332444906
 31
0.0
  0
LINE
  5
578
330
1F
100
AcDbEntity
  8
22
  6
Continuous
 62
     4
370
    25
100
AcDbLine
 10
69.40000374615192
 20
21.35000222921371
 30
0.0
 11
68.40000373125076
 21
21.35000222921371
 31
0.0
  0
LINE
  5
579
330
1F
100
AcDbEntity
  8
22
  6
Continuous
 62
     4
370
    25
100
AcDbLine
 10
68.40000373125076
 20
21.35000222921371
 30
0.0
 11
68.40000373125076
 21
18.85000219196081
 31
0.0
  0
LINE
  5
57A
330
1F
100
AcDbEntity
  8
22
  6
Continuous
 62
     4
370
    25
100
AcDbLine
 10
68.40000373125076
 20
18.85000219196081
 30
0.0
 11
82.40000393986702
 21
18.85000219196081
 31
0.0
  0
LINE
  5
57B
330
1F
100
AcDbEntity
  8
22
  6
Continuous
 62
     4
370
    25
100
AcDbLine
 10
82.40000393986702
 20
18.85000219196081
 30
0.0
 11
82.40000393986702
 21
21.35000222921371
 31
0.0
  0
LINE
  5
57C
330
1F
100
AcDbEntity
  8
22
  6
Continuous
 62
     4
370
    25
100
AcDbLine
 10
82.40000393986702
 20
21.35000222921371
 30
0.0
 11
81.40000392496586
 21
21.35000222921371
 31
0.0
  0
LINE
  5
57D
330
1F
100
AcDbEntity
  8
22
  6
Continuous
 62
     4
370
    25
100
AcDbLine
 10
80.4000039100647
 20
11.3500020802021
 30
0.0
 11
94.40000411868095
 21
11.3500020802021
 31
0.0
  0
LINE
  5
57E
330
1F
100
AcDbEntity
  8
22
  6
Continuous
 62
     4
370
    25
100
AcDbLine
 10
99.90000420063734
 20
11.3500020802021
 30
0.0
 11
129.9000046476722
 21
11.3500020802021
 31
0.0
  0
LINE
  5
57F
330
1F
100
AcDbEntity
  8
22
  6
Continuous
 62
     4
370
    25
100
AcDbLine
 10
83.40000395476818
 20
-60.14999898523092
 30
0.0
 11
131.4000046700239
 21
-60.14999898523092
 31
0.0
  0
ARC
  5
580
330
1F
100
AcDbEntity
  8
22
  6
Continuous
 62
     4
370
    25
100
AcDbCircle
 10
60.40000361204147
 20
101.8500034287572
 30
0.0
 40
5.000000074505806
100
AcDbArc
 50
270.0000000000006
 51
0.0000000000008142
  0
LINE
  5
581
330
1F
100
AcDbEntity
  8
22
  6
Continuous
 62
     4
370
    25
100
AcDbLine
 10
60.40000524601598
 20
96.85000335425165
 30
0.0
 11
60.40000361204147
 21
-58.1499989554286
 31
0.0
  0
ARC
  5
582
330
1F
100
AcDbEntity
  8
22
  6
Continuous
 62
     4
370
    25
100
AcDbCircle
 10
60.40000197806696
 20
-63.14999902993414
 30
0.0
 40
5.000000074505806
100
AcDbArc
 50
0.0
 51
90.0000000000002
  0
LINE
  5
583
330
1F
100
AcDbEntity
  8
22
  6
Continuous
 62
     4
370
    25
100
AcDbLine
 10
65.40000205257277
 20
-63.14999902993414
 30
0.0
 11
165.4000051766634
 21
-63.14999902993441
 31
0.0
  0
ARC
  5
584
330
1F
100
AcDbEntity
  8
22
  6
Continuous
 62
     4
370
    25
100
AcDbCircle
 10
170.4000052511681
 20
-63.15000229788342
 30
0.0
 40
5.000000074505806
100
AcDbArc
 50
90.0000000000002
 51
180.0000000000004
  0
LINE
  5
585
330
1F
100
AcDbEntity
  8
22
  6
Continuous
 62
     4
370
    25
100
AcDbLine
 10
170.4000068851426
 20
-58.15000222337788
 30
0.0
 11
170.4000052511692
 21
96.85000335425138
 31
0.0
  0
ARC
  5
586
330
1F
100
AcDbEntity
  8
22
  6
Continuous
 62
     4
370
    25
100
AcDbCircle
 10
170.4000101530927
 20
101.8500034287548
 30
0.0
 40
5.000000074505806
100
AcDbArc
 50
180.0000000000004
 51
270.0000000000006
  0
LINE
  5
587
330
1F
100
AcDbEntity
  8
22
  6
Continuous
 62
     4
370
    25
100
AcDbLine
 10
165.400010078588
 20
101.8500066967038
 30
0.0
 11
65.40000368654728
 21
101.8500034287572
 31
0.0
  0
VIEWPORT
  5
78
330
1B
100
AcDbEntity
 67
     1
  8
0
100
AcDbViewport
 10
-4.19999735057354
 20
-11.69999826326963
 30
0.0
 40
1066.800015896559
 41
699.300010420382
 68
     1
 69
     1
 12
-4.19999735057354
 22
-11.69999826326963
 13
0.0
 23
0.0
 14
0.5
 24
0.5
 15
0.0
 25
0.0
 16
0.0
 26
0.0
 36
1.0
 17
0.0
 27
0.0
 37
0.0
 42
50.0
 43
0.0
 44
0.0
 45
699.300010420382
 50
0.0
 51
0.0
 72
   100
 90
   557152
  1

281
     0
 71
     1
 74
     0
110
0.0
120
0.0
130
0.0
111
1.0
121
0.0
131
0.0
112
0.0
122
1.0
132
0.0
 79
     0
146
0.0
  0
ENDSEC
  0
SECTION
  2
OBJECTS
  0
DICTIONARY
  5
C
330
0
100
AcDbDictionary
281
     1
  3
ACAD_GROUP
350
D
  3
ACAD_LAYOUT
350
1A
  3
ACAD_MATERIAL
350
3B
  3
ACAD_MLEADERSTYLE
350
5AC
  3
ACAD_MLINESTYLE
350
17
  3
ACAD_PLOTSETTINGS
350
19
  3
ACAD_PLOTSTYLENAME
350
E
  3
ACAD_SCALELIST
350
588
  3
ACAD_VISUALSTYLE
350
2A
  3
AcDbVariableDictionary
350
5AA
  0
DICTIONARY
  5
D
102
{ACAD_REACTORS
330
C
102
}
330
C
100
AcDbDictionary
281
     1
  0
DICTIONARY
  5
1A
102
{ACAD_REACTORS
330
C
102
}
330
C
100
AcDbDictionary
281
     1
  3
Layout1
350
1E
  3
Layout2
350
26
  3
Model
350
22
  0
DICTIONARY
  5
3B
102
{ACAD_REACTORS
330
C
102
}
330
C
100
AcDbDictionary
281
     1
  3
ByBlock
350
3D
  3
ByLayer
350
3C
  3
Global
350
3E
  0
DICTIONARY
  5
5AC
102
{ACAD_REACTORS
330
C
102
}
330
C
100
AcDbDictionary
281
     1
  0
DICTIONARY
  5
17
102
{ACAD_REACTORS
330
C
102
}
330
C
100
AcDbDictionary
281
     1
  3
Standard
350
18
  0
DICTIONARY
  5
19
102
{ACAD_REACTORS
330
C
102
}
330
C
100
AcDbDictionary
281
     1
  0
ACDBDICTIONARYWDFLT
  5
E
102
{ACAD_REACTORS
330
C
102
}
330
C
100
AcDbDictionary
281
     1
  3
Normal
350
F
100
AcDbDictionaryWithDefault
340
F
  0
DICTIONARY
  5
588
102
{ACAD_REACTORS
330
C
102
}
330
C
100
AcDbDictionary
281
     1
  3
A0
350
589
  3
A1
350
58A
  3
A2
350
58B
  3
A3
350
58C
  3
A4
350
58D
  3
A5
350
58E
  3
A6
350
58F
  3
A7
350
590
  3
A8
350
591
  3
A9
350
592
  3
B0
350
593
  3
B1
350
594
  3
B2
350
595
  3
B3
350
596
  3
B4
350
597
  3
B5
350
598
  3
B6
350
599
  3
B7
350
59A
  3
B8
350
59B
  3
B9
350
59C
  3
C0
350
59D
  3
C1
350
59E
  3
C2
350
59F
  3
C3
350
5A0
  3
C4
350
5A1
  3
C5
350
5A2
  3
C6
350
5A3
  3
C7
350
5A4
  3
C8
350
5A5
  3
C9
350
5A6
  3
D0
350
5A7
  3
D1
350
5A8
  3
D2
350
5A9
  0
DICTIONARY
  5
2A
102
{ACAD_REACTORS
330
C
102
}
330
C
100
AcDbDictionary
281
     1
  3
2dWireframe
350
2F
  3
3D Hidden
350
31
  3
3dWireframe
350
30
  3
Basic
350
32
  3
Brighten
350
36
  3
ColorChange
350
3A
  3
Conceptual
350
34
  3
Dim
350
35
  3
Facepattern
350
39
  3
Flat
350
2B
  3
FlatWithEdges
350
2C
  3
Gouraud
350
2D
  3
GouraudWithEdges
350
2E
  3
Linepattern
350
38
  3
Realistic
350
33
  3
Thicken
350
37
  0
DICTIONARY
  5
5AA
102
{ACAD_REACTORS
330
C
102
}
330
C
100
AcDbDictionary
281
     1
  3
CANNOSCALE
350
5AD
  3
DIMASSOC
350
5AE
  3
HIDETEXT
350
5AF
  0
LAYOUT
  5
1E
102
{ACAD_REACTORS
330
1A
102
}
330
1A
100
AcDbPlotSettings
  1

  2
none_device
  4

  6

 40
0.0
 41
0.0
 42
0.0
 43
0.0
 44
0.0
 45
0.0
 46
0.0
 47
0.0
 48
0.0
 49
0.0
140
0.0
141
0.0
142
1.0
143
1.0
 70
   688
 72
     0
 73
     0
 74
     5
  7

 75
    16
147
1.0
148
0.0
149
0.0
100
AcDbLayout
  1
Layout1
 70
     0
 71
     1
 10
0.0
 20
0.0
 11
12.0
 21
9.0
 12
0.0
 22
0.0
 32
0.0
 14
1.000000000000000E+20
 24
1.000000000000000E+20
 34
1.000000000000000E+20
 15
-1.000000000000000E+20
 25
-1.000000000000000E+20
 35
-1.000000000000000E+20
146
0.0
 13
0.0
 23
0.0
 33
0.0
 16
1.0
 26
0.0
 36
0.0
 17
0.0
 27
1.0
 37
0.0
 76
     0
330
1B
331
78
  0
LAYOUT
  5
26
102
{ACAD_REACTORS
330
1A
102
}
330
1A
100
AcDbPlotSettings
  1

  2
none_device
  4

  6

 40
0.0
 41
0.0
 42
0.0
 43
0.0
 44
0.0
 45
0.0
 46
0.0
 47
0.0
 48
0.0
 49
0.0
140
0.0
141
0.0
142
1.0
143
1.0
 70
   688
 72
     0
 73
     0
 74
     5
  7

 75
    16
147
1.0
148
0.0
149
0.0
100
AcDbLayout
  1
Layout2
 70
     1
 71
     2
 10
0.0
 20
0.0
 11
0.0
 21
0.0
 12
0.0
 22
0.0
 32
0.0
 14
0.0
 24
0.0
 34
0.0
 15
0.0
 25
0.0
 35
0.0
146
0.0
 13
0.0
 23
0.0
 33
0.0
 16
1.0
 26
0.0
 36
0.0
 17
0.0
 27
1.0
 37
0.0
 76
     0
330
23
  0
LAYOUT
  5
22
102
{ACAD_REACTORS
330
1A
102
}
330
1A
100
AcDbPlotSettings
  1

  2
none_device
  4

  6

 40
0.0
 41
0.0
 42
0.0
 43
0.0
 44
0.0
 45
0.0
 46
0.0
 47
0.0
 48
0.0
 49
0.0
140
0.0
141
0.0
142
1.0
143
1.0
 70
  1712
 72
     0
 73
     0
 74
     0
  7

 75
     0
147
1.0
148
0.0
149
0.0
100
AcDbLayout
  1
Model
 70
     1
 71
     0
 10
-182.0
 20
-128.5
 11
182.0
 21
128.5
 12
0.0
 22
0.0
 32
0.0
 14
-537.6000052988529
 24
-361.3500034734607
 34
0.0
 15
529.2000105977058
 25
337.9500069469214
 35
0.0
146
0.0
 13
0.0
 23
0.0
 33
0.0
 16
1.0
 26
0.0
 36
0.0
 17
0.0
 27
1.0
 37
0.0
 76
     0
330
1F
331
29
  0
MATERIAL
  5
3D
102
{ACAD_REACTORS
330
3B
102
}
102
{ACAD_XDICTIONARY
360
5D2
102
}
330
3B
100
AcDbMaterial
  1
ByBlock
  0
MATERIAL
  5
3C
102
{ACAD_REACTORS
330
3B
102
}
102
{ACAD_XDICTIONARY
360
5D0
102
}
330
3B
100
AcDbMaterial
  1
ByLayer
  0
MATERIAL
  5
3E
102
{ACAD_REACTORS
330
3B
102
}
102
{ACAD_XDICTIONARY
360
5D4
102
}
330
3B
100
AcDbMaterial
  1
Global
  0
MLINESTYLE
  5
18
102
{ACAD_REACTORS
330
17
102
}
330
17
100
AcDbMlineStyle
  2
Standard
 70
     0
  3

 62
   256
 51
90.0
 52
90.0
 71
     2
 49
0.5
 62
   256
  6
BYLAYER
 49
-0.5
 62
   256
  6
BYLAYER
  0
ACDBPLACEHOLDER
  5
F
102
{ACAD_REACTORS
330
E
102
}
330
E
  0
SCALE
  5
589
102
{ACAD_REACTORS
330
588
102
}
330
588
100
AcDbScale
 70
     0
300
1:1
140
1.0
141
1.0
290
     1
  0
SCALE
  5
58A
102
{ACAD_REACTORS
330
588
102
}
330
588
100
AcDbScale
 70
     0
300
1:2
140
1.0
141
2.0
290
     0
  0
SCALE
  5
58B
102
{ACAD_REACTORS
330
588
102
}
330
588
100
AcDbScale
 70
     0
300
1:4
140
1.0
141
4.0
290
     0
  0
SCALE
  5
58C
102
{ACAD_REACTORS
330
588
102
}
330
588
100
AcDbScale
 70
     0
300
1:5
140
1.0
141
5.0
290
     0
  0
SCALE
  5
58D
102
{ACAD_REACTORS
330
588
102
}
330
588
100
AcDbScale
 70
     0
300
1:8
140
1.0
141
8.0
290
     0
  0
SCALE
  5
58E
102
{ACAD_REACTORS
330
588
102
}
330
588
100
AcDbScale
 70
     0
300
1:10
140
1.0
141
10.0
290
     0
  0
SCALE
  5
58F
102
{ACAD_REACTORS
330
588
102
}
330
588
100
AcDbScale
 70
     0
300
1:16
140
1.0
141
16.0
290
     0
  0
SCALE
  5
590
102
{ACAD_REACTORS
330
588
102
}
330
588
100
AcDbScale
 70
     0
300
1:20
140
1.0
141
20.0
290
     0
  0
SCALE
  5
591
102
{ACAD_REACTORS
330
588
102
}
330
588
100
AcDbScale
 70
     0
300
1:30
140
1.0
141
30.0
290
     0
  0
SCALE
  5
592
102
{ACAD_REACTORS
330
588
102
}
330
588
100
AcDbScale
 70
     0
300
1:40
140
1.0
141
40.0
290
     0
  0
SCALE
  5
593
102
{ACAD_REACTORS
330
588
102
}
330
588
100
AcDbScale
 70
     0
300
1:50
140
1.0
141
50.0
290
     0
  0
SCALE
  5
594
102
{ACAD_REACTORS
330
588
102
}
330
588
100
AcDbScale
 70
     0
300
1:100
140
1.0
141
100.0
290
     0
  0
SCALE
  5
595
102
{ACAD_REACTORS
330
588
102
}
330
588
100
AcDbScale
 70
     0
300
2:1
140
2.0
141
1.0
290
     0
  0
SCALE
  5
596
102
{ACAD_REACTORS
330
588
102
}
330
588
100
AcDbScale
 70
     0
300
4:1
140
4.0
141
1.0
290
     0
  0
SCALE
  5
597
102
{ACAD_REACTORS
330
588
102
}
330
588
100
AcDbScale
 70
     0
300
8:1
140
8.0
141
1.0
290
     0
  0
SCALE
  5
598
102
{ACAD_REACTORS
330
588
102
}
330
588
100
AcDbScale
 70
     0
300
10:1
140
10.0
141
1.0
290
     0
  0
SCALE
  5
599
102
{ACAD_REACTORS
330
588
102
}
330
588
100
AcDbScale
 70
     0
300
100:1
140
100.0
141
1.0
290
     0
  0
SCALE
  5
59A
102
{ACAD_REACTORS
330
588
102
}
330
588
100
AcDbScale
 70
     0
300
1/128" = 1'-0"
140
0.0078125
141
12.0
290
     0
  0
SCALE
  5
59B
102
{ACAD_REACTORS
330
588
102
}
330
588
100
AcDbScale
 70
     0
300
1/64" = 1'-0"
140
0.015625
141
12.0
290
     0
  0
SCALE
  5
59C
102
{ACAD_REACTORS
330
588
102
}
330
588
100
AcDbScale
 70
     0
300
1/32" = 1'-0"
140
0.03125
141
12.0
290
     0
  0
SCALE
  5
59D
102
{ACAD_REACTORS
330
588
102
}
330
588
100
AcDbScale
 70
     0
300
1/16" = 1'-0"
140
0.0625
141
12.0
290
     0
  0
SCALE
  5
59E
102
{ACAD_REACTORS
330
588
102
}
330
588
100
AcDbScale
 70
     0
300
3/32" = 1'-0"
140
0.09375
141
12.0
290
     0
  0
SCALE
  5
59F
102
{ACAD_REACTORS
330
588
102
}
330
588
100
AcDbScale
 70
     0
300
1/8" = 1'-0"
140
0.125
141
12.0
290
     0
  0
SCALE
  5
5A0
102
{ACAD_REACTORS
330
588
102
}
330
588
100
AcDbScale
 70
     0
300
3/16" = 1'-0"
140
0.1875
141
12.0
290
     0
  0
SCALE
  5
5A1
102
{ACAD_REACTORS
330
588
102
}
330
588
100
AcDbScale
 70
     0
300
1/4" = 1'-0"
140
0.25
141
12.0
290
     0
  0
SCALE
  5
5A2
102
{ACAD_REACTORS
330
588
102
}
330
588
100
AcDbScale
 70
     0
300
3/8" = 1'-0"
140
0.375
141
12.0
290
     0
  0
SCALE
  5
5A3
102
{ACAD_REACTORS
330
588
102
}
330
588
100
AcDbScale
 70
     0
300
1/2" = 1'-0"
140
0.5
141
12.0
290
     0
  0
SCALE
  5
5A4
102
{ACAD_REACTORS
330
588
102
}
330
588
100
AcDbScale
 70
     0
300
3/4" = 1'-0"
140
0.75
141
12.0
290
     0
  0
SCALE
  5
5A5
102
{ACAD_REACTORS
330
588
102
}
330
588
100
AcDbScale
 70
     0
300
1" = 1'-0"
140
1.0
141
12.0
290
     0
  0
SCALE
  5
5A6
102
{ACAD_REACTORS
330
588
102
}
330
588
100
AcDbScale
 70
     0
300
1-1/2" = 1'-0"
140
1.5
141
12.0
290
     0
  0
SCALE
  5
5A7
102
{ACAD_REACTORS
330
588
102
}
330
588
100
AcDbScale
 70
     0
300
3" = 1'-0"
140
3.0
141
12.0
290
     0
  0
SCALE
  5
5A8
102
{ACAD_REACTORS
330
588
102
}
330
588
100
AcDbScale
 70
     0
300
6" = 1'-0"
140
6.0
141
12.0
290
     0
  0
SCALE
  5
5A9
102
{ACAD_REACTORS
330
588
102
}
330
588
100
AcDbScale
 70
     0
300
1'-0" = 1'-0"
140
12.0
141
12.0
290
     0
  0
VISUALSTYLE
  5
2F
102
{ACAD_REACTORS
330
2A
102
}
102
{ACAD_XDICTIONARY
360
5B8
102
}
330
2A
100
AcDbVisualStyle
  2
2dWireframe
 70
     4
 71
     0
 72
     2
 73
     0
 90
        0
 40
-0.6
 41
-30.0
 62
     5
 63
     7
 74
     1
 91
        4
 64
     7
 65
   257
 75
     1
175
     1
 42
1.0
 92
        0
 66
   257
 43
1.0
 76
     1
 77
     6
 78
     2
 67
     7
 79
     5
170
     0
171
     0
290
     0
174
     0
 93
        1
 44
0.0
173
     0
291
     0
 45
0.0
1001
ACAD
1000
AcDbSavedByObjectVersion
1070
     0
  0
VISUALSTYLE
  5
31
102
{ACAD_REACTORS
330
2A
102
}
102
{ACAD_XDICTIONARY
360
5BC
102
}
330
2A
100
AcDbVisualStyle
  2
3D Hidden
 70
     6
 71
     1
 72
     2
 73
     2
 90
        0
 40
-0.6
 41
-30.0
 62
     5
 63
     7
 74
     2
 91
        2
 64
     7
 65
   257
 75
     2
175
     1
 42
40.0
 92
        0
 66
   257
 43
1.0
 76
     1
 77
     6
 78
     2
 67
     7
 79
     3
170
     0
171
     0
290
     0
174
     0
 93
        1
 44
0.0
173
     0
291
     0
 45
0.0
1001
ACAD
1000
AcDbSavedByObjectVersion
1070
     0
  0
VISUALSTYLE
  5
30
102
{ACAD_REACTORS
330
2A
102
}
102
{ACAD_XDICTIONARY
360
5BA
102
}
330
2A
100
AcDbVisualStyle
  2
3dWireframe
 70
     5
 71
     0
 72
     2
 73
     0
 90
        0
 40
-0.6
 41
-30.0
 62
     5
 63
     7
 74
     1
 91
        4
 64
     7
 65
   257
 75
     1
175
     1
 42
1.0
 92
        0
 66
   257
 43
1.0
 76
     1
 77
     6
 78
     2
 67
     7
 79
     5
170
     0
171
     0
290
     0
174
     0
 93
        1
 44
0.0
173
     0
291
     0
 45
0.0
1001
ACAD
1000
AcDbSavedByObjectVersion
1070
     0
  0
VISUALSTYLE
  5
32
102
{ACAD_REACTORS
330
2A
102
}
102
{ACAD_XDICTIONARY
360
5BE
102
}
330
2A
100
AcDbVisualStyle
  2
Basic
 70
     7
 71
     1
 72
     0
 73
     1
 90
        0
 40
-0.6
 41
-30.0
 62
     5
 63
     7
 74
     0
 91
        4
 64
     7
 65
   257
 75
     1
175
     1
 42
1.0
 92
        8
 66
     7
 43
1.0
 76
     1
 77
     6
 78
     2
 67
     7
 79
     5
170
     0
171
     0
290
     0
174
     0
 93
        1
 44
0.0
173
     0
291
     1
 45
0.0
1001
ACAD
1000
AcDbSavedByObjectVersion
1070
     0
  0
VISUALSTYLE
  5
36
102
{ACAD_REACTORS
330
2A
102
}
102
{ACAD_XDICTIONARY
360
5C6
102
}
330
2A
100
AcDbVisualStyle
  2
Brighten
 70
    12
 71
     2
 72
     2
 73
     0
 90
        0
 40
-0.6
 41
-30.0
 62
     5
 63
     7
 74
     1
 91
        4
 64
     7
 65
   257
 75
     1
175
     1
 42
1.0
 92
        8
 66
     7
 43
1.0
 76
     1
 77
     6
 78
     2
 67
     7
 79
     5
170
     0
171
     0
290
     0
174
     0
 93
        1
 44
50.0
173
     0
291
     1
 45
0.0
1001
ACAD
1000
AcDbSavedByObjectVersion
1070
     0
  0
VISUALSTYLE
  5
3A
102
{ACAD_REACTORS
330
2A
102
}
102
{ACAD_XDICTIONARY
360
5CE
102
}
330
2A
100
AcDbVisualStyle
  2
ColorChange
 70
    16
 71
     2
 72
     2
 73
     3
 90
        0
 40
-0.6
 41
-30.0
 62
     5
 63
     8
 74
     1
 91
        4
 64
     7
 65
   257
 75
     1
175
     1
 42
1.0
 92
        8
 66
     8
 43
1.0
 76
     1
 77
     6
 78
     2
 67
     7
 79
     5
170
     0
171
     0
290
     0
174
     0
 93
        1
 44
0.0
173
     0
291
     1
 45
0.0
1001
ACAD
1000
AcDbSavedByObjectVersion
1070
     0
  0
VISUALSTYLE
  5
34
102
{ACAD_REACTORS
330
2A
102
}
102
{ACAD_XDICTIONARY
360
5C2
102
}
330
2A
100
AcDbVisualStyle
  2
Conceptual
 70
     9
 71
     3
 72
     2
 73
     0
 90
        0
 40
-0.6
 41
-30.0
 62
     5
 63
     7
 74
     2
 91
        2
 64
     7
 65
   257
 75
     1
175
     1
 42
40.0
 92
        8
 66
     7
 43
1.0
 76
     1
 77
     6
 78
     2
 67
     7
 79
     3
170
     0
171
     0
290
     0
174
     0
 93
        1
 44
0.0
173
     0
291
     0
 45
0.0
1001
ACAD
1000
AcDbSavedByObjectVersion
1070
     0
  0
VISUALSTYLE
  5
35
102
{ACAD_REACTORS
330
2A
102
}
102
{ACAD_XDICTIONARY
360
5C4
102
}
330
2A
100
AcDbVisualStyle
  2
Dim
 70
    11
 71
     2
 72
     2
 73
     0
 90
        0
 40
-0.6
 41
-30.0
 62
     5
 63
     7
 74
     1
 91
        4
 64
     7
 65
   257
 75
     1
175
     1
 42
1.0
 92
        8
 66
     7
 43
1.0
 76
     1
 77
     6
 78
     2
 67
     7
 79
     5
170
     0
171
     0
290
     0
174
     0
 93
        1
 44
-50.0
173
     0
291
     1
 45
0.0
1001
ACAD
1000
AcDbSavedByObjectVersion
1070
     0
  0
VISUALSTYLE
  5
39
102
{ACAD_REACTORS
330
2A
102
}
102
{ACAD_XDICTIONARY
360
5CC
102
}
330
2A
100
AcDbVisualStyle
  2
Facepattern
 70
    15
 71
     2
 72
     2
 73
     0
 90
        0
 40
-0.6
 41
-30.0
 62
     5
 63
     7
 74
     1
 91
        4
 64
     7
 65
   257
 75
     1
175
     1
 42
1.0
 92
        8
 66
     7
 43
1.0
 76
     1
 77
     6
 78
     2
 67
     7
 79
     5
170
     0
171
     0
290
     0
174
     0
 93
        1
 44
0.0
173
     0
291
     1
 45
0.0
1001
ACAD
1000
AcDbSavedByObjectVersion
1070
     0
  0
VISUALSTYLE
  5
2B
102
{ACAD_REACTORS
330
2A
102
}
102
{ACAD_XDICTIONARY
360
5B0
102
}
330
2A
100
AcDbVisualStyle
  2
Flat
 70
     0
 71
     2
 72
     1
 73
     1
 90
        2
 40
-0.6
 41
30.0
 62
     5
 63
     7
 74
     0
 91
        4
 64
     7
 65
   257
 75
     1
175
     1
 42
1.0
 92
        8
 66
     7
 43
1.0
 76
     1
 77
     6
 78
     2
 67
     7
 79
     5
170
     0
171
     0
290
     0
174
     0
 93
       13
 44
0.0
173
     0
291
     1
 45
0.0
1001
ACAD
1000
AcDbSavedByObjectVersion
1070
     0
  0
VISUALSTYLE
  5
2C
102
{ACAD_REACTORS
330
2A
102
}
102
{ACAD_XDICTIONARY
360
5B2
102
}
330
2A
100
AcDbVisualStyle
  2
FlatWithEdges
 70
     1
 71
     2
 72
     1
 73
     1
 90
        2
 40
-0.6
 41
30.0
 62
     5
 63
     7
 74
     1
 91
        4
 64
     7
 65
   257
 75
     1
175
     1
 42
1.0
 92
        0
 66
   257
 43
1.0
 76
     1
 77
     6
 78
     2
 67
     7
 79
     5
170
     0
171
     0
290
     0
174
     0
 93
       13
 44
0.0
173
     0
291
     1
 45
0.0
1001
ACAD
1000
AcDbSavedByObjectVersion
1070
     0
  0
VISUALSTYLE
  5
2D
102
{ACAD_REACTORS
330
2A
102
}
102
{ACAD_XDICTIONARY
360
5B4
102
}
330
2A
100
AcDbVisualStyle
  2
Gouraud
 70
     2
 71
     2
 72
     2
 73
     1
 90
        2
 40
-0.6
 41
30.0
 62
     5
 63
     7
 74
     0
 91
        4
 64
     7
 65
   257
 75
     1
175
     1
 42
1.0
 92
        0
 66
     7
 43
1.0
 76
     1
 77
     6
 78
     2
 67
     7
 79
     5
170
     0
171
     0
290
     0
174
     0
 93
       13
 44
0.0
173
     0
291
     1
 45
0.0
1001
ACAD
1000
AcDbSavedByObjectVersion
1070
     0
  0
VISUALSTYLE
  5
2E
102
{ACAD_REACTORS
330
2A
102
}
102
{ACAD_XDICTIONARY
360
5B6
102
}
330
2A
100
AcDbVisualStyle
  2
GouraudWithEdges
 70
     3
 71
     2
 72
     2
 73
     1
 90
        2
 40
-0.6
 41
30.0
 62
     5
 63
     7
 74
     1
 91
        4
 64
     7
 65
   257
 75
     1
175
     1
 42
1.0
 92
        0
 66
   257
 43
1.0
 76
     1
 77
     6
 78
     2
 67
     7
 79
     5
170
     0
171
     0
290
     0
174
     0
 93
       13
 44
0.0
173
     0
291
     1
 45
0.0
1001
ACAD
1000
AcDbSavedByObjectVersion
1070
     0
  0
VISUALSTYLE
  5
38
102
{ACAD_REACTORS
330
2A
102
}
102
{ACAD_XDICTIONARY
360
5CA
102
}
330
2A
100
AcDbVisualStyle
  2
Linepattern
 70
    14
 71
     2
 72
     2
 73
     0
 90
        0
 40
-0.6
 41
-30.0
 62
     5
 63
     7
 74
     1
 91
        4
 64
     7
 65
   257
 75
     7
175
     7
 42
1.0
 92
        8
 66
     7
 43
1.0
 76
     1
 77
     6
 78
     2
 67
     7
 79
     5
170
     0
171
     0
290
     0
174
     0
 93
        1
 44
0.0
173
     0
291
     1
 45
0.0
1001
ACAD
1000
AcDbSavedByObjectVersion
1070
     0
  0
VISUALSTYLE
  5
33
102
{ACAD_REACTORS
330
2A
102
}
102
{ACAD_XDICTIONARY
360
5C0
102
}
330
2A
100
AcDbVisualStyle
  2
Realistic
 70
     8
 71
     2
 72
     2
 73
     0
 90
        0
 40
-0.6
 41
-30.0
 62
     5
 63
     7
 74
     1
 91
        0
 64
     7
 65
   257
 75
     1
175
     1
 42
1.0
 92
        8
 66
     8
 43
1.0
 76
     1
 77
     6
 78
     2
 67
     7
 79
     5
170
     0
171
     0
290
     0
174
     0
 93
       13
 44
0.0
173
     0
291
     0
 45
0.0
1001
ACAD
1000
AcDbSavedByObjectVersion
1070
     0
  0
VISUALSTYLE
  5
37
102
{ACAD_REACTORS
330
2A
102
}
102
{ACAD_XDICTIONARY
360
5C8
102
}
330
2A
100
AcDbVisualStyle
  2
Thicken
 70
    13
 71
     2
 72
     2
 73
     0
 90
        0
 40
-0.6
 41
-30.0
 62
     5
 63
     7
 74
     1
 91
        4
 64
     7
 65
   257
 75
     1
175
     1
 42
1.0
 92
       12
 66
     7
 43
1.0
 76
     1
 77
     6
 78
     2
 67
     7
 79
     5
170
     0
171
     0
290
     0
174
     0
 93
        1
 44
0.0
173
     0
291
     1
 45
0.0
1001
ACAD
1000
AcDbSavedByObjectVersion
1070
     0
  0
DICTIONARYVAR
  5
5AD
102
{ACAD_REACTORS
330
5AA
102
}
330
5AA
100
DictionaryVariables
280
     0
  1
1:1
  0
DICTIONARYVAR
  5
5AE
102
{ACAD_REACTORS
330
5AA
102
}
330
5AA
100
DictionaryVariables
280
     0
  1
2
  0
DICTIONARYVAR
  5
5AF
102
{ACAD_REACTORS
330
5AA
102
}
330
5AA
100
DictionaryVariables
280
     0
  1
1
  0
DICTIONARY
  5
5D2
330
3D
100
AcDbDictionary
280
     1
281
     1
  3
ACAD_XREC_ROUNDTRIP
360
5D3
  0
DICTIONARY
  5
5D0
330
3C
100
AcDbDictionary
280
     1
281
     1
  3
ACAD_XREC_ROUNDTRIP
360
5D1
  0
DICTIONARY
  5
5D4
330
3E
100
AcDbDictionary
280
     1
281
     1
  3
ACAD_XREC_ROUNDTRIP
360
5D5
  0
DICTIONARY
  5
5B8
330
2F
100
AcDbDictionary
280
     1
281
     1
  3
ACAD_XREC_ROUNDTRIP
360
5B9
  0
DICTIONARY
  5
5BC
330
31
100
AcDbDictionary
280
     1
281
     1
  3
ACAD_XREC_ROUNDTRIP
360
5BD
  0
DICTIONARY
  5
5BA
330
30
100
AcDbDictionary
280
     1
281
     1
  3
ACAD_XREC_ROUNDTRIP
360
5BB
  0
DICTIONARY
  5
5BE
330
32
100
AcDbDictionary
280
     1
281
     1
  3
ACAD_XREC_ROUNDTRIP
360
5BF
  0
DICTIONARY
  5
5C6
330
36
100
AcDbDictionary
280
     1
281
     1
  3
ACAD_XREC_ROUNDTRIP
360
5C7
  0
DICTIONARY
  5
5CE
330
3A
100
AcDbDictionary
280
     1
281
     1
  3
ACAD_XREC_ROUNDTRIP
360
5CF
  0
DICTIONARY
  5
5C2
330
34
100
AcDbDictionary
280
     1
281
     1
  3
ACAD_XREC_ROUNDTRIP
360
5C3
  0
DICTIONARY
  5
5C4
330
35
100
AcDbDictionary
280
     1
281
     1
  3
ACAD_XREC_ROUNDTRIP
360
5C5
  0
DICTIONARY
  5
5CC
330
39
100
AcDbDictionary
280
     1
281
     1
  3
ACAD_XREC_ROUNDTRIP
360
5CD
  0
DICTIONARY
  5
5B0
330
2B
100
AcDbDictionary
280
     1
281
     1
  3
ACAD_XREC_ROUNDTRIP
360
5B1
  0
DICTIONARY
  5
5B2
330
2C
100
AcDbDictionary
280
     1
281
     1
  3
ACAD_XREC_ROUNDTRIP
360
5B3
  0
DICTIONARY
  5
5B4
330
2D
100
AcDbDictionary
280
     1
281
     1
  3
ACAD_XREC_ROUNDTRIP
360
5B5
  0
DICTIONARY
  5
5B6
330
2E
100
AcDbDictionary
280
     1
281
     1
  3
ACAD_XREC_ROUNDTRIP
360
5B7
  0
DICTIONARY
  5
5CA
330
38
100
AcDbDictionary
280
     1
281
     1
  3
ACAD_XREC_ROUNDTRIP
360
5CB
  0
DICTIONARY
  5
5C0
330
33
100
AcDbDictionary
280
     1
281
     1
  3
ACAD_XREC_ROUNDTRIP
360
5C1
  0
DICTIONARY
  5
5C8
330
37
100
AcDbDictionary
280
     1
281
     1
  3
ACAD_XREC_ROUNDTRIP
360
5C9
  0
XRECORD
  5
5D3
102
{ACAD_REACTORS
330
5D2
102
}
330
5D2
100
AcDbXrecord
280
     1
102
MATERIAL
148
0.0
149
0.0
149
0.0
 93
        0
 94
      127
282
     0
 72
     1
 77
     1
171
     1
175
     1
179
     1
273
     0
  0
XRECORD
  5
5D1
102
{ACAD_REACTORS
330
5D0
102
}
330
5D0
100
AcDbXrecord
280
     1
102
MATERIAL
148
0.0
149
0.0
149
0.0
 93
        0
 94
      127
282
     0
 72
     1
 77
     1
171
     1
175
     1
179
     1
273
     0
  0
XRECORD
  5
5D5
102
{ACAD_REACTORS
330
5D4
102
}
330
5D4
100
AcDbXrecord
280
     1
102
MATERIAL
148
0.0
149
0.0
149
0.0
 93
        0
 94
      127
282
     0
 72
     1
 77
     1
171
     1
175
     1
179
     1
273
     0
  0
XRECORD
  5
5B9
102
{ACAD_REACTORS
330
5B8
102
}
330
5B8
100
AcDbXrecord
280
     1
102
RTVSPropertyOp0
 70
     1
102
RTVSPropertyOp1
 70
     1
102
RTVSPropertyOp2
 70
     1
102
RTVSPropertyOp3
 70
     1
102
RTVSPropertyOp4
 70
     1
102
RTVSPropertyOp5
 70
     1
102
RTVSPropertyOp6
 70
     1
102
RTVSPropertyOp7
 70
     1
102
RTVSPropertyOp8
 70
     1
102
RTVSPropertyOp9
 70
     1
102
RTVSPropertyOp10
 70
     1
102
RTVSPropertyOp11
 70
     1
102
RTVSPropertyOp12
 70
     1
102
RTVSPropertyOp13
 70
     1
102
RTVSPropertyOp14
 70
     1
102
RTVSPropertyOp15
 70
     1
102
RTVSPropertyOp16
 70
     1
102
RTVSPropertyOp17
 70
     1
102
RTVSPropertyOp18
 70
     1
102
RTVSPropertyOp19
 70
     1
102
RTVSPropertyOp20
 70
     1
102
RTVSPropertyOp21
 70
     1
102
RTVSPropertyOp22
 70
     1
102
RTVSPropertyOp23
 70
     1
102
RTVSPropertyOp24
 70
     1
102
RTVSPropertyOp25
 70
     1
102
RTVSPropertyOp26
 70
     1
102
RTVSPropertyOp27
 70
     1
  0
XRECORD
  5
5BD
102
{ACAD_REACTORS
330
5BC
102
}
330
5BC
100
AcDbXrecord
280
     1
102
RTVSPropertyOp0
 70
     1
102
RTVSPropertyOp1
 70
     1
102
RTVSPropertyOp2
 70
     1
102
RTVSPropertyOp3
 70
     1
102
RTVSPropertyOp4
 70
     1
102
RTVSPropertyOp5
 70
     1
102
RTVSPropertyOp6
 70
     1
102
RTVSPropertyOp7
 70
     1
102
RTVSPropertyOp8
 70
     1
102
RTVSPropertyOp9
 70
     1
102
RTVSPropertyOp10
 70
     1
102
RTVSPropertyOp11
 70
     1
102
RTVSPropertyOp12
 70
     1
102
RTVSPropertyOp13
 70
     1
102
RTVSPropertyOp14
 70
     1
102
RTVSPropertyOp15
 70
     1
102
RTVSPropertyOp16
 70
     1
102
RTVSPropertyOp17
 70
     1
102
RTVSPropertyOp18
 70
     1
102
RTVSPropertyOp19
 70
     1
102
RTVSPropertyOp20
 70
     1
102
RTVSPropertyOp21
 70
     1
102
RTVSPropertyOp22
 70
     1
102
RTVSPropertyOp23
 70
     1
102
RTVSPropertyOp24
 70
     1
102
RTVSPropertyOp25
 70
     1
102
RTVSPropertyOp26
 70
     1
102
RTVSPropertyOp27
 70
     1
  0
XRECORD
  5
5BB
102
{ACAD_REACTORS
330
5BA
102
}
330
5BA
100
AcDbXrecord
280
     1
102
RTVSPropertyOp0
 70
     1
102
RTVSPropertyOp1
 70
     1
102
RTVSPropertyOp2
 70
     1
102
RTVSPropertyOp3
 70
     1
102
RTVSPropertyOp4
 70
     1
102
RTVSPropertyOp5
 70
     1
102
RTVSPropertyOp6
 70
     1
102
RTVSPropertyOp7
 70
     1
102
RTVSPropertyOp8
 70
     1
102
RTVSPropertyOp9
 70
     1
102
RTVSPropertyOp10
 70
     1
102
RTVSPropertyOp11
 70
     1
102
RTVSPropertyOp12
 70
     1
102
RTVSPropertyOp13
 70
     1
102
RTVSPropertyOp14
 70
     1
102
RTVSPropertyOp15
 70
     1
102
RTVSPropertyOp16
 70
     1
102
RTVSPropertyOp17
 70
     1
102
RTVSPropertyOp18
 70
     1
102
RTVSPropertyOp19
 70
     1
102
RTVSPropertyOp20
 70
     1
102
RTVSPropertyOp21
 70
     1
102
RTVSPropertyOp22
 70
     1
102
RTVSPropertyOp23
 70
     1
102
RTVSPropertyOp24
 70
     1
102
RTVSPropertyOp25
 70
     1
102
RTVSPropertyOp26
 70
     1
102
RTVSPropertyOp27
 70
     1
  0
XRECORD
  5
5BF
102
{ACAD_REACTORS
330
5BE
102
}
330
5BE
100
AcDbXrecord
280
     1
102
RTVSPropertyOp0
 70
     1
102
RTVSPropertyOp1
 70
     1
102
RTVSPropertyOp2
 70
     1
102
RTVSPropertyOp3
 70
     1
102
RTVSPropertyOp4
 70
     1
102
RTVSPropertyOp5
 70
     1
102
RTVSPropertyOp6
 70
     1
102
RTVSPropertyOp7
 70
     1
102
RTVSPropertyOp8
 70
     1
102
RTVSPropertyOp9
 70
     1
102
RTVSPropertyOp10
 70
     1
102
RTVSPropertyOp11
 70
     1
102
RTVSPropertyOp12
 70
     1
102
RTVSPropertyOp13
 70
     1
102
RTVSPropertyOp14
 70
     1
102
RTVSPropertyOp15
 70
     1
102
RTVSPropertyOp16
 70
     1
102
RTVSPropertyOp17
 70
     1
102
RTVSPropertyOp18
 70
     1
102
RTVSPropertyOp19
 70
     1
102
RTVSPropertyOp20
 70
     1
102
RTVSPropertyOp21
 70
     1
102
RTVSPropertyOp22
 70
     1
102
RTVSPropertyOp23
 70
     1
102
RTVSPropertyOp24
 70
     1
102
RTVSPropertyOp25
 70
     1
102
RTVSPropertyOp26
 70
     1
102
RTVSPropertyOp27
 70
     1
  0
XRECORD
  5
5C7
102
{ACAD_REACTORS
330
5C6
102
}
330
5C6
100
AcDbXrecord
280
     1
102
RTVSPropertyOp0
 70
     1
102
RTVSPropertyOp1
 70
     1
102
RTVSPropertyOp2
 70
     1
102
RTVSPropertyOp3
 70
     1
102
RTVSPropertyOp4
 70
     1
102
RTVSPropertyOp5
 70
     1
102
RTVSPropertyOp6
 70
     1
102
RTVSPropertyOp7
 70
     1
102
RTVSPropertyOp8
 70
     1
102
RTVSPropertyOp9
 70
     1
102
RTVSPropertyOp10
 70
     1
102
RTVSPropertyOp11
 70
     1
102
RTVSPropertyOp12
 70
     1
102
RTVSPropertyOp13
 70
     1
102
RTVSPropertyOp14
 70
     1
102
RTVSPropertyOp15
 70
     1
102
RTVSPropertyOp16
 70
     1
102
RTVSPropertyOp17
 70
     1
102
RTVSPropertyOp18
 70
     1
102
RTVSPropertyOp19
 70
     1
102
RTVSPropertyOp20
 70
     1
102
RTVSPropertyOp21
 70
     1
102
RTVSPropertyOp22
 70
     1
102
RTVSPropertyOp23
 70
     1
102
RTVSPropertyOp24
 70
     1
102
RTVSPropertyOp25
 70
     1
102
RTVSPropertyOp26
 70
     1
102
RTVSPropertyOp27
 70
     1
  0
XRECORD
  5
5CF
102
{ACAD_REACTORS
330
5CE
102
}
330
5CE
100
AcDbXrecord
280
     1
102
RTVSPropertyOp0
 70
     1
102
RTVSPropertyOp1
 70
     1
102
RTVSPropertyOp2
 70
     1
102
RTVSPropertyOp3
 70
     1
102
RTVSPropertyOp4
 70
     1
102
RTVSPropertyOp5
 70
     1
102
RTVSPropertyOp6
 70
     1
102
RTVSPropertyOp7
 70
     1
102
RTVSPropertyOp8
 70
     1
102
RTVSPropertyOp9
 70
     1
102
RTVSPropertyOp10
 70
     1
102
RTVSPropertyOp11
 70
     1
102
RTVSPropertyOp12
 70
     1
102
RTVSPropertyOp13
 70
     1
102
RTVSPropertyOp14
 70
     1
102
RTVSPropertyOp15
 70
     1
102
RTVSPropertyOp16
 70
     1
102
RTVSPropertyOp17
 70
     1
102
RTVSPropertyOp18
 70
     1
102
RTVSPropertyOp19
 70
     1
102
RTVSPropertyOp20
 70
     1
102
RTVSPropertyOp21
 70
     1
102
RTVSPropertyOp22
 70
     1
102
RTVSPropertyOp23
 70
     1
102
RTVSPropertyOp24
 70
     1
102
RTVSPropertyOp25
 70
     1
102
RTVSPropertyOp26
 70
     1
102
RTVSPropertyOp27
 70
     1
  0
XRECORD
  5
5C3
102
{ACAD_REACTORS
330
5C2
102
}
330
5C2
100
AcDbXrecord
280
     1
102
RTVSPropertyOp0
 70
     1
102
RTVSPropertyOp1
 70
     1
102
RTVSPropertyOp2
 70
     1
102
RTVSPropertyOp3
 70
     1
102
RTVSPropertyOp4
 70
     1
102
RTVSPropertyOp5
 70
     1
102
RTVSPropertyOp6
 70
     1
102
RTVSPropertyOp7
 70
     1
102
RTVSPropertyOp8
 70
     1
102
RTVSPropertyOp9
 70
     1
102
RTVSPropertyOp10
 70
     1
102
RTVSPropertyOp11
 70
     1
102
RTVSPropertyOp12
 70
     1
102
RTVSPropertyOp13
 70
     1
102
RTVSPropertyOp14
 70
     1
102
RTVSPropertyOp15
 70
     1
102
RTVSPropertyOp16
 70
     1
102
RTVSPropertyOp17
 70
     1
102
RTVSPropertyOp18
 70
     1
102
RTVSPropertyOp19
 70
     1
102
RTVSPropertyOp20
 70
     1
102
RTVSPropertyOp21
 70
     1
102
RTVSPropertyOp22
 70
     1
102
RTVSPropertyOp23
 70
     1
102
RTVSPropertyOp24
 70
     1
102
RTVSPropertyOp25
 70
     1
102
RTVSPropertyOp26
 70
     1
102
RTVSPropertyOp27
 70
     1
  0
XRECORD
  5
5C5
102
{ACAD_REACTORS
330
5C4
102
}
330
5C4
100
AcDbXrecord
280
     1
102
RTVSPropertyOp0
 70
     1
102
RTVSPropertyOp1
 70
     1
102
RTVSPropertyOp2
 70
     1
102
RTVSPropertyOp3
 70
     1
102
RTVSPropertyOp4
 70
     1
102
RTVSPropertyOp5
 70
     1
102
RTVSPropertyOp6
 70
     1
102
RTVSPropertyOp7
 70
     1
102
RTVSPropertyOp8
 70
     1
102
RTVSPropertyOp9
 70
     1
102
RTVSPropertyOp10
 70
     1
102
RTVSPropertyOp11
 70
     1
102
RTVSPropertyOp12
 70
     1
102
RTVSPropertyOp13
 70
     1
102
RTVSPropertyOp14
 70
     1
102
RTVSPropertyOp15
 70
     1
102
RTVSPropertyOp16
 70
     1
102
RTVSPropertyOp17
 70
     1
102
RTVSPropertyOp18
 70
     1
102
RTVSPropertyOp19
 70
     1
102
RTVSPropertyOp20
 70
     1
102
RTVSPropertyOp21
 70
     1
102
RTVSPropertyOp22
 70
     1
102
RTVSPropertyOp23
 70
     1
102
RTVSPropertyOp24
 70
     1
102
RTVSPropertyOp25
 70
     1
102
RTVSPropertyOp26
 70
     1
102
RTVSPropertyOp27
 70
     1
  0
XRECORD
  5
5CD
102
{ACAD_REACTORS
330
5CC
102
}
330
5CC
100
AcDbXrecord
280
     1
102
RTVSPropertyOp0
 70
     1
102
RTVSPropertyOp1
 70
     1
102
RTVSPropertyOp2
 70
     1
102
RTVSPropertyOp3
 70
     1
102
RTVSPropertyOp4
 70
     1
102
RTVSPropertyOp5
 70
     1
102
RTVSPropertyOp6
 70
     1
102
RTVSPropertyOp7
 70
     1
102
RTVSPropertyOp8
 70
     1
102
RTVSPropertyOp9
 70
     1
102
RTVSPropertyOp10
 70
     1
102
RTVSPropertyOp11
 70
     1
102
RTVSPropertyOp12
 70
     1
102
RTVSPropertyOp13
 70
     1
102
RTVSPropertyOp14
 70
     1
102
RTVSPropertyOp15
 70
     1
102
RTVSPropertyOp16
 70
     1
102
RTVSPropertyOp17
 70
     1
102
RTVSPropertyOp18
 70
     1
102
RTVSPropertyOp19
 70
     1
102
RTVSPropertyOp20
 70
     1
102
RTVSPropertyOp21
 70
     1
102
RTVSPropertyOp22
 70
     1
102
RTVSPropertyOp23
 70
     1
102
RTVSPropertyOp24
 70
     1
102
RTVSPropertyOp25
 70
     1
102
RTVSPropertyOp26
 70
     1
102
RTVSPropertyOp27
 70
     1
  0
XRECORD
  5
5B1
102
{ACAD_REACTORS
330
5B0
102
}
330
5B0
100
AcDbXrecord
280
     1
102
RTVSPropertyOp0
 70
     1
102
RTVSPropertyOp1
 70
     1
102
RTVSPropertyOp2
 70
     1
102
RTVSPropertyOp3
 70
     1
102
RTVSPropertyOp4
 70
     1
102
RTVSPropertyOp5
 70
     1
102
RTVSPropertyOp6
 70
     1
102
RTVSPropertyOp7
 70
     1
102
RTVSPropertyOp8
 70
     1
102
RTVSPropertyOp9
 70
     1
102
RTVSPropertyOp10
 70
     1
102
RTVSPropertyOp11
 70
     1
102
RTVSPropertyOp12
 70
     1
102
RTVSPropertyOp13
 70
     1
102
RTVSPropertyOp14
 70
     1
102
RTVSPropertyOp15
 70
     1
102
RTVSPropertyOp16
 70
     1
102
RTVSPropertyOp17
 70
     1
102
RTVSPropertyOp18
 70
     1
102
RTVSPropertyOp19
 70
     1
102
RTVSPropertyOp20
 70
     1
102
RTVSPropertyOp21
 70
     1
102
RTVSPropertyOp22
 70
     1
102
RTVSPropertyOp23
 70
     1
102
RTVSPropertyOp24
 70
     1
102
RTVSPropertyOp25
 70
     1
102
RTVSPropertyOp26
 70
     1
102
RTVSPropertyOp27
 70
     1
  0
XRECORD
  5
5B3
102
{ACAD_REACTORS
330
5B2
102
}
330
5B2
100
AcDbXrecord
280
     1
102
RTVSPropertyOp0
 70
     1
102
RTVSPropertyOp1
 70
     1
102
RTVSPropertyOp2
 70
     1
102
RTVSPropertyOp3
 70
     1
102
RTVSPropertyOp4
 70
     1
102
RTVSPropertyOp5
 70
     1
102
RTVSPropertyOp6
 70
     1
102
RTVSPropertyOp7
 70
     1
102
RTVSPropertyOp8
 70
     1
102
RTVSPropertyOp9
 70
     1
102
RTVSPropertyOp10
 70
     1
102
RTVSPropertyOp11
 70
     1
102
RTVSPropertyOp12
 70
     1
102
RTVSPropertyOp13
 70
     1
102
RTVSPropertyOp14
 70
     1
102
RTVSPropertyOp15
 70
     1
102
RTVSPropertyOp16
 70
     1
102
RTVSPropertyOp17
 70
     1
102
RTVSPropertyOp18
 70
     1
102
RTVSPropertyOp19
 70
     1
102
RTVSPropertyOp20
 70
     1
102
RTVSPropertyOp21
 70
     1
102
RTVSPropertyOp22
 70
     1
102
RTVSPropertyOp23
 70
     1
102
RTVSPropertyOp24
 70
     1
102
RTVSPropertyOp25
 70
     1
102
RTVSPropertyOp26
 70
     1
102
RTVSPropertyOp27
 70
     1
  0
XRECORD
  5
5B5
102
{ACAD_REACTORS
330
5B4
102
}
330
5B4
100
AcDbXrecord
280
     1
102
RTVSPropertyOp0
 70
     1
102
RTVSPropertyOp1
 70
     1
102
RTVSPropertyOp2
 70
     1
102
RTVSPropertyOp3
 70
     1
102
RTVSPropertyOp4
 70
     1
102
RTVSPropertyOp5
 70
     1
102
RTVSPropertyOp6
 70
     1
102
RTVSPropertyOp7
 70
     1
102
RTVSPropertyOp8
 70
     1
102
RTVSPropertyOp9
 70
     1
102
RTVSPropertyOp10
 70
     1
102
RTVSPropertyOp11
 70
     1
102
RTVSPropertyOp12
 70
     1
102
RTVSPropertyOp13
 70
     1
102
RTVSPropertyOp14
 70
     1
102
RTVSPropertyOp15
 70
     1
102
RTVSPropertyOp16
 70
     1
102
RTVSPropertyOp17
 70
     1
102
RTVSPropertyOp18
 70
     1
102
RTVSPropertyOp19
 70
     1
102
RTVSPropertyOp20
 70
     1
102
RTVSPropertyOp21
 70
     1
102
RTVSPropertyOp22
 70
     1
102
RTVSPropertyOp23
 70
     1
102
RTVSPropertyOp24
 70
     1
102
RTVSPropertyOp25
 70
     1
102
RTVSPropertyOp26
 70
     1
102
RTVSPropertyOp27
 70
     1
  0
XRECORD
  5
5B7
102
{ACAD_REACTORS
330
5B6
102
}
330
5B6
100
AcDbXrecord
280
     1
102
RTVSPropertyOp0
 70
     1
102
RTVSPropertyOp1
 70
     1
102
RTVSPropertyOp2
 70
     1
102
RTVSPropertyOp3
 70
     1
102
RTVSPropertyOp4
 70
     1
102
RTVSPropertyOp5
 70
     1
102
RTVSPropertyOp6
 70
     1
102
RTVSPropertyOp7
 70
     1
102
RTVSPropertyOp8
 70
     1
102
RTVSPropertyOp9
 70
     1
102
RTVSPropertyOp10
 70
     1
102
RTVSPropertyOp11
 70
     1
102
RTVSPropertyOp12
 70
     1
102
RTVSPropertyOp13
 70
     1
102
RTVSPropertyOp14
 70
     1
102
RTVSPropertyOp15
 70
     1
102
RTVSPropertyOp16
 70
     1
102
RTVSPropertyOp17
 70
     1
102
RTVSPropertyOp18
 70
     1
102
RTVSPropertyOp19
 70
     1
102
RTVSPropertyOp20
 70
     1
102
RTVSPropertyOp21
 70
     1
102
RTVSPropertyOp22
 70
     1
102
RTVSPropertyOp23
 70
     1
102
RTVSPropertyOp24
 70
     1
102
RTVSPropertyOp25
 70
     1
102
RTVSPropertyOp26
 70
     1
102
RTVSPropertyOp27
 70
     1
  0
XRECORD
  5
5CB
102
{ACAD_REACTORS
330
5CA
102
}
330
5CA
100
AcDbXrecord
280
     1
102
RTVSPropertyOp0
 70
     1
102
RTVSPropertyOp1
 70
     1
102
RTVSPropertyOp2
 70
     1
102
RTVSPropertyOp3
 70
     1
102
RTVSPropertyOp4
 70
     1
102
RTVSPropertyOp5
 70
     1
102
RTVSPropertyOp6
 70
     1
102
RTVSPropertyOp7
 70
     1
102
RTVSPropertyOp8
 70
     1
102
RTVSPropertyOp9
 70
     1
102
RTVSPropertyOp10
 70
     1
102
RTVSPropertyOp11
 70
     1
102
RTVSPropertyOp12
 70
     1
102
RTVSPropertyOp13
 70
     1
102
RTVSPropertyOp14
 70
     1
102
RTVSPropertyOp15
 70
     1
102
RTVSPropertyOp16
 70
     1
102
RTVSPropertyOp17
 70
     1
102
RTVSPropertyOp18
 70
     1
102
RTVSPropertyOp19
 70
     1
102
RTVSPropertyOp20
 70
     1
102
RTVSPropertyOp21
 70
     1
102
RTVSPropertyOp22
 70
     1
102
RTVSPropertyOp23
 70
     1
102
RTVSPropertyOp24
 70
     1
102
RTVSPropertyOp25
 70
     1
102
RTVSPropertyOp26
 70
     1
102
RTVSPropertyOp27
 70
     1
  0
XRECORD
  5
5C1
102
{ACAD_REACTORS
330
5C0
102
}
330
5C0
100
AcDbXrecord
280
     1
102
RTVSPropertyOp0
 70
     1
102
RTVSPropertyOp1
 70
     1
102
RTVSPropertyOp2
 70
     1
102
RTVSPropertyOp3
 70
     1
102
RTVSPropertyOp4
 70
     1
102
RTVSPropertyOp5
 70
     1
102
RTVSPropertyOp6
 70
     1
102
RTVSPropertyOp7
 70
     1
102
RTVSPropertyOp8
 70
     1
102
RTVSPropertyOp9
 70
     1
102
RTVSPropertyOp10
 70
     1
102
RTVSPropertyOp11
 70
     1
102
RTVSPropertyOp12
 70
     1
102
RTVSPropertyOp13
 70
     1
102
RTVSPropertyOp14
 70
     1
102
RTVSPropertyOp15
 70
     1
102
RTVSPropertyOp16
 70
     1
102
RTVSPropertyOp17
 70
     1
102
RTVSPropertyOp18
 70
     1
102
RTVSPropertyOp19
 70
     1
102
RTVSPropertyOp20
 70
     1
102
RTVSPropertyOp21
 70
     1
102
RTVSPropertyOp22
 70
     1
102
RTVSPropertyOp23
 70
     1
102
RTVSPropertyOp24
 70
     1
102
RTVSPropertyOp25
 70
     1
102
RTVSPropertyOp26
 70
     1
102
RTVSPropertyOp27
 70
     1
  0
XRECORD
  5
5C9
102
{ACAD_REACTORS
330
5C8
102
}
330
5C8
100
AcDbXrecord
280
     1
102
RTVSPropertyOp0
 70
     1
102
RTVSPropertyOp1
 70
     1
102
RTVSPropertyOp2
 70
     1
102
RTVSPropertyOp3
 70
     1
102
RTVSPropertyOp4
 70
     1
102
RTVSPropertyOp5
 70
     1
102
RTVSPropertyOp6
 70
     1
102
RTVSPropertyOp7
 70
     1
102
RTVSPropertyOp8
 70
     1
102
RTVSPropertyOp9
 70
     1
102
RTVSPropertyOp10
 70
     1
102
RTVSPropertyOp11
 70
     1
102
RTVSPropertyOp12
 70
     1
102
RTVSPropertyOp13
 70
     1
102
RTVSPropertyOp14
 70
     1
102
RTVSPropertyOp15
 70
     1
102
RTVSPropertyOp16
 70
     1
102
RTVSPropertyOp17
 70
     1
102
RTVSPropertyOp18
 70
     1
102
RTVSPropertyOp19
 70
     1
102
RTVSPropertyOp20
 70
     1
102
RTVSPropertyOp21
 70
     1
102
RTVSPropertyOp22
 70
     1
102
RTVSPropertyOp23
 70
     1
102
RTVSPropertyOp24
 70
     1
102
RTVSPropertyOp25
 70
     1
102
RTVSPropertyOp26
 70
     1
102
RTVSPropertyOp27
 70
     1
  0
ENDSEC
  0
EOF
