  0
SECTION
  2
HEADER
  9
$ACADVER
  1
AC1015
  9
$ACADMAINTVER
 70
     6
  9
$DWGCODEPAGE
  3
ANSI_932
  9
$INSBASE
 10
0.0
 20
0.0
 30
0.0
  9
$EXTMIN
 10
-536.4000052809715
 20
-362.9000034928322
 30
0.0
  9
$EXTMAX
 10
526.800010561943
 20
340.3000069856644
 30
0.0
  9
$LIMMIN
 10
-182.0
 20
-128.5
  9
$LIMMAX
 10
182.0
 20
128.5
  9
$ORTHOMODE
 70
     0
  9
$REGENMODE
 70
     1
  9
$FILLMODE
 70
     1
  9
$QTEXTMODE
 70
     0
  9
$MIRRTEXT
 70
     1
  9
$LTSCALE
 40
0.25
  9
$ATTMODE
 70
     1
  9
$TEXTSIZE
 40
0.2
  9
$TRACEWID
 40
0.05
  9
$TEXTSTYLE
  7
Standard
  9
$CLAYER
  8
0
  9
$CELTYPE
  6
ByLayer
  9
$CECOLOR
 62
   256
  9
$CELTSCALE
 40
1.0
  9
$DISPSILH
 70
     0
  9
$DIMSCALE
 40
1.0
  9
$DIMASZ
 40
3.000001882570243
  9
$DIMEXO
 40
1.0
  9
$DIMDLI
 40
10.0
  9
$DIMRND
 40
0.0
  9
$DIMDLE
 40
0.0
  9
$DIMEXE
 40
1.0
  9
$DIMTP
 40
0.0
  9
$DIMTM
 40
0.0
  9
$DIMTXT
 40
3.0
  9
$DIMCEN
 40
0.0
  9
$DIMTSZ
 40
0.0
  9
$DIMTOL
 70
     0
  9
$DIMLIM
 70
     0
  9
$DIMTIH
 70
     0
  9
$DIMTOH
 70
     0
  9
$DIMSE1
 70
     0
  9
$DIMSE2
 70
     0
  9
$DIMTAD
 70
     1
  9
$DIMZIN
 70
     8
  9
$DIMBLK
  1

  9
$DIMASO
 70
     1
  9
$DIMSHO
 70
     1
  9
$DIMPOST
  1

  9
$DIMAPOST
  1

  9
$DIMALT
 70
     0
  9
$DIMALTD
 70
     2
  9
$DIMALTF
 40
25.4
  9
$DIMLFAC
 40
1.0
  9
$DIMTOFL
 70
     0
  9
$DIMTVP
 40
0.0
  9
$DIMTIX
 70
     0
  9
$DIMSOXD
 70
     0
  9
$DIMSAH
 70
     0
  9
$DIMBLK1
  1

  9
$DIMBLK2
  1

  9
$DIMSTYLE
  2
Standard
  9
$DIMCLRD
 70
     0
  9
$DIMCLRE
 70
     0
  9
$DIMCLRT
 70
     0
  9
$DIMTFAC
 40
0.65
  9
$DIMGAP
 40
0.09
  9
$DIMJUST
 70
     0
  9
$DIMSD1
 70
     0
  9
$DIMSD2
 70
     0
  9
$DIMTOLJ
 70
     0
  9
$DIMTZIN
 70
     0
  9
$DIMALTZ
 70
     0
  9
$DIMALTTZ
 70
     0
  9
$DIMUPT
 70
     0
  9
$DIMDEC
 70
     2
  9
$DIMTDEC
 70
     2
  9
$DIMALTU
 70
     2
  9
$DIMALTTD
 70
     2
  9
$DIMTXSTY
  7
Standard
  9
$DIMAUNIT
 70
     0
  9
$DIMADEC
 70
     2
  9
$DIMALTRND
 40
0.0
  9
$DIMAZIN
 70
     2
  9
$DIMDSEP
 70
    46
  9
$DIMATFIT
 70
     3
  9
$DIMFRAC
 70
     0
  9
$DIMLDRBLK
  1

  9
$DIMLUNIT
 70
     2
  9
$DIMLWD
 70
    -2
  9
$DIMLWE
 70
    -2
  9
$DIMTMOVE
 70
     0
  9
$LUNITS
 70
     2
  9
$LUPREC
 70
     4
  9
$SKETCHINC
 40
0.1
  9
$FILLETRAD
 40
0.5
  9
$AUNITS
 70
     0
  9
$AUPREC
 70
     0
  9
$MENU
  1
.
  9
$ELEVATION
 40
0.0
  9
$PELEVATION
 40
0.0
  9
$THICKNESS
 40
0.0
  9
$LIMCHECK
 70
     0
  9
$CHAMFERA
 40
0.5
  9
$CHAMFERB
 40
0.5
  9
$CHAMFERC
 40
1.0
  9
$CHAMFERD
 40
0.0
  9
$SKPOLY
 70
     0
  9
$TDCREATE
 40
2459607.017235637
  9
$TDUCREATE
 40
2459606.642235637
  9
$TDUPDATE
 40
2459607.017235648
  9
$TDUUPDATE
 40
2459606.642235648
  9
$TDINDWG
 40
0.0000000116
  9
$TDUSRTIMER
 40
0.0000000116
  9
$USRTIMER
 70
     1
  9
$ANGBASE
 50
0.0
  9
$ANGDIR
 70
     0
  9
$PDMODE
 70
     0
  9
$PDSIZE
 40
1.0
  9
$PLINEWID
 40
0.0
  9
$SPLFRAME
 70
     0
  9
$SPLINETYPE
 70
     6
  9
$SPLINESEGS
 70
     8
  9
$HANDSEED
  5
5C7
  9
$SURFTAB1
 70
     6
  9
$SURFTAB2
 70
     6
  9
$SURFTYPE
 70
     6
  9
$SURFU
 70
     6
  9
$SURFV
 70
     6
  9
$UCSBASE
  2

  9
$UCSNAME
  2

  9
$UCSORG
 10
0.0
 20
0.0
 30
0.0
  9
$UCSXDIR
 10
1.0
 20
0.0
 30
0.0
  9
$UCSYDIR
 10
0.0
 20
1.0
 30
0.0
  9
$UCSORTHOREF
  2

  9
$UCSORTHOVIEW
 70
     0
  9
$UCSORGTOP
 10
0.0
 20
0.0
 30
0.0
  9
$UCSORGBOTTOM
 10
0.0
 20
0.0
 30
0.0
  9
$UCSORGLEFT
 10
0.0
 20
0.0
 30
0.0
  9
$UCSORGRIGHT
 10
0.0
 20
0.0
 30
0.0
  9
$UCSORGFRONT
 10
0.0
 20
0.0
 30
0.0
  9
$UCSORGBACK
 10
0.0
 20
0.0
 30
0.0
  9
$PUCSBASE
  2

  9
$PUCSNAME
  2

  9
$PUCSORG
 10
0.0
 20
0.0
 30
0.0
  9
$PUCSXDIR
 10
1.0
 20
0.0
 30
0.0
  9
$PUCSYDIR
 10
0.0
 20
1.0
 30
0.0
  9
$PUCSORTHOREF
  2

  9
$PUCSORTHOVIEW
 70
     0
  9
$PUCSORGTOP
 10
0.0
 20
0.0
 30
0.0
  9
$PUCSORGBOTTOM
 10
0.0
 20
0.0
 30
0.0
  9
$PUCSORGLEFT
 10
0.0
 20
0.0
 30
0.0
  9
$PUCSORGRIGHT
 10
0.0
 20
0.0
 30
0.0
  9
$PUCSORGFRONT
 10
0.0
 20
0.0
 30
0.0
  9
$PUCSORGBACK
 10
0.0
 20
0.0
 30
0.0
  9
$USERI1
 70
     0
  9
$USERI2
 70
     0
  9
$USERI3
 70
     0
  9
$USERI4
 70
     0
  9
$USERI5
 70
     0
  9
$USERR1
 40
0.0
  9
$USERR2
 40
0.0
  9
$USERR3
 40
0.0
  9
$USERR4
 40
0.0
  9
$USERR5
 40
0.0
  9
$WORLDVIEW
 70
     1
  9
$SHADEDGE
 70
     3
  9
$SHADEDIF
 70
    70
  9
$TILEMODE
 70
     1
  9
$MAXACTVP
 70
    64
  9
$PINSBASE
 10
0.0
 20
0.0
 30
0.0
  9
$PLIMCHECK
 70
     0
  9
$PEXTMIN
 10
1.000000000000000E+20
 20
1.000000000000000E+20
 30
1.000000000000000E+20
  9
$PEXTMAX
 10
-1.000000000000000E+20
 20
-1.000000000000000E+20
 30
-1.000000000000000E+20
  9
$PLIMMIN
 10
0.0
 20
0.0
  9
$PLIMMAX
 10
12.0
 20
9.0
  9
$UNITMODE
 70
     0
  9
$VISRETAIN
 70
     0
  9
$PLINEGEN
 70
     1
  9
$PSLTSCALE
 70
     0
  9
$TREEDEPTH
 70
  3020
  9
$CMLSTYLE
  2
Standard
  9
$CMLJUST
 70
     0
  9
$CMLSCALE
 40
1.0
  9
$PROXYGRAPHICS
 70
     0
  9
$MEASUREMENT
 70
     1
  9
$CELWEIGHT
370
    -1
  9
$ENDCAPS
280
     0
  9
$JOINSTYLE
280
     0
  9
$LWDISPLAY
290
     1
  9
$INSUNITS
 70
     4
  9
$HYPERLINKBASE
  1

  9
$STYLESHEET
  1

  9
$XEDIT
290
     1
  9
$CEPSNTYPE
380
     0
  9
$PSTYLEMODE
290
     1
  9
$FINGERPRINTGUID
  2
{6A85C4BD-480C-4B65-8BBB-864CB73F4874}
  9
$VERSIONGUID
  2
{FAEB1C32-E019-11D5-929B-00C0DF256EC4}
  9
$EXTNAMES
290
     1
  9
$PSVPSCALE
 40
0.0
  9
$OLESTARTUP
290
     0
  0
ENDSEC
  0
SECTION
  2
CLASSES
  0
CLASS
  1
ACDBDICTIONARYWDFLT
  2
AcDbDictionaryWithDefault
  3
ObjectDBX Classes
 90
        0
280
     0
281
     0
  0
CLASS
  1
VISUALSTYLE
  2
AcDbVisualStyle
  3
ObjectDBX Classes
 90
     4095
280
     0
281
     0
  0
CLASS
  1
MATERIAL
  2
AcDbMaterial
  3
ObjectDBX Classes
 90
     1153
280
     0
281
     0
  0
CLASS
  1
SCALE
  2
AcDbScale
  3
ObjectDBX Classes
 90
     1153
280
     0
281
     0
  0
CLASS
  1
DICTIONARYVAR
  2
AcDbDictionaryVar
  3
ObjectDBX Classes
 90
        0
280
     0
281
     0
  0
CLASS
  1
ACDBPLACEHOLDER
  2
AcDbPlaceHolder
  3
ObjectDBX Classes
 90
        0
280
     0
281
     0
  0
CLASS
  1
LAYOUT
  2
AcDbLayout
  3
ObjectDBX Classes
 90
        0
280
     0
281
     0
  0
ENDSEC
  0
SECTION
  2
TABLES
  0
TABLE
  2
VPORT
  5
8
330
0
100
AcDbSymbolTable
 70
     1
  0
VPORT
  5
29
330
8
100
AcDbSymbolTableRecord
100
AcDbViewportTableRecord
  2
*Active
 70
     0
 10
0.0
 20
0.0
 11
1.0
 21
1.0
 12
-4.79999735951424
 22
-11.29999825358391
 13
0.0
 23
0.0
 14
0.5
 24
0.5
 15
0.5
 25
0.5
 16
0.0
 26
0.0
 36
1.0
 17
0.0
 27
0.0
 37
0.0
 40
239.0880035626888
 41
1.511945392491467
 42
50.0
 43
0.0
 44
0.0
 50
0.0
 51
0.0
 71
     0
 72
  1000
 73
     1
 74
     1
 75
     0
 76
     0
 77
     0
 78
     0
281
     0
 65
     1
110
0.0
120
0.0
130
0.0
111
1.0
121
0.0
131
0.0
112
0.0
122
1.0
132
0.0
 79
     0
146
0.0
  0
ENDTAB
  0
TABLE
  2
LTYPE
  5
5
330
0
100
AcDbSymbolTable
 70
    53
  0
LTYPE
  5
14
330
5
100
AcDbSymbolTableRecord
100
AcDbLinetypeTableRecord
  2
ByBlock
 70
     0
  3

 72
    65
 73
     0
 40
0.0
  0
LTYPE
  5
15
330
5
100
AcDbSymbolTableRecord
100
AcDbLinetypeTableRecord
  2
ByLayer
 70
     0
  3

 72
    65
 73
     0
 40
0.0
  0
LTYPE
  5
16
330
5
100
AcDbSymbolTableRecord
100
AcDbLinetypeTableRecord
  2
Continuous
 70
     0
  3
Solid line
 72
    65
 73
     0
 40
0.0
  0
LTYPE
  5
40
330
5
100
AcDbSymbolTableRecord
100
AcDbLinetypeTableRecord
  2
HIDDENX2
 70
     0
  3
Hidden (2x) ____ ____ ____ ____ ____ ____ ____ 
 72
    65
 73
     2
 40
19.05
 49
12.7
 74
     0
 49
-6.35
 74
     0
  0
LTYPE
  5
41
330
5
100
AcDbSymbolTableRecord
100
AcDbLinetypeTableRecord
  2
HIDDEN
 70
     0
  3
Hidden __ __ __ __ __ __ __ __ __ __ __ __ __ __
 72
    65
 73
     2
 40
9.524999999999999
 49
6.35
 74
     0
 49
-3.175
 74
     0
  0
LTYPE
  5
42
330
5
100
AcDbSymbolTableRecord
100
AcDbLinetypeTableRecord
  2
HIDDEN2
 70
     0
  3
Hidden (.5x) _ _ _ _ _ _ _ _ _ _ _ _ _ _ _ _ _ 
 72
    65
 73
     2
 40
4.762499999999999
 49
3.175
 74
     0
 49
-1.5875
 74
     0
  0
LTYPE
  5
43
330
5
100
AcDbSymbolTableRecord
100
AcDbLinetypeTableRecord
  2
DASHED
 70
     0
  3
Dashed __ __ __ __ __ __ __ __ __ __ __ __ __ _
 72
    65
 73
     2
 40
19.05
 49
12.7
 74
     0
 49
-6.35
 74
     0
  0
LTYPE
  5
44
330
5
100
AcDbSymbolTableRecord
100
AcDbLinetypeTableRecord
  2
DASHED2
 70
     0
  3
Dashed (.5x) _ _ _ _ _ _ _ _ _ _ _ _ _ _ _ _ _ 
 72
    65
 73
     2
 40
9.524999999999999
 49
6.35
 74
     0
 49
-3.175
 74
     0
  0
LTYPE
  5
45
330
5
100
AcDbSymbolTableRecord
100
AcDbLinetypeTableRecord
  2
DASHEDX2
 70
     0
  3
Dashed (2x) ____  ____  ____  ____  ____  ___
 72
    65
 73
     2
 40
38.09999999999999
 49
25.4
 74
     0
 49
-12.7
 74
     0
  0
LTYPE
  5
46
330
5
100
AcDbSymbolTableRecord
100
AcDbLinetypeTableRecord
  2
DOTX2
 70
     0
  3
Dot (2x) .  .  .  .  .  .  .  .  .  .  .  .  .  .
 72
    65
 73
     2
 40
12.7
 49
0.0
 74
     0
 49
-12.7
 74
     0
  0
LTYPE
  5
47
330
5
100
AcDbSymbolTableRecord
100
AcDbLinetypeTableRecord
  2
DOT
 70
     0
  3
Dot . . . . . . . . . . . . . . . . . . . . . . . .
 72
    65
 73
     2
 40
6.35
 49
0.0
 74
     0
 49
-6.35
 74
     0
  0
LTYPE
  5
48
330
5
100
AcDbSymbolTableRecord
100
AcDbLinetypeTableRecord
  2
DOT2
 70
     0
  3
Dot (.5x) ........................................
 72
    65
 73
     2
 40
3.175
 49
0.0
 74
     0
 49
-3.175
 74
     0
  0
LTYPE
  5
49
330
5
100
AcDbSymbolTableRecord
100
AcDbLinetypeTableRecord
  2
CENTERX2
 70
     0
  3
Center (2x) ________  __  ________  __  _____
 72
    65
 73
     4
 40
101.6
 49
63.5
 74
     0
 49
-12.7
 74
     0
 49
12.7
 74
     0
 49
-12.7
 74
     0
  0
LTYPE
  5
4A
330
5
100
AcDbSymbolTableRecord
100
AcDbLinetypeTableRecord
  2
CENTER
 70
     0
  3
Center ____ _ ____ _ ____ _ ____ _ ____ _ ____
 72
    65
 73
     4
 40
50.8
 49
31.75
 74
     0
 49
-6.35
 74
     0
 49
6.35
 74
     0
 49
-6.35
 74
     0
  0
LTYPE
  5
4B
330
5
100
AcDbSymbolTableRecord
100
AcDbLinetypeTableRecord
  2
CENTER2
 70
     0
  3
Center (.5x) ___ _ ___ _ ___ _ ___ _ ___ _ ___
 72
    65
 73
     4
 40
28.575
 49
19.05
 74
     0
 49
-3.175
 74
     0
 49
3.175
 74
     0
 49
-3.175
 74
     0
  0
LTYPE
  5
4C
330
5
100
AcDbSymbolTableRecord
100
AcDbLinetypeTableRecord
  2
DASHDOTX2
 70
     0
  3
Dash dot (2x) ____  .  ____  .  ____  .  ___
 72
    65
 73
     4
 40
50.8
 49
25.4
 74
     0
 49
-12.7
 74
     0
 49
0.0
 74
     0
 49
-12.7
 74
     0
  0
LTYPE
  5
4D
330
5
100
AcDbSymbolTableRecord
100
AcDbLinetypeTableRecord
  2
DASHDOT
 70
     0
  3
Dash dot __ . __ . __ . __ . __ . __ . __ . __
 72
    65
 73
     4
 40
25.4
 49
12.7
 74
     0
 49
-6.35
 74
     0
 49
0.0
 74
     0
 49
-6.35
 74
     0
  0
LTYPE
  5
4E
330
5
100
AcDbSymbolTableRecord
100
AcDbLinetypeTableRecord
  2
DASHDOT2
 70
     0
  3
Dash dot (.5x) _._._._._._._._._._._._._._._.
 72
    65
 73
     4
 40
12.7
 49
6.35
 74
     0
 49
-3.175
 74
     0
 49
0.0
 74
     0
 49
-3.175
 74
     0
  0
LTYPE
  5
4F
330
5
100
AcDbSymbolTableRecord
100
AcDbLinetypeTableRecord
  2
DIVIDEX2
 70
     0
  3
Divide (2x) ________  .  .  ________  .  .  _
 72
    65
 73
     6
 40
63.5
 49
25.4
 74
     0
 49
-12.7
 74
     0
 49
0.0
 74
     0
 49
-12.7
 74
     0
 49
0.0
 74
     0
 49
-12.7
 74
     0
  0
LTYPE
  5
50
330
5
100
AcDbSymbolTableRecord
100
AcDbLinetypeTableRecord
  2
DIVIDE
 70
     0
  3
Divide ____ . . ____ . . ____ . . ____ . . ____
 72
    65
 73
     6
 40
31.75
 49
12.7
 74
     0
 49
-6.35
 74
     0
 49
0.0
 74
     0
 49
-6.35
 74
     0
 49
0.0
 74
     0
 49
-6.35
 74
     0
  0
LTYPE
  5
51
330
5
100
AcDbSymbolTableRecord
100
AcDbLinetypeTableRecord
  2
DIVIDE2
 70
     0
  3
Divide (.5x) __..__..__..__..__..__..__..__.._
 72
    65
 73
     6
 40
15.875
 49
6.35
 74
     0
 49
-3.175
 74
     0
 49
0.0
 74
     0
 49
-3.175
 74
     0
 49
0.0
 74
     0
 49
-3.175
 74
     0
  0
LTYPE
  5
52
330
5
100
AcDbSymbolTableRecord
100
AcDbLinetypeTableRecord
  2
BORDERX2
 70
     0
  3
Border (2x) ____  ____  .  ____  ____  .  ___
 72
    65
 73
     6
 40
88.89999999999999
 49
25.4
 74
     0
 49
-12.7
 74
     0
 49
25.4
 74
     0
 49
-12.7
 74
     0
 49
0.0
 74
     0
 49
-12.7
 74
     0
  0
LTYPE
  5
53
330
5
100
AcDbSymbolTableRecord
100
AcDbLinetypeTableRecord
  2
BORDER
 70
     0
  3
Border __ __ . __ __ . __ __ . __ __ . __ __ .
 72
    65
 73
     6
 40
44.45
 49
12.7
 74
     0
 49
-6.35
 74
     0
 49
12.7
 74
     0
 49
-6.35
 74
     0
 49
0.0
 74
     0
 49
-6.35
 74
     0
  0
LTYPE
  5
54
330
5
100
AcDbSymbolTableRecord
100
AcDbLinetypeTableRecord
  2
BORDER2
 70
     0
  3
Border (.5x) __.__.__.__.__.__.__.__.__.__.__.
 72
    65
 73
     6
 40
22.225
 49
6.35
 74
     0
 49
-3.175
 74
     0
 49
6.35
 74
     0
 49
-3.175
 74
     0
 49
0.0
 74
     0
 49
-3.175
 74
     0
  0
LTYPE
  5
55
330
5
100
AcDbSymbolTableRecord
100
AcDbLinetypeTableRecord
  2
PHANTOMX2
 70
     0
  3
Phantom (2x) ____________    ____    ____   _
 72
    65
 73
     6
 40
127.0
 49
63.5
 74
     0
 49
-12.7
 74
     0
 49
12.7
 74
     0
 49
-12.7
 74
     0
 49
12.7
 74
     0
 49
-12.7
 74
     0
  0
LTYPE
  5
56
330
5
100
AcDbSymbolTableRecord
100
AcDbLinetypeTableRecord
  2
PHANTOM
 70
     0
  3
Phantom ______  __  __  ______  __  __  ______ 
 72
    65
 73
     6
 40
63.5
 49
31.75
 74
     0
 49
-6.35
 74
     0
 49
6.35
 74
     0
 49
-6.35
 74
     0
 49
6.35
 74
     0
 49
-6.35
 74
     0
  0
LTYPE
  5
57
330
5
100
AcDbSymbolTableRecord
100
AcDbLinetypeTableRecord
  2
PHANTOM2
 70
     0
  3
Phantom (.5x) ___ _ _ ___ _ _ ___ _ _ ___ _ _
 72
    65
 73
     6
 40
31.75
 49
15.875
 74
     0
 49
-3.175
 74
     0
 49
3.175
 74
     0
 49
-3.175
 74
     0
 49
3.175
 74
     0
 49
-3.175
 74
     0
  0
LTYPE
  5
58
330
5
100
AcDbSymbolTableRecord
100
AcDbLinetypeTableRecord
  2
ACAD_ISO06W100
 70
     0
  3
ISO long-dash triple-dot ____ ... ____ ... ____
 72
    65
 73
     8
 40
36.0
 49
24.0
 74
     0
 49
-3.0
 74
     0
 49
0.0
 74
     0
 49
-3.0
 74
     0
 49
0.0
 74
     0
 49
-3.0
 74
     0
 49
0.0
 74
     0
 49
-3.0
 74
     0
  0
LTYPE
  5
59
330
5
100
AcDbSymbolTableRecord
100
AcDbLinetypeTableRecord
  2
ACAD_ISO13W100
 70
     0
  3
ISO double-dash double-dot __ __ . . __ __ . . _
 72
    65
 73
     8
 40
36.0
 49
12.0
 74
     0
 49
-3.0
 74
     0
 49
12.0
 74
     0
 49
-3.0
 74
     0
 49
0.0
 74
     0
 49
-3.0
 74
     0
 49
0.0
 74
     0
 49
-3.0
 74
     0
  0
LTYPE
  5
5A
330
5
100
AcDbSymbolTableRecord
100
AcDbLinetypeTableRecord
  2
ACAD_ISO14W100
 70
     0
  3
ISO dash triple-dot __ . . . __ . . . __ . . . _
 72
    65
 73
     8
 40
24.0
 49
12.0
 74
     0
 49
-3.0
 74
     0
 49
0.0
 74
     0
 49
-3.0
 74
     0
 49
0.0
 74
     0
 49
-3.0
 74
     0
 49
0.0
 74
     0
 49
-3.0
 74
     0
  0
LTYPE
  5
5B
330
5
100
AcDbSymbolTableRecord
100
AcDbLinetypeTableRecord
  2
ACAD_ISO02W100
 70
     0
  3
ISO dash __ __ __ __ __ __ __ __ __ __ __ __ __
 72
    65
 73
     2
 40
15.0
 49
12.0
 74
     0
 49
-3.0
 74
     0
  0
LTYPE
  5
5C
330
5
100
AcDbSymbolTableRecord
100
AcDbLinetypeTableRecord
  2
ACAD_ISO03W100
 70
     0
  3
ISO dash space __    __    __    __    __    __
 72
    65
 73
     2
 40
30.0
 49
12.0
 74
     0
 49
-18.0
 74
     0
  0
LTYPE
  5
5D
330
5
100
AcDbSymbolTableRecord
100
AcDbLinetypeTableRecord
  2
ACAD_ISO04W100
 70
     0
  3
ISO long-dash dot ____ . ____ . ____ . ____ . _
 72
    65
 73
     4
 40
30.0
 49
24.0
 74
     0
 49
-3.0
 74
     0
 49
0.0
 74
     0
 49
-3.0
 74
     0
  0
LTYPE
  5
5E
330
5
100
AcDbSymbolTableRecord
100
AcDbLinetypeTableRecord
  2
ACAD_ISO05W100
 70
     0
  3
ISO long-dash double-dot ____ .. ____ .. ____ . 
 72
    65
 73
     6
 40
33.0
 49
24.0
 74
     0
 49
-3.0
 74
     0
 49
0.0
 74
     0
 49
-3.0
 74
     0
 49
0.0
 74
     0
 49
-3.0
 74
     0
  0
LTYPE
  5
5F
330
5
100
AcDbSymbolTableRecord
100
AcDbLinetypeTableRecord
  2
ACAD_ISO07W100
 70
     0
  3
ISO dot . . . . . . . . . . . . . . . . . . . . 
 72
    65
 73
     2
 40
3.0
 49
0.0
 74
     0
 49
-3.0
 74
     0
  0
LTYPE
  5
60
330
5
100
AcDbSymbolTableRecord
100
AcDbLinetypeTableRecord
  2
ACAD_ISO08W100
 70
     0
  3
ISO long-dash short-dash ____ __ ____ __ ____ _
 72
    65
 73
     4
 40
36.0
 49
24.0
 74
     0
 49
-3.0
 74
     0
 49
6.0
 74
     0
 49
-3.0
 74
     0
  0
LTYPE
  5
61
330
5
100
AcDbSymbolTableRecord
100
AcDbLinetypeTableRecord
  2
ACAD_ISO09W100
 70
     0
  3
ISO long-dash double-short-dash ____ __ __ ____
 72
    65
 73
     6
 40
45.0
 49
24.0
 74
     0
 49
-3.0
 74
     0
 49
6.0
 74
     0
 49
-3.0
 74
     0
 49
6.0
 74
     0
 49
-3.0
 74
     0
  0
LTYPE
  5
62
330
5
100
AcDbSymbolTableRecord
100
AcDbLinetypeTableRecord
  2
ACAD_ISO10W100
 70
     0
  3
ISO dash dot __ . __ . __ . __ . __ . __ . __ . 
 72
    65
 73
     4
 40
18.0
 49
12.0
 74
     0
 49
-3.0
 74
     0
 49
0.0
 74
     0
 49
-3.0
 74
     0
  0
LTYPE
  5
63
330
5
100
AcDbSymbolTableRecord
100
AcDbLinetypeTableRecord
  2
ACAD_ISO11W100
 70
     0
  3
ISO double-dash dot __ __ . __ __ . __ __ . __ _
 72
    65
 73
     6
 40
33.0
 49
12.0
 74
     0
 49
-3.0
 74
     0
 49
12.0
 74
     0
 49
-3.0
 74
     0
 49
0.0
 74
     0
 49
-3.0
 74
     0
  0
LTYPE
  5
64
330
5
100
AcDbSymbolTableRecord
100
AcDbLinetypeTableRecord
  2
ACAD_ISO12W100
 70
     0
  3
ISO dash double-dot __ . . __ . . __ . . __ . . 
 72
    65
 73
     6
 40
21.0
 49
12.0
 74
     0
 49
-3.0
 74
     0
 49
0.0
 74
     0
 49
-3.0
 74
     0
 49
0.0
 74
     0
 49
-3.0
 74
     0
  0
LTYPE
  5
65
330
5
100
AcDbSymbolTableRecord
100
AcDbLinetypeTableRecord
  2
ACAD_ISO15W100
 70
     0
  3
ISO double-dash triple-dot __ __ . . . __ __ . .
 72
    65
 73
    10
 40
39.0
 49
12.0
 74
     0
 49
-3.0
 74
     0
 49
12.0
 74
     0
 49
-3.0
 74
     0
 49
0.0
 74
     0
 49
-3.0
 74
     0
 49
0.0
 74
     0
 49
-3.0
 74
     0
 49
0.0
 74
     0
 49
-3.0
 74
     0
  0
LTYPE
  5
66
330
5
100
AcDbSymbolTableRecord
100
AcDbLinetypeTableRecord
  2
JIS_02_0.7
 70
     0
  3
HIDDEN0.75 _ _ _ _ _ _ _ _ _ _ _ _ _ _ _ _ _ 
 72
    65
 73
     2
 40
1.35
 49
0.75
 74
     0
 49
-0.6
 74
     0
  0
LTYPE
  5
67
330
5
100
AcDbSymbolTableRecord
100
AcDbLinetypeTableRecord
  2
JIS_02_1.0
 70
     0
  3
HIDDEN01 _ _ _ _ _ _ _ _ _ _ _ _ _ _ _ _ _ 
 72
    65
 73
     2
 40
2.0
 49
1.0
 74
     0
 49
-1.0
 74
     0
  0
LTYPE
  5
68
330
5
100
AcDbSymbolTableRecord
100
AcDbLinetypeTableRecord
  2
JIS_02_1.2
 70
     0
  3
HIDDEN01.25  _ _ _ _ _ _ _ _ _ _ _ _ _ _ _ _ _ 
 72
    65
 73
     2
 40
2.5
 49
1.25
 74
     0
 49
-1.25
 74
     0
  0
LTYPE
  5
69
330
5
100
AcDbSymbolTableRecord
100
AcDbLinetypeTableRecord
  2
JIS_02_2.0
 70
     0
  3
HIDDEN02 __ __ __ __ __ __ __ __ __ __ __ 
 72
    65
 73
     2
 40
3.0
 49
2.0
 74
     0
 49
-1.0
 74
     0
  0
LTYPE
  5
6A
330
5
100
AcDbSymbolTableRecord
100
AcDbLinetypeTableRecord
  2
JIS_02_4.0
 70
     0
  3
HIDDEN04 ____ ____ ____ ____ ____ ____ ____ 
 72
    65
 73
     2
 40
5.5
 49
4.0
 74
     0
 49
-1.5
 74
     0
  0
LTYPE
  5
6B
330
5
100
AcDbSymbolTableRecord
100
AcDbLinetypeTableRecord
  2
JIS_08_11
 70
     0
  3
1SASEN11 ___ _ ___ _ ___ _ ___ _ ___ _ ___
 72
    65
 73
     4
 40
12.8
 49
11.0
 74
     0
 49
-0.6
 74
     0
 49
0.6
 74
     0
 49
-0.6
 74
     0
  0
LTYPE
  5
6C
330
5
100
AcDbSymbolTableRecord
100
AcDbLinetypeTableRecord
  2
JIS_08_15
 70
     0
  3
1SASEN15 ____ _ ____ _ ____ _ ____ _ ____ 
 72
    65
 73
     4
 40
17.25
 49
15.0
 74
     0
 49
-0.75
 74
     0
 49
0.75
 74
     0
 49
-0.75
 74
     0
  0
LTYPE
  5
6D
330
5
100
AcDbSymbolTableRecord
100
AcDbLinetypeTableRecord
  2
JIS_08_25
 70
     0
  3
1SASEN25 ________  __  ________  __  _____
 72
    65
 73
     4
 40
28.0
 49
25.0
 74
     0
 49
-1.125
 74
     0
 49
0.75
 74
     0
 49
-1.125
 74
     0
  0
LTYPE
  5
6E
330
5
100
AcDbSymbolTableRecord
100
AcDbLinetypeTableRecord
  2
JIS_08_37
 70
     0
  3
1SASEN37 ________  __  ________  __  _____
 72
    65
 73
     4
 40
40.5
 49
37.5
 74
     0
 49
-1.125
 74
     0
 49
0.75
 74
     0
 49
-1.125
 74
     0
  0
LTYPE
  5
6F
330
5
100
AcDbSymbolTableRecord
100
AcDbLinetypeTableRecord
  2
JIS_08_50
 70
     0
  3
1SASEN50 _______________  __  ____________
 72
    65
 73
     4
 40
53.0
 49
50.0
 74
     0
 49
-1.125
 74
     0
 49
0.75
 74
     0
 49
-1.125
 74
     0
  0
LTYPE
  5
70
330
5
100
AcDbSymbolTableRecord
100
AcDbLinetypeTableRecord
  2
JIS_09_08
 70
     0
  3
2SASEN8 __ _ _ __ _ _ __ _ _ __ _ _ __ _ _ 
 72
    65
 73
     6
 40
10.75
 49
8.0
 74
     0
 49
-0.55
 74
     0
 49
0.55
 74
     0
 49
-0.55
 74
     0
 49
0.55
 74
     0
 49
-0.55
 74
     0
  0
LTYPE
  5
71
330
5
100
AcDbSymbolTableRecord
100
AcDbLinetypeTableRecord
  2
JIS_09_15
 70
     0
  3
2SASEN15 ___ _ _ ___ _ _ ___ _ _ ___ _ _ ___ 
 72
    65
 73
     6
 40
18.9
 49
15.0
 74
     0
 49
-0.9
 74
     0
 49
0.6
 74
     0
 49
-0.9
 74
     0
 49
0.6
 74
     0
 49
-0.9
 74
     0
  0
LTYPE
  5
72
330
5
100
AcDbSymbolTableRecord
100
AcDbLinetypeTableRecord
  2
JIS_09_29
 70
     0
  3
2SASEN29 ______　__  __  ______　__  __  ___
 72
    65
 73
     6
 40
34.0
 49
29.0
 74
     0
 49
-1.2
 74
     0
 49
0.7
 74
     0
 49
-1.2
 74
     0
 49
0.7
 74
     0
 49
-1.2
 74
     0
  0
LTYPE
  5
73
330
5
100
AcDbSymbolTableRecord
100
AcDbLinetypeTableRecord
  2
JIS_09_50
 70
     0
  3
2SASEN50 ____________　__  __  _____________
 72
    65
 73
     6
 40
55.0
 49
50.0
 74
     0
 49
-1.2
 74
     0
 49
0.7
 74
     0
 49
-1.2
 74
     0
 49
0.7
 74
     0
 49
-1.2
 74
     0
  0
ENDTAB
  0
TABLE
  2
LAYER
  5
2
330
0
100
AcDbSymbolTable
 70
     5
  0
LAYER
  5
10
330
2
100
AcDbSymbolTableRecord
100
AcDbLayerTableRecord
  2
0
 70
     0
 62
     7
  6
Continuous
370
    -3
390
F
  0
LAYER
  5
74
330
2
100
AcDbSymbolTableRecord
100
AcDbLayerTableRecord
  2
16
 70
     0
 62
     7
  6
Continuous
370
    -3
390
F
  0
LAYER
  5
75
330
2
100
AcDbSymbolTableRecord
100
AcDbLayerTableRecord
  2
19
 70
     0
 62
     7
  6
Continuous
370
    -3
390
F
  0
LAYER
  5
76
330
2
100
AcDbSymbolTableRecord
100
AcDbLayerTableRecord
  2
22
 70
     0
 62
     7
  6
Continuous
370
    -3
390
F
  0
LAYER
  5
77
330
2
100
AcDbSymbolTableRecord
100
AcDbLayerTableRecord
  2
32
 70
     0
 62
     7
  6
Continuous
370
    -3
390
F
  0
ENDTAB
  0
TABLE
  2
STYLE
  5
3
330
0
100
AcDbSymbolTable
 70
     2
  0
STYLE
  5
11
330
3
100
AcDbSymbolTableRecord
100
AcDbTextStyleTableRecord
  2
Standard
 70
     0
 40
0.0
 41
1.0
 50
0.0
 71
     0
 42
0.2
  3
txt.shx
  4
bigfont.shx
  0
STYLE
  5
9B
330
3
100
AcDbSymbolTableRecord
100
AcDbTextStyleTableRecord
  2
dcStyle0
 70
     0
 40
0.0
 41
0.8333333354938274
 50
0.0
 71
     0
 42
0.2
  3
txt.shx
  4
bigfont
  0
ENDTAB
  0
TABLE
  2
VIEW
  5
6
330
0
100
AcDbSymbolTable
 70
     0
  0
ENDTAB
  0
TABLE
  2
UCS
  5
7
330
0
100
AcDbSymbolTable
 70
     0
  0
ENDTAB
  0
TABLE
  2
APPID
  5
9
330
0
100
AcDbSymbolTable
 70
     2
  0
APPID
  5
12
330
9
100
AcDbSymbolTableRecord
100
AcDbRegAppTableRecord
  2
ACAD
 70
     0
  0
APPID
  5
3F
330
9
100
AcDbSymbolTableRecord
100
AcDbRegAppTableRecord
  2
DaFusionOut
 70
     0
  0
ENDTAB
  0
TABLE
  2
DIMSTYLE
  5
A
330
0
100
AcDbSymbolTable
 70
     1
100
AcDbDimStyleTable
  0
DIMSTYLE
105
27
330
A
100
AcDbSymbolTableRecord
100
AcDbDimStyleTableRecord
  2
Standard
 70
     0
178
     0
340
11
  0
ENDTAB
  0
TABLE
  2
BLOCK_RECORD
  5
1
330
0
100
AcDbSymbolTable
 70
     1
  0
BLOCK_RECORD
  5
1F
330
1
100
AcDbSymbolTableRecord
100
AcDbBlockTableRecord
  2
*Model_Space
340
22
  0
BLOCK_RECORD
  5
1B
330
1
100
AcDbSymbolTableRecord
100
AcDbBlockTableRecord
  2
*Paper_Space
340
1E
  0
BLOCK_RECORD
  5
23
330
1
100
AcDbSymbolTableRecord
100
AcDbBlockTableRecord
  2
*Paper_Space0
340
26
  0
ENDTAB
  0
ENDSEC
  0
SECTION
  2
BLOCKS
  0
BLOCK
  5
20
330
1F
100
AcDbEntity
  8
0
100
AcDbBlockBegin
  2
*Model_Space
 70
     0
 10
0.0
 20
0.0
 30
0.0
  3
*Model_Space
  1

  0
ENDBLK
  5
21
330
1F
100
AcDbEntity
  8
0
100
AcDbBlockEnd
  0
BLOCK
  5
1C
330
1B
100
AcDbEntity
 67
     1
  8
0
100
AcDbBlockBegin
  2
*Paper_Space
 70
     0
 10
0.0
 20
0.0
 30
0.0
  3
*Paper_Space
  1

  0
ENDBLK
  5
1D
330
1B
100
AcDbEntity
 67
     1
  8
0
100
AcDbBlockEnd
  0
BLOCK
  5
24
330
23
100
AcDbEntity
  8
0
100
AcDbBlockBegin
  2
*Paper_Space0
 70
     0
 10
0.0
 20
0.0
 30
0.0
  3
*Paper_Space0
  1

  0
ENDBLK
  5
25
330
23
100
AcDbEntity
  8
0
100
AcDbBlockEnd
  0
ENDSEC
  0
SECTION
  2
ENTITIES
  0
LINE
  5
79
330
1F
100
AcDbEntity
  8
0
  6
Continuous
 62
   150
370
    25
100
AcDbLine
 10
-173.5999998748302
 20
-114.0999997854233
 30
0.0
 11
-173.5999998748302
 21
105.9000034928322
 31
0.0
  0
LINE
  5
7A
330
1F
100
AcDbEntity
  8
0
  6
Continuous
 62
   150
370
    25
100
AcDbLine
 10
-173.5999998748302
 20
105.9000034928322
 30
0.0
 11
172.4000052809715
 21
105.9000034928322
 31
0.0
  0
LINE
  5
7B
330
1F
100
AcDbEntity
  8
0
  6
Continuous
 62
   150
370
    25
100
AcDbLine
 10
172.4000052809715
 20
105.9000034928322
 30
0.0
 11
172.4000052809715
 21
-114.0999997854233
 31
0.0
  0
LINE
  5
7C
330
1F
100
AcDbEntity
  8
0
  6
Continuous
 62
   150
370
    25
100
AcDbLine
 10
172.4000052809715
 20
-114.0999997854233
 30
0.0
 11
-173.5999998748302
 21
-114.0999997854233
 31
0.0
  0
LINE
  5
7D
330
1F
100
AcDbEntity
  8
0
  6
Continuous
 62
   150
370
    25
100
AcDbLine
 10
172.4000052809715
 20
-84.09999933838844
 30
0.0
 11
10.40000286698341
 21
-84.09999933838844
 31
0.0
  0
LINE
  5
7E
330
1F
100
AcDbEntity
  8
0
  6
Continuous
 62
   150
370
    25
100
AcDbLine
 10
10.40000286698341
 20
-84.09999933838844
 30
0.0
 11
10.40000286698341
 21
-114.0999997854233
 31
0.0
  0
LINE
  5
7F
330
1F
100
AcDbEntity
  8
0
  6
Continuous
 62
   150
370
    25
100
AcDbLine
 10
10.40000286698341
 20
-97.09999953210354
 30
0.0
 11
96.40000414848328
 21
-97.09999953210354
 31
0.0
  0
LINE
  5
80
330
1F
100
AcDbEntity
  8
0
  6
Continuous
 62
   150
370
    25
100
AcDbLine
 10
96.40000414848328
 20
-88.59999940544367
 30
0.0
 11
10.40000286698341
 21
-88.59999940544367
 31
0.0
  0
LINE
  5
81
330
1F
100
AcDbEntity
  8
0
  6
Continuous
 62
   150
370
    25
100
AcDbLine
 10
23.40000306069851
 20
-84.09999933838844
 30
0.0
 11
23.40000306069851
 21
-97.09999953210354
 31
0.0
  0
LINE
  5
82
330
1F
100
AcDbEntity
  8
0
  6
Continuous
 62
   150
370
    25
100
AcDbLine
 10
36.4000032544136
 20
-97.09999953210354
 30
0.0
 11
36.4000032544136
 21
-84.09999933838844
 31
0.0
  0
LINE
  5
83
330
1F
100
AcDbEntity
  8
0
  6
Continuous
 62
   150
370
    25
100
AcDbLine
 10
49.4000034481287
 20
-84.09999933838844
 30
0.0
 11
49.4000034481287
 21
-97.09999953210354
 31
0.0
  0
LINE
  5
84
330
1F
100
AcDbEntity
  8
0
  6
Continuous
 62
   150
370
    25
100
AcDbLine
 10
75.40000383555889
 20
-97.09999953210354
 30
0.0
 11
75.40000383555889
 21
-84.09999933838844
 31
0.0
  0
LINE
  5
85
330
1F
100
AcDbEntity
  8
0
  6
Continuous
 62
   150
370
    25
100
AcDbLine
 10
96.40000414848328
 20
-84.09999933838844
 30
0.0
 11
96.40000414848328
 21
-114.0999997854233
 31
0.0
  0
LINE
  5
86
330
1F
100
AcDbEntity
  8
0
  6
Continuous
 62
   150
370
    25
100
AcDbLine
 10
101.4000042229891
 20
-114.0999997854233
 30
0.0
 11
101.4000042229891
 21
-100.5999995842576
 31
0.0
  0
LINE
  5
87
330
1F
100
AcDbEntity
  8
0
  6
Continuous
 62
   150
370
    25
100
AcDbLine
 10
96.40000414848328
 20
-100.5999995842576
 30
0.0
 11
172.4000052809715
 21
-100.5999995842576
 31
0.0
  0
LINE
  5
88
330
1F
100
AcDbEntity
  8
0
  6
Continuous
 62
   150
370
    25
100
AcDbLine
 10
168.4000052213669
 20
-94.59999949485064
 30
0.0
 11
100.4000042080879
 21
-94.59999949485064
 31
0.0
  0
LINE
  5
89
330
1F
100
AcDbEntity
  8
0
  6
Continuous
 62
   150
370
    25
100
AcDbLine
 10
19.40000300109386
 20
-109.1999997124076
 30
0.0
 11
23.90000306814909
 21
-106.6999996751547
 31
0.0
  0
LINE
  5
8A
330
1F
100
AcDbEntity
  8
0
  6
Continuous
 62
   150
370
    25
100
AcDbLine
 10
23.90000306814909
 20
-106.6999996751547
 30
0.0
 11
28.40000313520432
 21
-109.1999997124076
 31
0.0
  0
LINE
  5
8B
330
1F
100
AcDbEntity
  8
0
  6
Continuous
 62
   150
370
    25
100
AcDbLine
 10
28.40000313520432
 20
-109.1999997124076
 30
0.0
 11
23.90000306814909
 21
-111.6999997496605
 31
0.0
  0
LINE
  5
8C
330
1F
100
AcDbEntity
  8
0
  6
Continuous
 62
   150
370
    25
100
AcDbLine
 10
23.90000306814909
 20
-111.6999997496605
 30
0.0
 11
19.40000300109386
 21
-109.1999997124076
 31
0.0
  0
LINE
  5
8D
330
1F
100
AcDbEntity
  8
0
  6
Continuous
 62
   150
370
    25
100
AcDbLine
 10
23.40000306069851
 20
-107.6999996900558
 30
0.0
 11
24.40000307559967
 21
-107.6999996900558
 31
0.0
  0
LINE
  5
8E
330
1F
100
AcDbEntity
  8
0
  6
Continuous
 62
   150
370
    25
100
AcDbLine
 10
24.40000307559967
 20
-107.6999996900558
 30
0.0
 11
24.40000307559967
 21
-110.6999997347593
 31
0.0
  0
LINE
  5
8F
330
1F
100
AcDbEntity
  8
0
  6
Continuous
 62
   150
370
    25
100
AcDbLine
 10
24.40000307559967
 20
-110.6999997347593
 30
0.0
 11
23.40000306069851
 21
-110.6999997347593
 31
0.0
  0
LINE
  5
90
330
1F
100
AcDbEntity
  8
0
  6
Continuous
 62
   150
370
    25
100
AcDbLine
 10
23.40000306069851
 20
-110.6999997347593
 30
0.0
 11
23.40000306069851
 21
-107.6999996900558
 31
0.0
  0
LINE
  5
91
330
1F
100
AcDbEntity
  8
0
  6
Continuous
 62
   150
370
    25
100
AcDbLine
 10
23.40000306069851
 20
-107.6999996900558
 30
0.0
 11
23.60000306367874
 21
-107.6999996900558
 31
0.0
  0
LINE
  5
92
330
1F
100
AcDbEntity
  8
0
  6
Continuous
 62
   150
370
    25
100
AcDbLine
 10
23.60000306367874
 20
-107.6999996900558
 30
0.0
 11
23.60000306367874
 21
-110.6999997347593
 31
0.0
  0
LINE
  5
93
330
1F
100
AcDbEntity
  8
0
  6
Continuous
 62
   150
370
    25
100
AcDbLine
 10
23.60000306367874
 20
-110.6999997347593
 30
0.0
 11
23.80000306665897
 21
-110.6999997347593
 31
0.0
  0
LINE
  5
94
330
1F
100
AcDbEntity
  8
0
  6
Continuous
 62
   150
370
    25
100
AcDbLine
 10
23.80000306665897
 20
-110.6999997347593
 30
0.0
 11
23.80000306665897
 21
-107.6999996900558
 31
0.0
  0
LINE
  5
95
330
1F
100
AcDbEntity
  8
0
  6
Continuous
 62
   150
370
    25
100
AcDbLine
 10
23.80000306665897
 20
-107.6999996900558
 30
0.0
 11
24.00000306963921
 21
-107.6999996900558
 31
0.0
  0
LINE
  5
96
330
1F
100
AcDbEntity
  8
0
  6
Continuous
 62
   150
370
    25
100
AcDbLine
 10
24.00000306963921
 20
-107.6999996900558
 30
0.0
 11
24.00000306963921
 21
-110.6999997347593
 31
0.0
  0
LINE
  5
97
330
1F
100
AcDbEntity
  8
0
  6
Continuous
 62
   150
370
    25
100
AcDbLine
 10
24.00000306963921
 20
-110.6999997347593
 30
0.0
 11
24.20000307261944
 21
-110.6999997347593
 31
0.0
  0
LINE
  5
98
330
1F
100
AcDbEntity
  8
0
  6
Continuous
 62
   150
370
    25
100
AcDbLine
 10
24.20000307261944
 20
-110.6999997347593
 30
0.0
 11
24.20000307261944
 21
-107.6999996900558
 31
0.0
  0
LINE
  5
99
330
1F
100
AcDbEntity
  8
0
  6
Continuous
 62
   150
370
    25
100
AcDbLine
 10
24.20000307261944
 20
-107.6999996900558
 30
0.0
 11
24.40000307559967
 21
-107.6999996900558
 31
0.0
  0
LINE
  5
9A
330
1F
100
AcDbEntity
  8
0
  6
Continuous
 62
   150
370
    25
100
AcDbLine
 10
24.40000307559967
 20
-107.6999996900558
 30
0.0
 11
24.40000307559967
 21
-110.6999997347593
 31
0.0
  0
TEXT
  5
9C
330
1F
100
AcDbEntity
  8
0
 62
   150
100
AcDbText
 10
12.4000029
 20
-87.8999994
 30
0.0
 40
3.0
  1
担　当
 41
0.8333333354938274
  7
dcStyle0
 72
     5
 11
21.40000304
 21
-87.8999994
 31
0.0
100
AcDbText
  0
TEXT
  5
9D
330
1F
100
AcDbEntity
  8
0
 62
   150
100
AcDbText
 10
25.40000309
 20
-87.8999994
 30
0.0
 40
3.0
  1
製　図
 41
0.833333335493827
  7
dcStyle0
 72
     5
 11
34.40000323
 21
-87.8999994
 31
0.0
100
AcDbText
  0
TEXT
  5
9E
330
1F
100
AcDbEntity
  8
0
 62
   150
100
AcDbText
 10
38.40000328
 20
-87.8999994
 30
0.0
 40
3.0
  1
検　図
 41
0.833333335493827
  7
dcStyle0
 72
     5
 11
47.40000342
 21
-87.8999994
 31
0.0
100
AcDbText
  0
TEXT
  5
9F
330
1F
100
AcDbEntity
  8
0
 62
   150
100
AcDbText
 10
56.40000355
 20
-87.8999994
 30
0.0
 40
3.0
  1
尺　　度
 41
0.8333333354166672
  7
dcStyle0
 72
     5
 11
68.40000373000001
 21
-87.8999994
 31
0.0
100
AcDbText
  0
TEXT
  5
A0
330
1F
100
AcDbEntity
  8
0
 62
   150
100
AcDbText
 10
79.9000039
 20
-87.8999994
 30
0.0
 40
3.0
  1
作　　図
 41
0.8333333354166668
  7
dcStyle0
 72
     5
 11
91.90000408
 21
-87.8999994
 31
0.0
100
AcDbText
  0
TEXT
  5
A1
330
1F
100
AcDbEntity
  8
0
 62
   150
100
AcDbText
 10
97.40000416
 20
-87.8999994
 30
0.0
 40
3.0
  1
工事名
 41
0.833333335493827
  7
dcStyle0
 72
     5
 11
106.4000043
 21
-87.8999994
 31
0.0
100
AcDbText
  0
TEXT
  5
A2
330
1F
100
AcDbEntity
  8
0
 62
   150
100
AcDbText
 10
97.40000416
 20
-99.39999957
 30
0.0
 40
2.5
  1
図面番号
 41
0.8333333354166671
  7
dcStyle0
 72
     5
 11
107.40000431
 21
-99.39999957
 31
0.0
100
AcDbText
  0
TEXT
  5
A3
330
1F
100
AcDbEntity
  8
0
 62
   150
100
AcDbText
 10
97.40000416
 20
-104.09999964
 30
0.0
 40
2.5
  1
図
 41
0.8333333333333334
  7
dcStyle0
 72
     5
 11
99.90000416
 21
-104.09999964
 31
0.0
100
AcDbText
  0
TEXT
  5
A4
330
1F
100
AcDbEntity
  8
0
 62
   150
100
AcDbText
 10
97.40000416
 20
-107.09999968
 30
0.0
 40
2.5
  1
面
 41
0.8333333333333334
  7
dcStyle0
 72
     5
 11
99.90000416
 21
-107.09999968
 31
0.0
100
AcDbText
  0
TEXT
  5
A5
330
1F
100
AcDbEntity
  8
0
 62
   150
100
AcDbText
 10
97.40000416
 20
-110.09999973
 30
0.0
 40
2.5
  1
名
 41
0.8333333333333334
  7
dcStyle0
 72
     5
 11
99.90000416
 21
-110.09999973
 31
0.0
100
AcDbText
  0
TEXT
  5
A6
330
1F
100
AcDbEntity
  8
0
 62
   150
100
AcDbText
 10
97.40000416
 20
-113.09999977
 30
0.0
 40
2.5
  1
称
 41
0.8333333333333334
  7
dcStyle0
 72
     5
 11
99.90000416
 21
-113.09999977
 31
0.0
100
AcDbText
  0
TEXT
  5
A7
330
1F
100
AcDbEntity
  8
0
 62
   150
100
AcDbText
 10
80.60000391
 20
-94.09999949
 30
0.0
 40
2.5
  1
年
 41
0.8333333333333334
  7
dcStyle0
 72
     5
 11
83.10000391
 21
-94.09999949
 31
0.0
100
AcDbText
  0
TEXT
  5
A8
330
1F
100
AcDbEntity
  8
0
 62
   150
100
AcDbText
 10
87.10000401
 20
-94.09999949
 30
0.0
 40
2.5
  1
月
 41
0.8333333333333334
  7
dcStyle0
 72
     5
 11
89.60000401
 21
-94.09999949
 31
0.0
100
AcDbText
  0
TEXT
  5
A9
330
1F
100
AcDbEntity
  8
0
 62
   150
100
AcDbText
 10
93.60000411
 20
-94.09999949
 30
0.0
 40
2.5
  1
日
 41
0.8333333333333334
  7
dcStyle0
 72
     5
 11
96.10000411
 21
-94.09999949
 31
0.0
100
AcDbText
  0
TEXT
  5
AA
330
1F
100
AcDbEntity
  8
0
 62
   222
100
AcDbText
 10
24.90000308
 20
-103.89999963
 30
0.0
 40
4.0
  1
タイヘイグレーチング
 41
1.041666666041667
  7
dcStyle0
 72
     5
 11
74.90000380000001
 21
-103.89999963
 31
0.0
100
AcDbText
  0
TEXT
  5
AB
330
1F
100
AcDbEntity
  8
0
 62
   222
100
AcDbText
 10
30.15000316
 20
-111.39999975
 30
0.0
 40
5.0
  1
石田鉄工株式会社
 41
0.8461538481952661
  7
dcStyle0
 72
     5
 11
74.15000384999999
 21
-111.39999975
 31
0.0
100
AcDbText
  0
LINE
  5
AC
330
1F
100
AcDbEntity
  8
22
  6
Continuous
 62
     2
370
    25
100
AcDbLine
 10
-182.0
 20
-128.5
 30
0.0
 11
-178.9999999552965
 21
-128.5
 31
0.0
  0
LINE
  5
AD
330
1F
100
AcDbEntity
  8
22
  6
Continuous
 62
     2
370
    25
100
AcDbLine
 10
-178.9999999552965
 20
-128.5
 30
0.0
 11
-178.9999999552965
 21
-125.4999999552965
 31
0.0
  0
LINE
  5
AE
330
1F
100
AcDbEntity
  8
22
  6
Continuous
 62
     2
370
    25
100
AcDbLine
 10
-178.9999999552965
 20
-125.4999999552965
 30
0.0
 11
-182.0
 21
-125.4999999552965
 31
0.0
  0
LINE
  5
AF
330
1F
100
AcDbEntity
  8
22
  6
Continuous
 62
     2
370
    25
100
AcDbLine
 10
-182.0
 20
-125.4999999552965
 30
0.0
 11
-182.0
 21
-128.5
 31
0.0
  0
LINE
  5
B0
330
1F
100
AcDbEntity
  8
22
  6
Continuous
 62
     2
370
    25
100
AcDbLine
 10
-182.0
 20
-128.5
 30
0.0
 11
-178.9999999552965
 21
-128.5
 31
0.0
  0
LINE
  5
B1
330
1F
100
AcDbEntity
  8
22
  6
Continuous
 62
     2
370
    25
100
AcDbLine
 10
-178.9999999552965
 20
-128.5
 30
0.0
 11
-178.9999999552965
 21
-125.4999999552965
 31
0.0
  0
LINE
  5
B2
330
1F
100
AcDbEntity
  8
22
  6
Continuous
 62
     2
370
    25
100
AcDbLine
 10
-178.9999999552965
 20
-125.4999999552965
 30
0.0
 11
-182.0
 21
-125.4999999552965
 31
0.0
  0
LINE
  5
B3
330
1F
100
AcDbEntity
  8
22
  6
Continuous
 62
     2
370
    25
100
AcDbLine
 10
-182.0
 20
-125.4999999552965
 30
0.0
 11
-182.0
 21
-128.5
 31
0.0
  0
LINE
  5
B4
330
1F
100
AcDbEntity
  8
22
  6
Continuous
 62
     2
370
    25
100
AcDbLine
 10
-182.0
 20
-128.5
 30
0.0
 11
-178.9999999552965
 21
-128.5
 31
0.0
  0
LINE
  5
B5
330
1F
100
AcDbEntity
  8
22
  6
Continuous
 62
     2
370
    25
100
AcDbLine
 10
-178.9999999552965
 20
-128.5
 30
0.0
 11
-178.9999999552965
 21
-125.4999999552965
 31
0.0
  0
LINE
  5
B6
330
1F
100
AcDbEntity
  8
22
  6
Continuous
 62
     2
370
    25
100
AcDbLine
 10
-178.9999999552965
 20
-125.4999999552965
 30
0.0
 11
-182.0
 21
-125.4999999552965
 31
0.0
  0
LINE
  5
B7
330
1F
100
AcDbEntity
  8
22
  6
Continuous
 62
     2
370
    25
100
AcDbLine
 10
-182.0
 20
-125.4999999552965
 30
0.0
 11
-182.0
 21
-128.5
 31
0.0
  0
TEXT
  5
B8
330
1F
100
AcDbEntity
  8
22
 62
     2
100
AcDbText
 10
102.40000424
 20
-104.87499966
 30
0.0
 40
3.2
  1
TYLHC
 41
0.9375000009375004
  7
dcStyle0
 72
     5
 11
117.40000448
 21
-104.87499966
 31
0.0
100
AcDbText
  0
TEXT
  5
B9
330
1F
100
AcDbEntity
  8
22
 62
     2
100
AcDbText
 10
117.40000446
 20
-104.87499966
 30
0.0
 40
3.2
  1
 700 
 41
0.7812500027343752
  7
dcStyle0
 72
     5
 11
129.90000466
 21
-104.87499966
 31
0.0
100
AcDbText
  0
TEXT
  5
BA
330
1F
100
AcDbEntity
  8
22
 62
     2
100
AcDbText
 10
127.40000461
 20
-104.87499966
 30
0.0
 40
3.0
  1
×
 41
0.6944444444444445
  7
dcStyle0
 72
     5
 11
129.90000461
 21
-104.87499966
 31
0.0
100
AcDbText
  0
TEXT
  5
BB
330
1F
100
AcDbEntity
  8
22
 62
     2
100
AcDbText
 10
128.90000463
 20
-104.87499966
 30
0.0
 40
3.0
  1
 299 
 41
0.8333333355555547
  7
dcStyle0
 72
     5
 11
141.40000483
 21
-104.87499966
 31
0.0
100
AcDbText
  0
TEXT
  5
BC
330
1F
100
AcDbEntity
  8
22
 62
     2
100
AcDbText
 10
138.90000478
 20
-104.87499966
 30
0.0
 40
3.0
  1
×
 41
0.6944444444444445
  7
dcStyle0
 72
     5
 11
141.40000478
 21
-104.87499966
 31
0.0
100
AcDbText
  0
TEXT
  5
BD
330
1F
100
AcDbEntity
  8
22
 62
     2
100
AcDbText
 10
140.4000048
 20
-104.87499966
 30
0.0
 40
3.0
  1
 60 
 41
0.8333333354166671
  7
dcStyle0
 72
     5
 11
150.40000495
 21
-104.87499966
 31
0.0
100
AcDbText
  0
TEXT
  5
BE
330
1F
100
AcDbEntity
  8
22
 62
     2
100
AcDbText
 10
102.30000424
 20
-113.37499978
 30
0.0
 40
3.0
  1
2L
  7
dcStyle0
 72
     5
 11
108.70000434
 21
-113.37499978
 31
0.0
100
AcDbText
  0
TEXT
  5
BF
330
1F
100
AcDbEntity
  8
22
 62
     2
100
AcDbText
 10
108.60000433
 20
-113.37499978
 30
0.0
 40
3.0
  1
枠
 41
0.8333333333333334
  7
dcStyle0
 72
     5
 11
111.60000433
 21
-113.37499978
 31
0.0
100
AcDbText
  0
TEXT
  5
C0
330
1F
100
AcDbEntity
  8
22
 62
     2
100
AcDbText
 10
113.80000441
 20
-113.37499978
 30
0.0
 40
2.5
  1
脱着
 41
0.6666666700000008
  7
dcStyle0
 72
     5
 11
117.80000447
 21
-113.37499978
 31
0.0
100
AcDbText
  0
TEXT
  5
C1
330
1F
100
AcDbEntity
  8
22
 62
     2
100
AcDbText
 10
117.80000447
 20
-113.37499978
 30
0.0
 40
2.5
  1
ピン付
 41
0.6666666696296304
  7
dcStyle0
 72
     5
 11
123.80000455
 21
-113.37499978
 31
0.0
100
AcDbText
  0
TEXT
  5
C2
330
1F
100
AcDbEntity
  8
22
 62
     2
100
AcDbText
 10
123.80000456
 20
-113.37499978
 30
0.0
 40
2.5
  1
　１１０度開閉
 41
0.6666666695238095
  7
dcStyle0
 72
     5
 11
137.80000474
 21
-113.37499978
 31
0.0
100
AcDbText
  0
TEXT
  5
C3
330
1F
100
AcDbEntity
  8
22
 62
     2
100
AcDbText
 10
25.65000309
 20
-94.59999949
 30
0.0
 40
3.0
  1
岡本　
 41
0.8536585384889945
  7
dcStyle0
 72
     5
 11
36.15000325
 21
-94.59999949
 31
0.0
100
AcDbText
  0
TEXT
  5
C4
330
1F
100
AcDbEntity
  8
22
 62
     2
100
AcDbText
 10
56.70000356
 20
-94.09999949
 30
0.0
 40
3.0
  1
1/
  7
dcStyle0
 72
     5
 11
62.70000365
 21
-94.09999949
 31
0.0
100
AcDbText
  0
TEXT
  5
C5
330
1F
100
AcDbEntity
  8
22
 62
     2
100
AcDbText
 10
59.7000036
 20
-94.09999949
 30
0.0
 40
3.0
  1
 8 
 41
0.9999999999999998
  7
dcStyle0
 72
     5
 11
68.70000374
 21
-94.09999949
 31
0.0
100
AcDbText
  0
TEXT
  5
C6
330
1F
100
AcDbEntity
  8
22
 62
     2
100
AcDbText
 10
112.00000438
 20
-99.97499958
 30
0.0
 40
3.0
  1
TYLHC60-36 T-25
 41
0.8333333354074072
  7
dcStyle0
 72
     5
 11
149.50000494
 21
-99.97499958
 31
0.0
100
AcDbText
  0
TEXT
  5
C7
330
1F
100
AcDbEntity
  8
22
 62
     2
100
AcDbText
 10
73.95000381
 20
-70.6749992
 30
0.0
 40
3.5
  1
＜表面処理＞
 41
0.7446808537799908
  7
dcStyle0
 72
     5
 11
94.95000411
 21
-70.6749992
 31
0.0
100
AcDbText
  0
TEXT
  5
C8
330
1F
100
AcDbEntity
  8
22
 62
     2
100
AcDbText
 10
78.95000389
 20
-75.67499928000001
 30
0.0
 40
3.5
  1
本体：溶融亜鉛メッキ
 41
0.7446808537256675
  7
dcStyle0
 72
     5
 11
113.95000438
 21
-75.67499928000001
 31
0.0
100
AcDbText
  0
TEXT
  5
C9
330
1F
100
AcDbEntity
  8
22
 62
     2
100
AcDbText
 10
116.20000467
 20
-75.67499928000001
 30
0.0
 40
3.5
  1
（セラミック充填）
 41
0.7446808539610686
  7
dcStyle0
 72
     5
 11
147.70000515
 21
-75.67499928000001
 31
0.0
100
AcDbText
  0
TEXT
  5
CA
330
1F
100
AcDbEntity
  8
22
 62
     2
100
AcDbText
 10
78.95000389
 20
-79.67499934
 30
0.0
 40
3.5
  1
受枠：黒ペイント塗装
 41
0.7446808537256675
  7
dcStyle0
 72
     5
 11
113.95000438
 21
-79.67499934
 31
0.0
100
AcDbText
  0
TEXT
  5
CB
330
1F
100
AcDbEntity
  8
22
 62
     2
100
AcDbText
 10
93.2000041
 20
93.70000325
 30
0.0
 40
4.0
  1
◇　荷　重　計　算　◇
 41
0.833333335542929
  7
dcStyle0
 72
     5
 11
137.2000048
 21
93.70000325
 31
0.0
100
AcDbText
  0
TEXT
  5
CC
330
1F
100
AcDbEntity
  8
22
 62
     2
100
AcDbText
 10
63.85000366000001
 20
83.70000311
 30
0.0
 40
3.3
  1
設計条件
 41
0.8583691004600374
  7
dcStyle0
 72
     5
 11
79.85000389
 21
83.70000311
 31
0.0
100
AcDbText
  0
TEXT
  5
CD
330
1F
100
AcDbEntity
  8
22
 62
     2
100
AcDbText
 10
69.10000373999999
 20
77.70000302
 30
0.0
 40
3.3
  1
荷　　重：　
 41
0.841346155753051
  7
dcStyle0
 72
     5
 11
90.10000403999999
 21
77.70000302
 31
0.0
100
AcDbText
  0
TEXT
  5
CE
330
1F
100
AcDbEntity
  8
22
 62
     2
100
AcDbText
 10
90.10000405
 20
77.70000302
 30
0.0
 40
3.0
  1
T-
  7
dcStyle0
 72
     5
 11
96.10000414
 21
77.70000302
 31
0.0
100
AcDbText
  0
TEXT
  5
CF
330
1F
100
AcDbEntity
  8
22
 62
     2
100
AcDbText
 10
94.10000411
 20
77.70000302
 30
0.0
 40
3.0
  1
 25 
 41
0.8333333354166671
  7
dcStyle0
 72
     5
 11
104.10000426
 21
77.70000302
 31
0.0
100
AcDbText
  0
TEXT
  5
D0
330
1F
100
AcDbEntity
  8
22
 62
     2
100
AcDbText
 10
104.00000426
 20
77.70000302
 30
0.0
 40
3.3
  1
（後輪一輪荷重：
 41
0.8413461558960684
  7
dcStyle0
 72
     5
 11
132.00000469
 21
77.70000302
 31
0.0
100
AcDbText
  0
TEXT
  5
D1
330
1F
100
AcDbEntity
  8
22
 62
     2
100
AcDbText
 10
132.00000468
 20
77.70000302
 30
0.0
 40
3.0
  1
10000
 41
0.8333333355555547
  7
dcStyle0
 72
     5
 11
144.50000488
 21
77.70000302
 31
0.0
100
AcDbText
  0
TEXT
  5
D2
330
1F
100
AcDbEntity
  8
22
 62
     2
100
AcDbText
 10
144.50000487
 20
77.70000302
 30
0.0
 40
3.0
  1
Kg
 41
0.5000000033333338
  7
dcStyle0
 72
     5
 11
147.50000491
 21
77.70000302
 31
0.0
100
AcDbText
  0
TEXT
  5
D3
330
1F
100
AcDbEntity
  8
22
 62
     2
100
AcDbText
 10
147.50000491
 20
77.70000302
 30
0.0
 40
3.3
  1
）
 41
0.8333333333333363
  7
dcStyle0
 72
     5
 11
150.80000491
 21
77.70000302
 31
0.0
100
AcDbText
  0
TEXT
  5
D4
330
1F
100
AcDbEntity
  8
22
 62
     2
100
AcDbText
 10
69.10000373999999
 20
72.70000293999999
 30
0.0
 40
3.3
  1
載荷寸法：　
 41
0.841346155753051
  7
dcStyle0
 72
     5
 11
90.10000403999999
 21
72.70000293999999
 31
0.0
100
AcDbText
  0
TEXT
  5
D5
330
1F
100
AcDbEntity
  8
22
 62
     2
100
AcDbText
 10
90.10000405
 20
72.70000293999999
 30
0.0
 40
3.0
  1
500
 41
0.8333333355555551
  7
dcStyle0
 72
     5
 11
97.60000416999999
 21
72.70000293999999
 31
0.0
100
AcDbText
  0
TEXT
  5
D6
330
1F
100
AcDbEntity
  8
22
 62
     2
100
AcDbText
 10
97.60000417
 20
72.70000293999999
 30
0.0
 40
3.0
  1
mm
 41
0.6666666700000008
  7
dcStyle0
 72
     5
 11
101.60000423
 21
72.70000293999999
 31
0.0
100
AcDbText
  0
TEXT
  5
D7
330
1F
100
AcDbEntity
  8
22
 62
     2
100
AcDbText
 10
101.50000422
 20
72.70000293999999
 30
0.0
 40
3.3
  1
×
 41
0.8333333333333327
  7
dcStyle0
 72
     5
 11
104.80000422
 21
72.70000293999999
 31
0.0
100
AcDbText
  0
TEXT
  5
D8
330
1F
100
AcDbEntity
  8
22
 62
     2
100
AcDbText
 10
105.00000428
 20
72.70000293999999
 30
0.0
 40
3.0
  1
200
 41
0.8333333355555551
  7
dcStyle0
 72
     5
 11
112.5000044
 21
72.70000293999999
 31
0.0
100
AcDbText
  0
TEXT
  5
D9
330
1F
100
AcDbEntity
  8
22
 62
     2
100
AcDbText
 10
112.50000439
 20
72.70000293999999
 30
0.0
 40
3.0
  1
mm
 41
0.6666666700000008
  7
dcStyle0
 72
     5
 11
116.50000445
 21
72.70000293999999
 31
0.0
100
AcDbText
  0
TEXT
  5
DA
330
1F
100
AcDbEntity
  8
22
 62
     2
100
AcDbText
 10
116.40000445
 20
72.70000293999999
 30
0.0
 40
3.3
  1
　（等分布負載）
 41
0.8413461558960689
  7
dcStyle0
 72
     5
 11
144.40000488
 21
72.70000293999999
 31
0.0
100
AcDbText
  0
TEXT
  5
DB
330
1F
100
AcDbEntity
  8
22
 62
     2
100
AcDbText
 10
69.10000373999999
 20
67.70000286999999
 30
0.0
 40
3.3
  1
許容応力：　
 41
0.841346155753051
  7
dcStyle0
 72
     5
 11
90.10000403999999
 21
67.70000286999999
 31
0.0
100
AcDbText
  0
TEXT
  5
DC
330
1F
100
AcDbEntity
  8
22
 62
     2
100
AcDbText
 10
90.10000405
 20
67.70000286999999
 30
0.0
 40
3.3
  1
σｂ＝
 41
0.6313131350372408
  7
dcStyle0
 72
     5
 11
97.60000416999999
 21
67.70000286999999
 31
0.0
100
AcDbText
  0
TEXT
  5
DD
330
1F
100
AcDbEntity
  8
22
 62
     2
100
AcDbText
 10
97.60000417
 20
67.70000286999999
 30
0.0
 40
3.0
  1
 
 41
0.8333333333333334
  7
dcStyle0
 72
     5
 11
100.10000417
 21
67.70000286999999
 31
0.0
100
AcDbText
  0
TEXT
  5
DE
330
1F
100
AcDbEntity
  8
22
 62
     2
100
AcDbText
 10
98.10000417
 20
67.70000286999999
 30
0.0
 40
3.0
  1
 18.0
 41
0.8333333355555557
  7
dcStyle0
 72
     5
 11
110.60000437
 21
67.70000286999999
 31
0.0
100
AcDbText
  0
TEXT
  5
DF
330
1F
100
AcDbEntity
  8
22
 62
     2
100
AcDbText
 10
110.70000436
 20
67.70000286999999
 30
0.0
 40
3.0
  1
Kg
 41
0.6666666700000008
  7
dcStyle0
 72
     5
 11
114.70000442
 21
67.70000286999999
 31
0.0
100
AcDbText
  0
TEXT
  5
E0
330
1F
100
AcDbEntity
  8
22
 62
     2
100
AcDbText
 10
114.45000442
 20
67.70000286999999
 30
0.0
 40
3.0
  1
／
 41
0.8333333333333334
  7
dcStyle0
 72
     5
 11
117.45000442
 21
67.70000286999999
 31
0.0
100
AcDbText
  0
TEXT
  5
E1
330
1F
100
AcDbEntity
  8
22
 62
     2
100
AcDbText
 10
117.95000447
 20
67.70000286999999
 30
0.0
 40
3.0
  1
mm
 41
0.6666666700000008
  7
dcStyle0
 72
     5
 11
121.95000453
 21
67.70000286999999
 31
0.0
100
AcDbText
  0
TEXT
  5
E2
330
1F
100
AcDbEntity
  8
22
 62
     2
100
AcDbText
 10
121.95000453
 20
69.70000289999999
 30
0.0
 40
1.8
  1
2
 41
0.8333333333333333
  7
dcStyle0
 72
     5
 11
123.45000453
 21
69.70000289999999
 31
0.0
100
AcDbText
  0
TEXT
  5
E3
330
1F
100
AcDbEntity
  8
22
 62
     2
100
AcDbText
 10
124.45000457
 20
67.70000286999999
 30
0.0
 40
3.3
  1
（ＳＳ４００使用）
 41
0.7575757602965685
  7
dcStyle0
 72
     5
 11
151.45000497
 21
67.70000286999999
 31
0.0
100
AcDbText
  0
TEXT
  5
E4
330
1F
100
AcDbEntity
  8
22
 62
     2
100
AcDbText
 10
69.10000373999999
 20
57.70000272000001
 30
0.0
 40
3.3
  1
スパン　：　
 41
0.841346155753051
  7
dcStyle0
 72
     5
 11
90.10000403999999
 21
57.70000272000001
 31
0.0
100
AcDbText
  0
TEXT
  5
E5
330
1F
100
AcDbEntity
  8
22
 62
     2
100
AcDbText
 10
90.10000405
 20
57.70000272
 30
0.0
 40
3.0
  1
L = 
 41
0.8333333354166671
  7
dcStyle0
 72
     5
 11
100.1000042
 21
57.70000272
 31
0.0
100
AcDbText
  0
TEXT
  5
E6
330
1F
100
AcDbEntity
  8
22
 62
     2
100
AcDbText
 10
98.10000417
 20
57.70000272
 30
0.0
 40
3.0
  1
 600 
 41
0.8333333355555557
  7
dcStyle0
 72
     5
 11
110.60000437
 21
57.70000272
 31
0.0
100
AcDbText
  0
TEXT
  5
E7
330
1F
100
AcDbEntity
  8
22
 62
     2
100
AcDbText
 10
110.60000436
 20
57.70000272
 30
0.0
 40
3.0
  1
mm
 41
0.6666666700000008
  7
dcStyle0
 72
     5
 11
114.60000442
 21
57.70000272
 31
0.0
100
AcDbText
  0
TEXT
  5
E8
330
1F
100
AcDbEntity
  8
22
 62
     2
100
AcDbText
 10
79.10000389
 20
49.7000026
 30
0.0
 40
3.3
  1
　Ｗ　：主部材が支える最大後輪一輪荷重
 41
0.8413461559738498
  7
dcStyle0
 72
     5
 11
145.60000495
 21
49.7000026
 31
0.0
100
AcDbText
  0
TEXT
  5
E9
330
1F
100
AcDbEntity
  8
22
 62
     2
100
AcDbText
 10
145.60000488
 20
49.7000026
 30
0.0
 40
3.0
  1
(Kg)
 41
0.6666666700000008
  7
dcStyle0
 72
     5
 11
153.600005
 21
49.7000026
 31
0.0
100
AcDbText
  0
TEXT
  5
EA
330
1F
100
AcDbEntity
  8
22
 62
     2
100
AcDbText
 10
79.10000389
 20
45.70000254000001
 30
0.0
 40
3.3
  1
　Ｎ　：荷重を受ける主部材本数
 41
0.841346155829327
  7
dcStyle0
 72
     5
 11
131.60000467
 21
45.70000254000001
 31
0.0
100
AcDbText
  0
TEXT
  5
EB
330
1F
100
AcDbEntity
  8
22
 62
     2
100
AcDbText
 10
79.10000389
 20
41.70000248
 30
0.0
 40
3.3
  1
〔Ｚ〕：主部材断面係数
 41
0.8413461559264055
  7
dcStyle0
 72
     5
 11
117.60000449
 21
41.70000248
 31
0.0
100
AcDbText
  0
TEXT
  5
EC
330
1F
100
AcDbEntity
  8
22
 62
     2
100
AcDbText
 10
79.10000389
 20
37.70000242
 30
0.0
 40
3.3
  1
　Ｓ　：溝幅方向載荷寸法
 41
0.8413461560073039
  7
dcStyle0
 72
     5
 11
121.10000457
 21
37.70000242
 31
0.0
100
AcDbText
  0
TEXT
  5
ED
330
1F
100
AcDbEntity
  8
22
 62
     2
100
AcDbText
 10
63.85000366000001
 20
32.70000235
 30
0.0
 40
3.3
  1
荷重計算
 41
0.8583691004600374
  7
dcStyle0
 72
     5
 11
79.85000389
 21
32.70000235
 31
0.0
100
AcDbText
  0
TEXT
  5
EE
330
1F
100
AcDbEntity
  8
22
 62
     2
100
AcDbText
 10
69.10000373999999
 20
25.70000224
 30
0.0
 40
3.3
  1
横断溝
 41
0.8413461558801776
  7
dcStyle0
 72
     5
 11
79.60000389999999
 21
25.70000224
 31
0.0
100
AcDbText
  0
TEXT
  5
EF
330
1F
100
AcDbEntity
  8
22
 62
     2
100
AcDbText
 10
79.5000039
 20
25.70000224
 30
0.0
 40
3.3
  1
　（溝幅＞載荷寸法Ｓの場合）
 41
0.8413461557802925
  7
dcStyle0
 72
     5
 11
128.50000461
 21
25.70000224
 31
0.0
100
AcDbText
  0
TEXT
  5
F0
330
1F
100
AcDbEntity
  8
22
 62
     2
100
AcDbText
 10
69.20000374
 20
15.70000209
 30
0.0
 40
3.3
  1
Ｗ　＝
 41
0.6313131350372408
  7
dcStyle0
 72
     5
 11
76.70000386
 21
15.70000209
 31
0.0
100
AcDbText
  0
TEXT
  5
F1
330
1F
100
AcDbEntity
  8
22
 62
     2
100
AcDbText
 10
80.20000391
 20
18.20000213
 30
0.0
 40
3.0
  1
8
  7
dcStyle0
 72
     5
 11
83.20000391
 21
18.20000213
 31
0.0
100
AcDbText
  0
TEXT
  5
F2
330
1F
100
AcDbEntity
  8
22
 62
     2
100
AcDbText
 10
83.20000395
 20
18.20000213
 30
0.0
 40
0.8
  1
 
 41
0.9999999999999964
  7
dcStyle0
 72
     5
 11
84.00000394999999
 21
18.20000213
 31
0.0
100
AcDbText
  0
TEXT
  5
F3
330
1F
100
AcDbEntity
  8
22
 62
     2
100
AcDbText
 10
84.00000396
 20
18.20000213
 30
0.0
 40
3.3
  1
σｂ
 41
0.6313131345717273
  7
dcStyle0
 72
     5
 11
89.00000403
 21
18.20000213
 31
0.0
100
AcDbText
  0
TEXT
  5
F4
330
1F
100
AcDbEntity
  8
22
 62
     2
100
AcDbText
 10
89.00000404
 20
18.20000213
 30
0.0
 40
0.8
  1
 
 41
0.9999999999999964
  7
dcStyle0
 72
     5
 11
89.80000403999999
 21
18.20000213
 31
0.0
100
AcDbText
  0
TEXT
  5
F5
330
1F
100
AcDbEntity
  8
22
 62
     2
100
AcDbText
 10
89.80000405
 20
18.20000213
 30
0.0
 40
3.3
  1
Ｚ
 41
0.7575757575757577
  7
dcStyle0
 72
     5
 11
92.80000405
 21
18.20000213
 31
0.0
100
AcDbText
  0
TEXT
  5
F6
330
1F
100
AcDbEntity
  8
22
 62
     2
100
AcDbText
 10
80.20000391
 20
13.20000205
 30
0.0
 40
3.0
  1
2
 41
0.8333333333333334
  7
dcStyle0
 72
     5
 11
82.70000391
 21
13.20000205
 31
0.0
100
AcDbText
  0
TEXT
  5
F7
330
1F
100
AcDbEntity
  8
22
 62
     2
100
AcDbText
 10
82.70000393999999
 20
13.20000205
 30
0.0
 40
3.3
  1
Ｌ－Ｓ
 41
0.8333333352974192
  7
dcStyle0
 72
     5
 11
92.60000407999999
 21
13.20000205
 31
0.0
100
AcDbText
  0
TEXT
  5
F8
330
1F
100
AcDbEntity
  8
22
 62
     2
100
AcDbText
 10
94.20000412
 20
15.70000209
 30
0.0
 40
3.3
  1
＝
 41
0.7575757575757577
  7
dcStyle0
 72
     5
 11
97.20000412
 21
15.70000209
 31
0.0
100
AcDbText
  0
TEXT
  5
F9
330
1F
100
AcDbEntity
  8
22
 62
     2
100
AcDbText
 10
99.7000042
 20
18.20000213
 30
0.0
 40
3.0
  1
8
 41
0.8333333333333334
  7
dcStyle0
 72
     5
 11
102.2000042
 21
18.20000213
 31
0.0
100
AcDbText
  0
TEXT
  5
FA
330
1F
100
AcDbEntity
  8
22
 62
     2
100
AcDbText
 10
102.10000423
 20
18.20000213
 30
0.0
 40
3.3
  1
×
 41
0.8333333333333327
  7
dcStyle0
 72
     5
 11
105.40000423
 21
18.20000213
 31
0.0
100
AcDbText
  0
TEXT
  5
FB
330
1F
100
AcDbEntity
  8
22
 62
     2
100
AcDbText
 10
105.60000429
 20
18.20000213
 30
0.0
 40
3.0
  1
 18 
 41
0.8333333354166671
  7
dcStyle0
 72
     5
 11
115.60000444
 21
18.20000213
 31
0.0
100
AcDbText
  0
TEXT
  5
FC
330
1F
100
AcDbEntity
  8
22
 62
     2
100
AcDbText
 10
114.25000441
 20
18.20000213
 30
0.0
 40
3.3
  1
×Ｚ
 41
0.8583691005360198
  7
dcStyle0
 72
     5
 11
122.25000453
 21
18.20000213
 31
0.0
100
AcDbText
  0
TEXT
  5
FD
330
1F
100
AcDbEntity
  8
22
 62
     2
100
AcDbText
 10
99.7000042
 20
13.20000205
 30
0.0
 40
3.0
  1
2
 41
0.8333333333333334
  7
dcStyle0
 72
     5
 11
102.2000042
 21
13.20000205
 31
0.0
100
AcDbText
  0
TEXT
  5
FE
330
1F
100
AcDbEntity
  8
22
 62
     2
100
AcDbText
 10
102.10000423
 20
13.20000205
 30
0.0
 40
3.3
  1
×
 41
0.8333333333333327
  7
dcStyle0
 72
     5
 11
105.40000423
 21
13.20000205
 31
0.0
100
AcDbText
  0
TEXT
  5
FF
330
1F
100
AcDbEntity
  8
22
 62
     2
100
AcDbText
 10
103.60000426
 20
13.20000205
 30
0.0
 40
3.0
  1
 600 
 41
0.8333333355555557
  7
dcStyle0
 72
     5
 11
116.10000446
 21
13.20000205
 31
0.0
100
AcDbText
  0
TEXT
  5
100
330
1F
100
AcDbEntity
  8
22
 62
     2
100
AcDbText
 10
114.10000441
 20
13.20000205
 30
0.0
 40
3.3
  1
－
 41
0.6313131313131314
  7
dcStyle0
 72
     5
 11
116.60000441
 21
13.20000205
 31
0.0
100
AcDbText
  0
TEXT
  5
101
330
1F
100
AcDbEntity
  8
22
 62
     2
100
AcDbText
 10
115.60000443
 20
13.20000205
 30
0.0
 40
3.0
  1
 200 
 41
0.8333333355555557
  7
dcStyle0
 72
     5
 11
128.10000463
 21
13.20000205
 31
0.0
100
AcDbText
  0
TEXT
  5
102
330
1F
100
AcDbEntity
  8
22
 62
     2
100
AcDbText
 10
128.70000463
 20
15.70000209
 30
0.0
 40
3.3
  1
＝
 41
0.7575757575757577
  7
dcStyle0
 72
     5
 11
131.70000463
 21
15.70000209
 31
0.0
100
AcDbText
  0
TEXT
  5
103
330
1F
100
AcDbEntity
  8
22
 62
     2
100
AcDbText
 10
133.7000047
 20
15.70000209
 30
0.0
 40
3.0
  1
0.144
 41
0.8333333355555547
  7
dcStyle0
 72
     5
 11
146.2000049
 21
15.70000209
 31
0.0
100
AcDbText
  0
TEXT
  5
104
330
1F
100
AcDbEntity
  8
22
 62
     2
100
AcDbText
 10
145.85000489
 20
15.70000209
 30
0.0
 40
3.3
  1
×Ｚ
 41
0.8583691005360212
  7
dcStyle0
 72
     5
 11
153.85000501
 21
15.70000209
 31
0.0
100
AcDbText
  0
TEXT
  5
105
330
1F
100
AcDbEntity
  8
22
 62
     2
100
AcDbText
 10
69.20000374
 20
5.70000194
 30
0.0
 40
3.3
  1
Ｚ　＝　Ｎ　〔Ｚ〕　＝
 41
0.6313131346986859
  7
dcStyle0
 72
     5
 11
96.70000414
 21
5.70000194
 31
0.0
100
AcDbText
  0
TEXT
  5
106
330
1F
100
AcDbEntity
  8
22
 62
     2
100
AcDbText
 10
96.70000415
 20
5.70000194
 30
0.0
 40
3.0
  1
 18 
 41
0.8333333354166671
  7
dcStyle0
 72
     5
 11
106.7000043
 21
5.70000194
 31
0.0
100
AcDbText
  0
TEXT
  5
107
330
1F
100
AcDbEntity
  8
22
 62
     2
100
AcDbText
 10
104.70000427
 20
5.70000194
 30
0.0
 40
3.3
  1
×
 41
0.7575757575757577
  7
dcStyle0
 72
     5
 11
107.70000427
 21
5.70000194
 31
0.0
100
AcDbText
  0
TEXT
  5
108
330
1F
100
AcDbEntity
  8
22
 62
     2
100
AcDbText
 10
107.70000432
 20
5.70000194
 30
0.0
 40
3.0
  1
  3.902
 41
0.8333333352380948
  7
dcStyle0
 72
     5
 11
125.20000456
 21
5.70000194
 31
0.0
100
AcDbText
  0
TEXT
  5
109
330
1F
100
AcDbEntity
  8
22
 62
     2
100
AcDbText
 10
125.10000458
 20
5.70000194
 30
0.0
 40
3.3
  1
×
 41
0.8333333333333363
  7
dcStyle0
 72
     5
 11
128.40000458
 21
5.70000194
 31
0.0
100
AcDbText
  0
TEXT
  5
10A
330
1F
100
AcDbEntity
  8
22
 62
     2
100
AcDbText
 10
128.60000463
 20
5.70000194
 30
0.0
 40
3.0
  1
10
 41
0.8333333352777776
  7
dcStyle0
 72
     5
 11
133.6000047
 21
5.70000194
 31
0.0
100
AcDbText
  0
TEXT
  5
10B
330
1F
100
AcDbEntity
  8
22
 62
     2
100
AcDbText
 10
133.6000047
 20
7.700001970000001
 30
0.0
 40
1.8
  1
3
 41
0.8333333333333333
  7
dcStyle0
 72
     5
 11
135.1000047
 21
7.700001970000001
 31
0.0
100
AcDbText
  0
TEXT
  5
10C
330
1F
100
AcDbEntity
  8
22
 62
     2
100
AcDbText
 10
136.10000474
 20
5.70000194
 30
0.0
 40
3.0
  1
=
  7
dcStyle0
 72
     5
 11
139.10000474
 21
5.70000194
 31
0.0
100
AcDbText
  0
TEXT
  5
10D
330
1F
100
AcDbEntity
  8
22
 62
     2
100
AcDbText
 10
139.10000478
 20
5.70000194
 30
0.0
 40
3.0
  1
 70.24
 41
0.8333333351851846
  7
dcStyle0
 72
     5
 11
154.10000498
 21
5.70000194
 31
0.0
100
AcDbText
  0
TEXT
  5
10E
330
1F
100
AcDbEntity
  8
22
 62
     2
100
AcDbText
 10
154.00000501
 20
5.70000194
 30
0.0
 40
3.3
  1
×
 41
0.8333333333333363
  7
dcStyle0
 72
     5
 11
157.30000501
 21
5.70000194
 31
0.0
100
AcDbText
  0
TEXT
  5
10F
330
1F
100
AcDbEntity
  8
22
 62
     2
100
AcDbText
 10
157.50000506
 20
5.70000194
 30
0.0
 40
3.0
  1
10
 41
0.8333333352777776
  7
dcStyle0
 72
     5
 11
162.50000513
 21
5.70000194
 31
0.0
100
AcDbText
  0
TEXT
  5
110
330
1F
100
AcDbEntity
  8
22
 62
     2
100
AcDbText
 10
162.50000513
 20
7.700001970000001
 30
0.0
 40
1.8
  1
3
 41
0.8333333333333333
  7
dcStyle0
 72
     5
 11
164.00000513
 21
7.700001970000001
 31
0.0
100
AcDbText
  0
TEXT
  5
111
330
1F
100
AcDbEntity
  8
22
 62
     2
100
AcDbText
 10
64.20000367
 20
-2.299998179999999
 30
0.0
 40
3.3
  1
∴　Ｗ　＝
 41
0.6313131350372412
  7
dcStyle0
 72
     5
 11
76.70000387
 21
-2.299998179999999
 31
0.0
100
AcDbText
  0
TEXT
  5
112
330
1F
100
AcDbEntity
  8
22
 62
     2
100
AcDbText
 10
76.70000385
 20
-2.299998179999999
 30
0.0
 40
3.0
  1
 0.144
 41
0.8333333351851854
  7
dcStyle0
 72
     5
 11
91.70000405
 21
-2.299998179999999
 31
0.0
100
AcDbText
  0
TEXT
  5
113
330
1F
100
AcDbEntity
  8
22
 62
     2
100
AcDbText
 10
91.60000407999999
 20
-2.299998179999999
 30
0.0
 40
3.3
  1
×
 41
0.8333333333333327
  7
dcStyle0
 72
     5
 11
94.90000407999999
 21
-2.299998179999999
 31
0.0
100
AcDbText
  0
TEXT
  5
114
330
1F
100
AcDbEntity
  8
22
 62
     2
100
AcDbText
 10
95.10000413
 20
-2.299998179999999
 30
0.0
 40
3.0
  1
 70.24
 41
0.8333333351851854
  7
dcStyle0
 72
     5
 11
110.10000433
 21
-2.299998179999999
 31
0.0
100
AcDbText
  0
TEXT
  5
115
330
1F
100
AcDbEntity
  8
22
 62
     2
100
AcDbText
 10
110.00000435
 20
-2.299998179999999
 30
0.0
 40
3.3
  1
×
 41
0.8333333333333327
  7
dcStyle0
 72
     5
 11
113.30000435
 21
-2.299998179999999
 31
0.0
100
AcDbText
  0
TEXT
  5
116
330
1F
100
AcDbEntity
  8
22
 62
     2
100
AcDbText
 10
113.5000044
 20
-2.299998179999999
 30
0.0
 40
3.0
  1
10
 41
0.8333333352777776
  7
dcStyle0
 72
     5
 11
118.50000447
 21
-2.299998179999999
 31
0.0
100
AcDbText
  0
TEXT
  5
117
330
1F
100
AcDbEntity
  8
22
 62
     2
100
AcDbText
 10
118.50000448
 20
-0.2999981499999983
 30
0.0
 40
1.8
  1
3
 41
0.8333333333333333
  7
dcStyle0
 72
     5
 11
120.00000448
 21
-0.2999981499999983
 31
0.0
100
AcDbText
  0
TEXT
  5
118
330
1F
100
AcDbEntity
  8
22
 62
     2
100
AcDbText
 10
121.00000452
 20
-2.299998179999999
 30
0.0
 40
3.0
  1
=
  7
dcStyle0
 72
     5
 11
124.00000452
 21
-2.299998179999999
 31
0.0
100
AcDbText
  0
TEXT
  5
119
330
1F
100
AcDbEntity
  8
22
 62
     2
100
AcDbText
 10
124.00000456
 20
-2.299998179999999
 30
0.0
 40
3.0
  1
 10.11
 41
0.8333333351851846
  7
dcStyle0
 72
     5
 11
139.00000476
 21
-2.299998179999999
 31
0.0
100
AcDbText
  0
TEXT
  5
11A
330
1F
100
AcDbEntity
  8
22
 62
     2
100
AcDbText
 10
138.90000478
 20
-2.299998179999999
 30
0.0
 40
3.3
  1
×
 41
0.8333333333333363
  7
dcStyle0
 72
     5
 11
142.20000478
 21
-2.299998179999999
 31
0.0
100
AcDbText
  0
TEXT
  5
11B
330
1F
100
AcDbEntity
  8
22
 62
     2
100
AcDbText
 10
142.40000483
 20
-2.299998179999999
 30
0.0
 40
3.0
  1
10
 41
0.8333333352777776
  7
dcStyle0
 72
     5
 11
147.4000049
 21
-2.299998179999999
 31
0.0
100
AcDbText
  0
TEXT
  5
11C
330
1F
100
AcDbEntity
  8
22
 62
     2
100
AcDbText
 10
147.40000491
 20
-0.2999981499999983
 30
0.0
 40
1.8
  1
3
 41
0.8333333333333333
  7
dcStyle0
 72
     5
 11
148.90000491
 21
-0.2999981499999983
 31
0.0
100
AcDbText
  0
TEXT
  5
11D
330
1F
100
AcDbEntity
  8
22
 62
     2
100
AcDbText
 10
149.90000495
 20
-2.299998179999999
 30
0.0
 40
3.0
  1
(Kg)
 41
0.8333333354166671
  7
dcStyle0
 72
     5
 11
159.9000051
 21
-2.299998179999999
 31
0.0
100
AcDbText
  0
TEXT
  5
11E
330
1F
100
AcDbEntity
  8
22
 62
     2
100
AcDbText
 10
69.20000374
 20
-10.2999983
 30
0.0
 40
3.3
  1
Ｔ
 41
0.6313131313131314
  7
dcStyle0
 72
     5
 11
71.70000374
 21
-10.2999983
 31
0.0
100
AcDbText
  0
TEXT
  5
11F
330
1F
100
AcDbEntity
  8
22
 62
     2
100
AcDbText
 10
71.70000378
 20
-10.2999983
 30
0.0
 40
3.0
  1
 = 0.4
 41
0.8333333351851854
  7
dcStyle0
 72
     5
 11
86.70000398
 21
-10.2999983
 31
0.0
100
AcDbText
  0
TEXT
  5
120
330
1F
100
AcDbEntity
  8
22
 62
     2
100
AcDbText
 10
86.700004
 20
-8.29999827
 30
0.0
 40
1.8
  1
-1
 41
0.833333335185186
  7
dcStyle0
 72
     5
 11
89.70000404000001
 21
-8.29999827
 31
0.0
100
AcDbText
  0
TEXT
  5
121
330
1F
100
AcDbEntity
  8
22
 62
     2
100
AcDbText
 10
90.60000405999999
 20
-10.2999983
 30
0.0
 40
3.3
  1
×
 41
0.8333333333333327
  7
dcStyle0
 72
     5
 11
93.90000405999999
 21
-10.2999983
 31
0.0
100
AcDbText
  0
TEXT
  5
122
330
1F
100
AcDbEntity
  8
22
 62
     2
100
AcDbText
 10
94.10000411
 20
-10.2999983
 30
0.0
 40
3.0
  1
10
 41
0.8333333352777776
  7
dcStyle0
 72
     5
 11
99.10000418
 21
-10.2999983
 31
0.0
100
AcDbText
  0
TEXT
  5
123
330
1F
100
AcDbEntity
  8
22
 62
     2
100
AcDbText
 10
99.10000419
 20
-8.29999827
 30
0.0
 40
1.8
  1
-3
 41
0.833333335185186
  7
dcStyle0
 72
     5
 11
102.10000423
 21
-8.29999827
 31
0.0
100
AcDbText
  0
TEXT
  5
124
330
1F
100
AcDbEntity
  8
22
 62
     2
100
AcDbText
 10
103.00000425
 20
-10.2999983
 30
0.0
 40
3.3
  1
×Ｗ
 41
0.8413461557530504
  7
dcStyle0
 72
     5
 11
110.00000435
 21
-10.2999983
 31
0.0
100
AcDbText
  0
TEXT
  5
125
330
1F
100
AcDbEntity
  8
22
 62
     2
100
AcDbText
 10
69.20000374
 20
-15.29999837
 30
0.0
 40
3.0
  1
  = 0.4
 41
0.8333333352380948
  7
dcStyle0
 72
     5
 11
86.70000397999999
 21
-15.29999837
 31
0.0
100
AcDbText
  0
TEXT
  5
126
330
1F
100
AcDbEntity
  8
22
 62
     2
100
AcDbText
 10
86.700004
 20
-13.29999834
 30
0.0
 40
1.8
  1
-1
 41
0.833333335185186
  7
dcStyle0
 72
     5
 11
89.70000404000001
 21
-13.29999834
 31
0.0
100
AcDbText
  0
TEXT
  5
127
330
1F
100
AcDbEntity
  8
22
 62
     2
100
AcDbText
 10
90.60000405999999
 20
-15.29999837
 30
0.0
 40
3.3
  1
×
 41
0.8333333333333327
  7
dcStyle0
 72
     5
 11
93.90000405999999
 21
-15.29999837
 31
0.0
100
AcDbText
  0
TEXT
  5
128
330
1F
100
AcDbEntity
  8
22
 62
     2
100
AcDbText
 10
94.10000411
 20
-15.29999837
 30
0.0
 40
3.0
  1
10
 41
0.8333333352777776
  7
dcStyle0
 72
     5
 11
99.10000418
 21
-15.29999837
 31
0.0
100
AcDbText
  0
TEXT
  5
129
330
1F
100
AcDbEntity
  8
22
 62
     2
100
AcDbText
 10
99.10000419
 20
-13.29999834
 30
0.0
 40
1.8
  1
-3
 41
0.833333335185186
  7
dcStyle0
 72
     5
 11
102.10000423
 21
-13.29999834
 31
0.0
100
AcDbText
  0
TEXT
  5
12A
330
1F
100
AcDbEntity
  8
22
 62
     2
100
AcDbText
 10
103.00000425
 20
-15.29999837
 30
0.0
 40
3.3
  1
×
 41
0.8333333333333327
  7
dcStyle0
 72
     5
 11
106.30000425
 21
-15.29999837
 31
0.0
100
AcDbText
  0
TEXT
  5
12B
330
1F
100
AcDbEntity
  8
22
 62
     2
100
AcDbText
 10
106.5000043
 20
-15.29999837
 30
0.0
 40
3.0
  1
 10.11
 41
0.8333333351851854
  7
dcStyle0
 72
     5
 11
121.5000045
 21
-15.29999837
 31
0.0
100
AcDbText
  0
TEXT
  5
12C
330
1F
100
AcDbEntity
  8
22
 62
     2
100
AcDbText
 10
121.40000452
 20
-15.29999837
 30
0.0
 40
3.3
  1
×
 41
0.8333333333333327
  7
dcStyle0
 72
     5
 11
124.70000452
 21
-15.29999837
 31
0.0
100
AcDbText
  0
TEXT
  5
12D
330
1F
100
AcDbEntity
  8
22
 62
     2
100
AcDbText
 10
124.90000457
 20
-15.29999837
 30
0.0
 40
3.0
  1
10
 41
0.8333333352777776
  7
dcStyle0
 72
     5
 11
129.90000464
 21
-15.29999837
 31
0.0
100
AcDbText
  0
TEXT
  5
12E
330
1F
100
AcDbEntity
  8
22
 62
     2
100
AcDbText
 10
129.90000465
 20
-13.29999834
 30
0.0
 40
1.8
  1
3
 41
0.8333333333333333
  7
dcStyle0
 72
     5
 11
131.40000465
 21
-13.29999834
 31
0.0
100
AcDbText
  0
TEXT
  5
12F
330
1F
100
AcDbEntity
  8
22
 62
     2
100
AcDbText
 10
69.20000374
 20
-20.29999844
 30
0.0
 40
3.0
  1
  =
 41
0.8333333355555551
  7
dcStyle0
 72
     5
 11
76.70000386
 21
-20.29999844
 31
0.0
100
AcDbText
  0
TEXT
  5
130
330
1F
100
AcDbEntity
  8
22
 62
     2
100
AcDbText
 10
76.70000385
 20
-20.29999844
 30
0.0
 40
3.0
  1
 25.3
 41
0.8333333355555557
  7
dcStyle0
 72
     5
 11
89.20000405
 21
-20.29999844
 31
0.0
100
AcDbText
  0
TEXT
  5
131
330
1F
100
AcDbEntity
  8
22
 62
     2
100
AcDbText
 10
89.95000405
 20
-20.29999844
 30
0.0
 40
3.0
  1
>
  7
dcStyle0
 72
     5
 11
92.95000405
 21
-20.29999844
 31
0.0
100
AcDbText
  0
TEXT
  5
132
330
1F
100
AcDbEntity
  8
22
 62
     2
100
AcDbText
 10
93.4500041
 20
-20.29999844
 30
0.0
 40
3.0
  1
 25 
 41
0.8333333354166671
  7
dcStyle0
 72
     5
 11
103.45000425
 21
-20.29999844
 31
0.0
100
AcDbText
  0
TEXT
  5
133
330
1F
100
AcDbEntity
  8
22
 62
     2
100
AcDbText
 10
84.10000396999999
 20
-58.29999901
 30
0.0
 40
3.3
  1
以上より　
 41
0.8413461559818785
  7
dcStyle0
 72
     5
 11
101.60000425
 21
-58.29999901
 31
0.0
100
AcDbText
  0
TEXT
  5
134
330
1F
100
AcDbEntity
  8
22
 62
     2
100
AcDbText
 10
101.60000423
 20
-58.29999900999999
 30
0.0
 40
3.5
  1
Ｔ－
 41
0.8333333353174596
  7
dcStyle0
 72
     5
 11
108.60000433
 21
-58.29999900999999
 31
0.0
100
AcDbText
  0
TEXT
  5
135
330
1F
100
AcDbEntity
  8
22
 62
     2
100
AcDbText
 10
108.60000433
 20
-58.29999900999999
 30
0.0
 40
3.0
  1
 25 
 41
0.8333333354166671
  7
dcStyle0
 72
     5
 11
118.60000448
 21
-58.29999900999999
 31
0.0
100
AcDbText
  0
TEXT
  5
136
330
1F
100
AcDbEntity
  8
22
 62
     2
100
AcDbText
 10
118.50000448
 20
-58.29999901
 30
0.0
 40
3.3
  1
となる
 41
0.8413461558801787
  7
dcStyle0
 72
     5
 11
129.00000464
 21
-58.29999901
 31
0.0
100
AcDbText
  0
TEXT
  5
137
330
1F
100
AcDbEntity
  8
22
 62
     2
100
AcDbText
 10
-84.51869777043083
 20
88.92500681
 30
0.0
 40
2.5
  1
ベアリングバー：
 41
0.8333333352777776
  7
dcStyle0
 72
     5
 11
-64.51869749043084
 21
88.92500681
 31
0.0
100
AcDbText
  0
TEXT
  5
138
330
1F
100
AcDbEntity
  8
22
 62
     2
100
AcDbText
 10
-64.51869747043082
 20
88.92500681
 30
0.0
 40
2.5
  1
Y-
 41
0.9999999999999998
  7
dcStyle0
 72
     5
 11
-59.51869740043082
 21
88.92500681
 31
0.0
100
AcDbText
  0
TEXT
  5
139
330
1F
100
AcDbEntity
  8
22
 62
     2
100
AcDbText
 10
-61.51869742043082
 20
88.92500681
 30
0.0
 40
2.5
  1
 60 
 41
0.9999999999999998
  7
dcStyle0
 72
     5
 11
-51.51869727043082
 21
88.92500681
 31
0.0
100
AcDbText
  0
TEXT
  5
13A
330
1F
100
AcDbEntity
  8
22
 62
     2
100
AcDbText
 10
-54.01869731043082
 20
88.92500681
 30
0.0
 40
2.5
  1
×
 41
0.8333333333333334
  7
dcStyle0
 72
     5
 11
-51.51869731043082
 21
88.92500681
 31
0.0
100
AcDbText
  0
TEXT
  5
13B
330
1F
100
AcDbEntity
  8
22
 62
     2
100
AcDbText
 10
-51.51869727043082
 20
88.92500681
 30
0.0
 40
2.5
  1
20
 41
0.9999999999999998
  7
dcStyle0
 72
     5
 11
-46.51869720043082
 21
88.92500681
 31
0.0
100
AcDbText
  0
TEXT
  5
13C
330
1F
100
AcDbEntity
  8
22
 62
     2
100
AcDbText
 10
-46.51869720043082
 20
88.92500681
 30
0.0
 40
2.5
  1
×
 41
0.8333333333333334
  7
dcStyle0
 72
     5
 11
-44.01869720043082
 21
88.92500681
 31
0.0
100
AcDbText
  0
TEXT
  5
13D
330
1F
100
AcDbEntity
  8
22
 62
     2
100
AcDbText
 10
-46.01869719043082
 20
88.92500681
 30
0.0
 40
2.5
  1
 5 
 41
1.0
  7
dcStyle0
 72
     5
 11
-38.51869707043082
 21
88.92500681
 31
0.0
100
AcDbText
  0
TEXT
  5
13E
330
1F
100
AcDbEntity
  8
22
 62
     2
100
AcDbText
 10
-82.36254855043083
 20
84.55000666
 30
0.0
 40
2.5
  1
ツイストバー：
 41
0.8333333352380948
  7
dcStyle0
 72
     5
 11
-64.86254831043084
 21
84.55000666
 31
0.0
100
AcDbText
  0
TEXT
  5
13F
330
1F
100
AcDbEntity
  8
22
 62
     2
100
AcDbText
 10
-64.86254829043082
 20
84.55000666
 30
0.0
 40
2.5
  1
φ
 41
0.8333333333333334
  7
dcStyle0
 72
     5
 11
-62.36254829043082
 21
84.55000666
 31
0.0
100
AcDbText
  0
TEXT
  5
140
330
1F
100
AcDbEntity
  8
22
 62
     2
100
AcDbText
 10
-64.36254828043081
 20
84.55000666
 30
0.0
 40
2.5
  1
 10 
 41
0.9999999999999991
  7
dcStyle0
 72
     5
 11
-54.36254813043082
 21
84.55000666
 31
0.0
100
AcDbText
  0
TEXT
  5
141
330
1F
100
AcDbEntity
  8
22
 62
     2
100
AcDbText
 10
-54.36254814043082
 20
84.55000666
 30
0.0
 40
2.5
  1
絞りパイプ
 41
0.8333333355555557
  7
dcStyle0
 72
     5
 11
-41.86254794043082
 21
84.55000666
 31
0.0
100
AcDbText
  0
TEXT
  5
142
330
1F
100
AcDbEntity
  8
22
 62
     2
100
AcDbText
 10
-80.33749680043081
 20
79.7375064
 30
0.0
 40
2.5
  1
エンドプレート：
 41
0.8333333352777776
  7
dcStyle0
 72
     5
 11
-60.33749652043082
 21
79.7375064
 31
0.0
100
AcDbText
  0
TEXT
  5
143
330
1F
100
AcDbEntity
  8
22
 62
     2
100
AcDbText
 10
-60.33749650043082
 20
79.7375064
 30
0.0
 40
2.5
  1
FB
 41
0.9999999999999998
  7
dcStyle0
 72
     5
 11
-55.33749643043082
 21
79.7375064
 31
0.0
100
AcDbText
  0
TEXT
  5
144
330
1F
100
AcDbEntity
  8
22
 62
     2
100
AcDbText
 10
-57.33749646043082
 20
79.7375064
 30
0.0
 40
2.5
  1
 4.5 
 41
0.8000000025599998
  7
dcStyle0
 72
     5
 11
-47.33749630043082
 21
79.7375064
 31
0.0
100
AcDbText
  0
TEXT
  5
145
330
1F
100
AcDbEntity
  8
22
 62
     2
100
AcDbText
 10
-49.83749634043082
 20
79.7375064
 30
0.0
 40
2.5
  1
×
 41
0.8333333333333334
  7
dcStyle0
 72
     5
 11
-47.33749634043082
 21
79.7375064
 31
0.0
100
AcDbText
  0
TEXT
  5
146
330
1F
100
AcDbEntity
  8
22
 62
     2
100
AcDbText
 10
-49.33749634043082
 20
79.7375064
 30
0.0
 40
2.5
  1
 50 
 41
0.9999999999999998
  7
dcStyle0
 72
     5
 11
-39.33749619043082
 21
79.7375064
 31
0.0
100
AcDbText
  0
TEXT
  5
147
330
1F
100
AcDbEntity
  8
22
 62
     2
100
AcDbText
 10
-122.6124986204308
 20
73.03750628
 30
0.0
 40
2.5
  1
 37 
 41
1.0
  7
dcStyle0
 72
     5
 11
-112.6124984704308
 21
73.03750628
 31
0.0
100
AcDbText
  0
TEXT
  5
148
330
1F
100
AcDbEntity
  8
22
 62
     2
100
AcDbText
 10
-109.1437485104308
 20
84.7875064
 30
0.0
 40
2.5
  1
脱着ピン
 41
0.8333333354166671
  7
dcStyle0
 72
     5
 11
-99.1437483604308
 21
84.7875064
 31
0.0
100
AcDbText
  0
TEXT
  5
149
330
1F
100
AcDbEntity
  8
22
 62
     2
100
AcDbText
 10
-99.04999827043082
 20
-52.83750124
 30
0.0
 40
3.0
  1
 333 
 41
0.8333333355555557
  7
dcStyle0
 72
     5
 11
-86.54999807043082
 21
-52.83750124
 31
0.0
100
AcDbText
  0
TEXT
  5
14A
330
1F
100
AcDbEntity
  8
22
 62
     2
100
AcDbText
 10
-129.4375020304308
 20
-47.33750115
 30
0.0
 40
2.7
  1
セラミック充填
 41
0.8474576289654043
  7
dcStyle0
 72
     5
 11
-108.4375017304308
 21
-47.33750115
 31
0.0
100
AcDbText
  0
TEXT
  5
14B
330
1F
100
AcDbEntity
  8
22
 62
     2
100
AcDbText
 10
-34.61250618642444
 20
47.10000592480766
 30
0.0
 40
3.0
  1
 100 
 50
90.0000001836389
 41
0.8333333355555552
  7
dcStyle0
 72
     5
 11
-34.61250622648824
 21
59.60000612480766
 31
0.0
100
AcDbText
  0
TEXT
  5
14C
330
1F
100
AcDbEntity
  8
22
 62
     2
100
AcDbText
 10
-34.61250618642444
 20
34.60000592480766
 30
0.0
 40
3.0
  1
 100 
 50
90.0000001836389
 41
0.8333333355555552
  7
dcStyle0
 72
     5
 11
-34.61250622648824
 21
47.10000612480766
 31
0.0
100
AcDbText
  0
TEXT
  5
14D
330
1F
100
AcDbEntity
  8
22
 62
     2
100
AcDbText
 10
-41.61250628642444
 20
59.85000609480765
 30
0.0
 40
3.0
  1
 10 
 50
90.0000001836389
 41
0.8333333354166671
  7
dcStyle0
 72
     5
 11
-41.61250631847548
 21
69.85000624480766
 31
0.0
100
AcDbText
  0
TEXT
  5
14E
330
1F
100
AcDbEntity
  8
22
 62
     2
100
AcDbText
 10
-41.61250628642444
 20
9.600005364807656
 30
0.0
 40
3.0
  1
 700 
 50
90.0000001836389
 41
0.8333333355555558
  7
dcStyle0
 72
     5
 11
-41.61250632648824
 21
22.10000556480766
 31
0.0
100
AcDbText
  0
TEXT
  5
14F
330
1F
100
AcDbEntity
  8
22
 62
     2
100
AcDbText
 10
-41.61250628642444
 20
-38.15000167519234
 30
0.0
 40
3.0
  1
 10 
 50
90.0000001836389
 41
0.8333333354166659
  7
dcStyle0
 72
     5
 11
-41.61250631847548
 21
-28.15000152519235
 31
0.0
100
AcDbText
  0
TEXT
  5
150
330
1F
100
AcDbEntity
  8
22
 62
     2
100
AcDbText
 10
-48.61250639642444
 20
9.600005344807654
 30
0.0
 40
3.0
  1
 720 
 50
90.0000001836389
 41
0.8333333355555558
  7
dcStyle0
 72
     5
 11
-48.61250643648823
 21
22.10000554480766
 31
0.0
100
AcDbText
  0
TEXT
  5
151
330
1F
100
AcDbEntity
  8
22
 62
     2
100
AcDbText
 10
-3.06250585642444
 20
52.10000597480766
 30
0.0
 40
3.0
  1
 60 
 50
90.0000001836389
 41
0.8333333354166659
  7
dcStyle0
 72
     5
 11
-3.062505888475475
 21
62.10000612480765
 31
0.0
100
AcDbText
  0
TEXT
  5
152
330
1F
100
AcDbEntity
  8
22
 62
     2
100
AcDbText
 10
-3.062505856424441
 20
9.600005454807654
 30
0.0
 40
3.0
  1
 600 
 50
90.0000001836389
 41
0.8333333355555554
  7
dcStyle0
 72
     5
 11
-3.062505896488235
 21
22.10000565480765
 31
0.0
100
AcDbText
  0
TEXT
  5
153
330
1F
100
AcDbEntity
  8
22
 62
     2
100
AcDbText
 10
-3.06250585642444
 20
-30.40000165519235
 30
0.0
 40
3.0
  1
 60 
 50
90.0000001836389
 41
0.8333333354166668
  7
dcStyle0
 72
     5
 11
-3.062505888475475
 21
-20.40000150519235
 31
0.0
100
AcDbText
  0
TEXT
  5
154
330
1F
100
AcDbEntity
  8
22
 62
     2
100
AcDbText
 10
-17.36250625043082
 20
81.3500063
 30
0.0
 40
2.5
  1
φ
 41
0.6666666666666666
  7
dcStyle0
 72
     5
 11
-15.36250625043082
 21
81.3500063
 31
0.0
100
AcDbText
  0
TEXT
  5
155
330
1F
100
AcDbEntity
  8
22
 62
     2
100
AcDbText
 10
-17.36250625043082
 20
81.3500063
 30
0.0
 40
2.5
  1
 13 
 41
0.8000000023999999
  7
dcStyle0
 72
     5
 11
-9.36250613043082
 21
81.3500063
 31
0.0
100
AcDbText
  0
TEXT
  5
156
330
1F
100
AcDbEntity
  8
22
 62
     2
100
AcDbText
 10
-11.36250616043082
 20
81.3500063
 30
0.0
 40
2.5
  1
ｱﾝｶｰ
 41
0.8000000023999999
  7
dcStyle0
 72
     5
 11
-3.362506040430821
 21
81.3500063
 31
0.0
100
AcDbText
  0
TEXT
  5
157
330
1F
100
AcDbEntity
  8
22
 62
     2
100
AcDbText
 10
-30.36250613043082
 20
-43.65000173
 30
0.0
 40
3.0
  1
 60 
 41
0.8333333354166668
  7
dcStyle0
 72
     5
 11
-20.36250598043082
 21
-43.65000173
 31
0.0
100
AcDbText
  0
TEXT
  5
158
330
1F
100
AcDbEntity
  8
22
 62
     2
100
AcDbText
 10
-29.98750613043082
 20
-50.65000184
 30
0.0
 40
3.0
  1
 66 
 41
0.8333333354166668
  7
dcStyle0
 72
     5
 11
-19.98750598043082
 21
-50.65000184
 31
0.0
100
AcDbText
  0
TEXT
  5
159
330
1F
100
AcDbEntity
  8
22
 62
     2
100
AcDbText
 10
-38.11250625043082
 20
72.35000627
 30
0.0
 40
3.0
  1
 16 
 41
0.8333333354166665
  7
dcStyle0
 72
     5
 11
-28.11250610043082
 21
72.35000627
 31
0.0
100
AcDbText
  0
TEXT
  5
15A
330
1F
100
AcDbEntity
  8
22
 62
     2
100
AcDbText
 10
-63.61250663043082
 20
-43.65000174
 30
0.0
 40
2.5
  1
L-
 41
0.8000000023999996
  7
dcStyle0
 72
     5
 11
-59.61250657043082
 21
-43.65000174
 31
0.0
100
AcDbText
  0
TEXT
  5
15B
330
1F
100
AcDbEntity
  8
22
 62
     2
100
AcDbText
 10
-61.11250659043082
 20
-43.65000174
 30
0.0
 40
2.5
  1
 6 
 41
0.8000000021333332
  7
dcStyle0
 72
     5
 11
-55.11250651043082
 21
-43.65000174
 31
0.0
100
AcDbText
  0
TEXT
  5
15C
330
1F
100
AcDbEntity
  8
22
 62
     2
100
AcDbText
 10
-57.11250653043082
 20
-43.65000174
 30
0.0
 40
2.5
  1
×
 41
0.6666666666666666
  7
dcStyle0
 72
     5
 11
-55.11250653043082
 21
-43.65000174
 31
0.0
100
AcDbText
  0
TEXT
  5
15D
330
1F
100
AcDbEntity
  8
22
 62
     2
100
AcDbText
 10
-57.11250653043082
 20
-43.65000174
 30
0.0
 40
2.5
  1
 66 
 41
0.8000000023999996
  7
dcStyle0
 72
     5
 11
-49.11250641043083
 21
-43.65000174
 31
0.0
100
AcDbText
  0
TEXT
  5
15E
330
1F
100
AcDbEntity
  8
22
 62
     2
100
AcDbText
 10
-51.11250644043082
 20
-43.65000174
 30
0.0
 40
2.5
  1
×
 41
0.6666666666666666
  7
dcStyle0
 72
     5
 11
-49.11250644043082
 21
-43.65000174
 31
0.0
100
AcDbText
  0
TEXT
  5
15F
330
1F
100
AcDbEntity
  8
22
 62
     2
100
AcDbText
 10
-50.61250643043082
 20
-43.65000174
 30
0.0
 40
2.5
  1
 60 
 41
0.8000000024000004
  7
dcStyle0
 72
     5
 11
-42.61250631043082
 21
-43.65000174
 31
0.0
100
AcDbText
  0
TEXT
  5
160
330
1F
100
AcDbEntity
  8
22
 62
     2
100
AcDbText
 10
-90.31249845043081
 20
-66.83750145
 30
0.0
 40
3.0
  1
 27.9 
 41
0.8333333351851854
  7
dcStyle0
 72
     5
 11
-75.3124982504308
 21
-66.83750145
 31
0.0
100
AcDbText
  0
TEXT
  5
161
330
1F
100
AcDbEntity
  8
22
 62
     2
100
AcDbText
 10
-122.6124986204308
 20
-59.83750135
 30
0.0
 40
3.0
  1
 17 
 41
0.8333333354166671
  7
dcStyle0
 72
     5
 11
-112.6124984704308
 21
-59.83750135
 31
0.0
100
AcDbText
  0
TEXT
  5
162
330
1F
100
AcDbEntity
  8
22
 62
     2
100
AcDbText
 10
-99.04999830043081
 20
-59.83750135
 30
0.0
 40
3.0
  1
 299 
 41
0.8333333355555557
  7
dcStyle0
 72
     5
 11
-86.54999810043081
 21
-59.83750135
 31
0.0
100
AcDbText
  0
TEXT
  5
163
330
1F
100
AcDbEntity
  8
22
 62
     2
100
AcDbText
 10
-72.98749847043081
 20
-59.83750135
 30
0.0
 40
3.0
  1
 17 
 41
0.8333333354166665
  7
dcStyle0
 72
     5
 11
-62.98749832043081
 21
-59.83750135
 31
0.0
100
AcDbText
  0
TEXT
  5
164
330
1F
100
AcDbEntity
  8
22
 62
     2
100
AcDbText
 10
-67.48749842043082
 20
-64.83750142
 30
0.0
 40
2.5
  1
FB
 41
0.8000000023999996
  7
dcStyle0
 72
     5
 11
-63.48749836043083
 21
-64.83750142
 31
0.0
100
AcDbText
  0
TEXT
  5
165
330
1F
100
AcDbEntity
  8
22
 62
     2
100
AcDbText
 10
-64.98749838043082
 20
-64.83750142
 30
0.0
 40
2.5
  1
 9 
 41
0.8000000021333332
  7
dcStyle0
 72
     5
 11
-58.98749830043082
 21
-64.83750142
 31
0.0
100
AcDbText
  0
TEXT
  5
166
330
1F
100
AcDbEntity
  8
22
 62
     2
100
AcDbText
 10
-60.78749832043082
 20
-64.83750142
 30
0.0
 40
2.5
  1
×
 41
0.6666666666666666
  7
dcStyle0
 72
     5
 11
-58.78749832043082
 21
-64.83750142
 31
0.0
100
AcDbText
  0
TEXT
  5
167
330
1F
100
AcDbEntity
  8
22
 62
     2
100
AcDbText
 10
-60.78749832043082
 20
-64.83750142
 30
0.0
 40
2.5
  1
 60 
 41
0.8000000024000004
  7
dcStyle0
 72
     5
 11
-52.78749820043082
 21
-64.83750142
 31
0.0
100
AcDbText
  0
TEXT
  5
168
330
1F
100
AcDbEntity
  8
22
 62
     2
100
AcDbText
 10
24.20000306956918
 20
-78.24999925
 30
0.0
 40
3.0
  1
本体重量：
 41
0.6944444478395061
  7
dcStyle0
 72
     5
 11
36.70000326956918
 21
-78.24999925
 31
0.0
100
AcDbText
  0
TEXT
  5
169
330
1F
100
AcDbEntity
  8
22
 62
     2
100
AcDbText
 10
36.70000325956918
 20
-78.24999925
 30
0.0
 40
3.0
  1
 21.2
 41
0.666666670222222
  7
dcStyle0
 72
     5
 11
46.70000341956918
 21
-78.24999925
 31
0.0
100
AcDbText
  0
TEXT
  5
16A
330
1F
100
AcDbEntity
  8
22
 62
     2
100
AcDbText
 10
46.70000340956918
 20
-78.24999925
 30
0.0
 40
3.0
  1
Kg
 41
0.6666666699999997
  7
dcStyle0
 72
     5
 11
50.70000346956918
 21
-78.24999925
 31
0.0
100
AcDbText
  0
TEXT
  5
16B
330
1F
100
AcDbEntity
  8
22
 62
     2
100
AcDbText
 10
24.20000306956918
 20
-82.24999931
 30
0.0
 40
3.0
  1
受枠重量：
 41
0.6944444478395061
  7
dcStyle0
 72
     5
 11
36.70000326956918
 21
-82.24999931
 31
0.0
100
AcDbText
  0
TEXT
  5
16C
330
1F
100
AcDbEntity
  8
22
 62
     2
100
AcDbText
 10
36.70000325956918
 20
-82.24999931
 30
0.0
 40
3.0
  1
 10.3
 41
0.666666670222222
  7
dcStyle0
 72
     5
 11
46.70000341956918
 21
-82.24999931
 31
0.0
100
AcDbText
  0
TEXT
  5
16D
330
1F
100
AcDbEntity
  8
22
 62
     2
100
AcDbText
 10
46.70000340956918
 20
-82.24999931
 30
0.0
 40
3.0
  1
Kg
 41
0.6666666699999997
  7
dcStyle0
 72
     5
 11
50.70000346956918
 21
-82.24999931
 31
0.0
100
AcDbText
  0
TEXT
  5
16E
330
1F
100
AcDbEntity
  8
22
 62
     2
100
AcDbText
 10
38.15000327956918
 20
-94.6499995
 30
0.0
 40
3.0
  1
戸田　
 41
0.8536585384889945
  7
dcStyle0
 72
     5
 11
48.65000343956918
 21
-94.6499995
 31
0.0
100
AcDbText
  0
LINE
  5
16F
330
1F
100
AcDbEntity
  8
32
  6
Continuous
 62
     4
370
    25
100
AcDbLine
 10
-10.6333340848486
 20
-82.99999962002039
 30
0.0
 11
-10.6333340848486
 21
-83.66666630655527
 31
0.0
  0
LINE
  5
170
330
1F
100
AcDbEntity
  8
32
  6
Continuous
 62
     4
370
    25
100
AcDbLine
 10
-10.6333340848486
 20
-83.66666630655527
 30
0.0
 11
-9.633334055046282
 21
-83.66666630655527
 31
0.0
  0
LINE
  5
171
330
1F
100
AcDbEntity
  8
32
  6
Continuous
 62
     4
370
    25
100
AcDbLine
 10
-9.633334055046282
 20
-83.66666630655527
 30
0.0
 11
-8.300000681976519
 21
-85.99999970942736
 31
0.0
  0
LINE
  5
172
330
1F
100
AcDbEntity
  8
32
  6
Continuous
 62
     4
370
    25
100
AcDbLine
 10
-8.300000681976519
 20
-85.99999970942736
 30
0.0
 11
-8.300000681976519
 21
-86.99999973922968
 31
0.0
  0
LINE
  5
173
330
1F
100
AcDbEntity
  8
32
  6
Continuous
 62
     4
370
    25
100
AcDbLine
 10
-8.300000681976519
 20
-86.99999973922968
 30
0.0
 11
-7.966667338709078
 21
-87.33333308249712
 31
0.0
  0
LINE
  5
174
330
1F
100
AcDbEntity
  8
32
  6
Continuous
 62
     4
370
    25
100
AcDbLine
 10
-7.966667338709078
 20
-87.33333308249712
 30
0.0
 11
-7.966667338709078
 21
-96.333333350718
 31
0.0
  0
LINE
  5
175
330
1F
100
AcDbEntity
  8
32
  6
Continuous
 62
     4
370
    25
100
AcDbLine
 10
-7.966667338709078
 20
-96.333333350718
 30
0.0
 11
-8.133334047595701
 21
-96.6666666939855
 31
0.0
  0
LINE
  5
176
330
1F
100
AcDbEntity
  8
32
  6
Continuous
 62
     4
370
    25
100
AcDbLine
 10
-8.133334047595701
 20
-96.6666666939855
 30
0.0
 11
-8.133334047595701
 21
-103.0000002160668
 31
0.0
  0
LINE
  5
177
330
1F
100
AcDbEntity
  8
32
  6
Continuous
 62
     4
370
    25
100
AcDbLine
 10
-8.133334047595701
 20
-103.0000002160668
 30
0.0
 11
-6.466663986444464
 21
-103.0000002160668
 31
0.0
  0
LINE
  5
178
330
1F
100
AcDbEntity
  8
32
  6
Continuous
 62
     4
370
    25
100
AcDbLine
 10
-6.466663986444464
 20
-103.0000002160668
 30
0.0
 11
-6.466663986444464
 21
-96.6666666939855
 31
0.0
  0
LINE
  5
179
330
1F
100
AcDbEntity
  8
32
  6
Continuous
 62
     4
370
    25
100
AcDbLine
 10
-6.466663986444464
 20
-96.6666666939855
 30
0.0
 11
-6.633333965639315
 21
-96.333333350718
 31
0.0
  0
LINE
  5
17A
330
1F
100
AcDbEntity
  8
32
  6
Continuous
 62
     4
370
    25
100
AcDbLine
 10
-6.633333965639315
 20
-96.333333350718
 30
0.0
 11
-6.633333965639315
 21
-87.33333308249712
 31
0.0
  0
LINE
  5
17B
330
1F
100
AcDbEntity
  8
32
  6
Continuous
 62
     4
370
    25
100
AcDbLine
 10
-6.633333965639315
 20
-87.33333308249712
 30
0.0
 11
-6.300000622371874
 21
-86.99999973922968
 31
0.0
  0
LINE
  5
17C
330
1F
100
AcDbEntity
  8
32
  6
Continuous
 62
     4
370
    25
100
AcDbLine
 10
-6.300000622371874
 20
-86.99999973922968
 30
0.0
 11
-6.300000622371874
 21
-85.99999970942736
 31
0.0
  0
LINE
  5
17D
330
1F
100
AcDbEntity
  8
32
  6
Continuous
 62
     4
370
    25
100
AcDbLine
 10
-6.300000622371874
 20
-85.99999970942736
 30
0.0
 11
-4.966667249302111
 21
-83.66666630655527
 31
0.0
  0
LINE
  5
17E
330
1F
100
AcDbEntity
  8
32
  6
Continuous
 62
     4
370
    25
100
AcDbLine
 10
-4.966667249302111
 20
-83.66666630655527
 30
0.0
 11
-3.966667219499788
 21
-83.66666630655527
 31
0.0
  0
LINE
  5
17F
330
1F
100
AcDbEntity
  8
32
  6
Continuous
 62
     4
370
    25
100
AcDbLine
 10
-3.966667219499788
 20
-83.66666630655527
 30
0.0
 11
-3.966667219499788
 21
-82.99999962002039
 31
0.0
  0
LINE
  5
180
330
1F
100
AcDbEntity
  8
32
  6
Continuous
 62
     4
370
    25
100
AcDbLine
 10
-3.966667219499788
 20
-82.99999962002039
 30
0.0
 11
-5.300000592569551
 21
-82.99999962002039
 31
0.0
  0
LINE
  5
181
330
1F
100
AcDbEntity
  8
32
  6
Continuous
 62
     4
370
    25
100
AcDbLine
 10
-5.300000592569551
 20
-82.99999962002039
 30
0.0
 11
-7.300000652174196
 21
-84.99999967962503
 31
0.0
  0
LINE
  5
182
330
1F
100
AcDbEntity
  8
32
  6
Continuous
 62
     4
370
    25
100
AcDbLine
 10
-7.300000652174196
 20
-84.99999967962503
 30
0.0
 11
-9.300000711778841
 21
-82.99999962002039
 31
0.0
  0
LINE
  5
183
330
1F
100
AcDbEntity
  8
32
  6
Continuous
 62
     4
370
    25
100
AcDbLine
 10
-9.300000711778841
 20
-82.99999962002039
 30
0.0
 11
-10.6333340848486
 21
-82.99999962002039
 31
0.0
  0
CIRCLE
  5
184
330
1F
100
AcDbEntity
  8
32
  6
Continuous
 62
     4
370
    25
100
AcDbCircle
 10
-7.300000652174196
 20
-83.99999964982271
 30
0.0
 40
0.6666666865348816
  0
ARC
  5
185
330
1F
100
AcDbEntity
  8
32
  6
Continuous
 62
     4
370
    25
100
AcDbCircle
 10
-7.333684963210986
 20
-87.56772655699078
 30
0.0
 40
5.000000149011612
100
AcDbArc
 50
66.00000000000014
 51
113.0000000000003
  0
LINE
  5
186
330
1F
100
AcDbEntity
  8
32
  6
Continuous
 62
     4
370
    25
100
AcDbLine
 10
-9.300004101296357
 20
-82.49999961256981
 30
0.0
 11
-9.300004101296357
 21
-78.49999955296516
 31
0.0
  0
LINE
  5
187
330
1F
100
AcDbEntity
  8
32
  6
Continuous
 62
     4
370
    25
100
AcDbLine
 10
-9.300004101296357
 20
-79.49999956786633
 30
0.0
 11
-11.30000413109868
 21
-79.19999956339598
 31
0.0
  0
LINE
  5
188
330
1F
100
AcDbEntity
  8
32
  6
Continuous
 62
     4
370
    25
100
AcDbLine
 10
-11.30000413109868
 20
-79.19999956339598
 30
0.0
 11
-11.30000413109868
 21
-79.79999957233667
 31
0.0
  0
LINE
  5
189
330
1F
100
AcDbEntity
  8
32
  6
Continuous
 62
     4
370
    25
100
AcDbLine
 10
-11.30000413109868
 20
-79.79999957233667
 30
0.0
 11
-9.300004101296357
 21
-79.49999956786633
 31
0.0
  0
LINE
  5
18A
330
1F
100
AcDbEntity
  8
32
  6
Continuous
 62
     4
370
    25
100
AcDbLine
 10
-9.300004101296357
 20
-79.49999956786633
 30
0.0
 11
-12.30000414599984
 21
-79.49999956786633
 31
0.0
  0
LINE
  5
18B
330
1F
100
AcDbEntity
  8
32
  6
Continuous
 62
     4
370
    25
100
AcDbLine
 10
-9.300004101296357
 20
-79.49999956786633
 30
0.0
 11
-5.300004041691713
 21
-79.49999956786633
 31
0.0
  0
LINE
  5
18C
330
1F
100
AcDbEntity
  8
32
  6
Continuous
 62
     4
370
    25
100
AcDbLine
 10
-5.300004041691713
 20
-79.49999956786633
 30
0.0
 11
-3.300004011889391
 21
-79.19999956339598
 31
0.0
  0
LINE
  5
18D
330
1F
100
AcDbEntity
  8
32
  6
Continuous
 62
     4
370
    25
100
AcDbLine
 10
-3.300004011889391
 20
-79.19999956339598
 30
0.0
 11
-3.300004011889391
 21
-79.79999957233667
 31
0.0
  0
LINE
  5
18E
330
1F
100
AcDbEntity
  8
32
  6
Continuous
 62
     4
370
    25
100
AcDbLine
 10
-3.300004011889391
 20
-79.79999957233667
 30
0.0
 11
-5.300004041691713
 21
-79.49999956786633
 31
0.0
  0
LINE
  5
18F
330
1F
100
AcDbEntity
  8
32
  6
Continuous
 62
     4
370
    25
100
AcDbLine
 10
-5.300004041691713
 20
-79.49999956786633
 30
0.0
 11
-2.300003996988229
 21
-79.49999956786633
 31
0.0
  0
LINE
  5
190
330
1F
100
AcDbEntity
  8
32
  6
Continuous
 62
     4
370
    25
100
AcDbLine
 10
-5.300004041691713
 20
-78.49999955296516
 30
0.0
 11
-5.300004041691713
 21
-82.49999961256981
 31
0.0
  0
LINE
  5
191
330
1F
100
AcDbEntity
  8
32
  6
Continuous
 62
     4
370
    25
100
AcDbLine
 10
-7.633334040145116
 20
-82.49999961256981
 30
0.0
 11
-8.000001054008846
 21
-80.93332955290869
 31
0.0
  0
LINE
  5
192
330
1F
100
AcDbEntity
  8
32
  6
Continuous
 62
     4
370
    25
100
AcDbLine
 10
-7.633334040145116
 20
-82.49999961256981
 30
0.0
 11
-8.800004093845773
 21
-80.49999958276749
 31
0.0
  0
LINE
  5
193
330
1F
100
AcDbEntity
  8
32
  6
Continuous
 62
     4
370
    25
100
AcDbLine
 10
-11.56667417138829
 20
-75.79999951273203
 30
0.0
 11
-12.73334422508894
 21
-73.7999994829297
 31
0.0
  0
LINE
  5
194
330
1F
100
AcDbEntity
  8
32
  6
Continuous
 62
     4
370
    25
100
AcDbLine
 10
-21.06667412221445
 20
-73.7999994829297
 30
0.0
 11
-12.73334422508894
 21
-73.7999994829297
 31
0.0
  0
LINE
  5
195
330
1F
100
AcDbEntity
  8
32
  6
Continuous
 62
     4
370
    25
100
AcDbLine
 10
-6.966329635674726
 20
-83.33330040623696
 30
0.0
 11
-6.73299664059776
 21
-81.7333003823951
 31
0.0
  0
LINE
  5
196
330
1F
100
AcDbEntity
  8
32
  6
Continuous
 62
     4
370
    25
100
AcDbLine
 10
-6.966329635674726
 20
-83.33330040623696
 30
0.0
 11
-5.832999655102713
 21
-81.33330037643464
 31
0.0
  0
LINE
  5
197
330
1F
100
AcDbEntity
  8
32
  6
Continuous
 62
     4
370
    25
100
AcDbLine
 10
-3.366329582030547
 20
-77.66663047621594
 30
0.0
 11
-0.9329995820870227
 21
-73.46663041363107
 31
0.0
  0
LINE
  5
198
330
1F
100
AcDbEntity
  8
32
  6
Continuous
 62
     4
370
    25
100
AcDbLine
 10
-0.9329995820870227
 20
-73.46663041363107
 30
0.0
 11
6.400330300137325
 21
-73.46663041363107
 31
0.0
  0
LINE
  5
199
330
1F
100
AcDbEntity
  8
32
  6
Continuous
 62
     4
370
    25
100
AcDbLine
 10
-10.6333340848486
 20
-82.49999961256981
 30
0.0
 11
-10.6333340848486
 21
-80.29999957978725
 31
0.0
  0
LINE
  5
19A
330
1F
100
AcDbEntity
  8
32
  6
Continuous
 62
     4
370
    25
100
AcDbLine
 10
-10.6333340848486
 20
-78.6999995559454
 30
0.0
 11
-10.6333340848486
 21
-72.4999994635582
 31
0.0
  0
LINE
  5
19B
330
1F
100
AcDbEntity
  8
32
  6
Continuous
 62
     4
370
    25
100
AcDbLine
 10
-10.6333340848486
 20
-73.49999947845936
 30
0.0
 11
-8.633334055046282
 21
-73.19999947398901
 31
0.0
  0
LINE
  5
19C
330
1F
100
AcDbEntity
  8
32
  6
Continuous
 62
     4
370
    25
100
AcDbLine
 10
-8.633334055046282
 20
-73.7999994829297
 30
0.0
 11
-8.633334055046282
 21
-73.19999947398901
 31
0.0
  0
LINE
  5
19D
330
1F
100
AcDbEntity
  8
32
  6
Continuous
 62
     4
370
    25
100
AcDbLine
 10
-8.633334055046282
 20
-73.7999994829297
 30
0.0
 11
-10.6333340848486
 21
-73.49999947845936
 31
0.0
  0
LINE
  5
19E
330
1F
100
AcDbEntity
  8
32
  6
Continuous
 62
     4
370
    25
100
AcDbLine
 10
-10.6333340848486
 20
-73.49999947845936
 30
0.0
 11
-3.966663758456695
 21
-73.49999947845936
 31
0.0
  0
LINE
  5
19F
330
1F
100
AcDbEntity
  8
32
  6
Continuous
 62
     4
370
    25
100
AcDbLine
 10
-3.966663758456695
 20
-73.49999947845936
 30
0.0
 11
-5.966663788259018
 21
-73.19999947398901
 31
0.0
  0
LINE
  5
1A0
330
1F
100
AcDbEntity
  8
32
  6
Continuous
 62
     4
370
    25
100
AcDbLine
 10
-5.966663788259018
 20
-73.7999994829297
 30
0.0
 11
-5.966663788259018
 21
-73.19999947398901
 31
0.0
  0
LINE
  5
1A1
330
1F
100
AcDbEntity
  8
32
  6
Continuous
 62
     4
370
    25
100
AcDbLine
 10
-5.966663788259018
 20
-73.7999994829297
 30
0.0
 11
-3.966663758456695
 21
-73.49999947845936
 31
0.0
  0
LINE
  5
1A2
330
1F
100
AcDbEntity
  8
32
  6
Continuous
 62
     4
370
    25
100
AcDbLine
 10
-3.966663758456695
 20
-82.49999961256981
 30
0.0
 11
-3.966663758456695
 21
-80.29999957978725
 31
0.0
  0
LINE
  5
1A3
330
1F
100
AcDbEntity
  8
32
  6
Continuous
 62
     4
370
    25
100
AcDbLine
 10
-3.966663758456695
 20
-78.6999995559454
 30
0.0
 11
-3.966663758456695
 21
-72.4999994635582
 31
0.0
  0
LINE
  5
1A4
330
1F
100
AcDbEntity
  8
32
  6
Continuous
 62
     4
370
    25
100
AcDbLine
 10
-15.13333415190383
 20
-82.99999962002039
 30
0.0
 11
-11.13333409229918
 21
-82.99999962002039
 31
0.0
  0
LINE
  5
1A5
330
1F
100
AcDbEntity
  8
32
  6
Continuous
 62
     4
370
    25
100
AcDbLine
 10
-14.13333413700267
 20
-82.99999962002039
 30
0.0
 11
-14.43333414147302
 21
-80.99999959021807
 31
0.0
  0
LINE
  5
1A6
330
1F
100
AcDbEntity
  8
32
  6
Continuous
 62
     4
370
    25
100
AcDbLine
 10
-14.43333414147302
 20
-80.99999959021807
 30
0.0
 11
-13.83333413253232
 21
-80.99999959021807
 31
0.0
  0
LINE
  5
1A7
330
1F
100
AcDbEntity
  8
32
  6
Continuous
 62
     4
370
    25
100
AcDbLine
 10
-13.83333413253232
 20
-80.99999959021807
 30
0.0
 11
-14.13333413700267
 21
-82.99999962002039
 31
0.0
  0
LINE
  5
1A8
330
1F
100
AcDbEntity
  8
32
  6
Continuous
 62
     4
370
    25
100
AcDbLine
 10
-14.13333413700267
 20
-82.99999962002039
 30
0.0
 11
-14.13333413700267
 21
-79.9999995753169
 31
0.0
  0
LINE
  5
1A9
330
1F
100
AcDbEntity
  8
32
  6
Continuous
 62
     4
370
    25
100
AcDbLine
 10
-14.13333413700267
 20
-84.99999964982271
 30
0.0
 11
-14.13333413700267
 21
-82.99999962002039
 31
0.0
  0
LINE
  5
1AA
330
1F
100
AcDbEntity
  8
32
  6
Continuous
 62
     4
370
    25
100
AcDbLine
 10
-14.43333414147302
 20
-86.99999967962503
 30
0.0
 11
-14.13333413700267
 21
-84.99999964982271
 31
0.0
  0
LINE
  5
1AB
330
1F
100
AcDbEntity
  8
32
  6
Continuous
 62
     4
370
    25
100
AcDbLine
 10
-14.43333414147302
 20
-86.99999967962503
 30
0.0
 11
-13.83333413253232
 21
-86.99999967962503
 31
0.0
  0
LINE
  5
1AC
330
1F
100
AcDbEntity
  8
32
  6
Continuous
 62
     4
370
    25
100
AcDbLine
 10
-13.83333413253232
 20
-86.99999967962503
 30
0.0
 11
-14.13333413700267
 21
-84.99999964982271
 31
0.0
  0
LINE
  5
1AD
330
1F
100
AcDbEntity
  8
32
  6
Continuous
 62
     4
370
    25
100
AcDbLine
 10
-14.13333413700267
 20
-87.9999996945262
 30
0.0
 11
-14.13333413700267
 21
-84.99999964982271
 31
0.0
  0
LINE
  5
1AE
330
1F
100
AcDbEntity
  8
32
  6
Continuous
 62
     4
370
    25
100
AcDbLine
 10
-15.13333415190383
 20
-84.99999964982271
 30
0.0
 11
-9.633334069947443
 21
-84.99999964982271
 31
0.0
  0
LINE
  5
1AF
330
1F
100
AcDbEntity
  8
32
  6
Continuous
 62
     4
370
    25
100
AcDbLine
 10
-3.466663751006115
 20
-82.99999962002039
 30
0.0
 11
2.533336338400852
 21
-82.99999962002039
 31
0.0
  0
LINE
  5
1B0
330
1F
100
AcDbEntity
  8
32
  6
Continuous
 62
     4
370
    25
100
AcDbLine
 10
1.233336319029343
 20
-84.99999964982271
 30
0.0
 11
1.533336323499691
 21
-82.99999962002039
 31
0.0
  0
LINE
  5
1B1
330
1F
100
AcDbEntity
  8
32
  6
Continuous
 62
     4
370
    25
100
AcDbLine
 10
1.233336319029343
 20
-84.99999964982271
 30
0.0
 11
1.83333632797004
 21
-84.99999964982271
 31
0.0
  0
LINE
  5
1B2
330
1F
100
AcDbEntity
  8
32
  6
Continuous
 62
     4
370
    25
100
AcDbLine
 10
1.83333632797004
 20
-84.99999964982271
 30
0.0
 11
1.533336323499691
 21
-82.99999962002039
 31
0.0
  0
LINE
  5
1B3
330
1F
100
AcDbEntity
  8
32
  6
Continuous
 62
     4
370
    25
100
AcDbLine
 10
1.533336323499691
 20
-102.9999999180436
 30
0.0
 11
1.533336323499691
 21
-82.99999962002039
 31
0.0
  0
LINE
  5
1B4
330
1F
100
AcDbEntity
  8
32
  6
Continuous
 62
     4
370
    25
100
AcDbLine
 10
1.533336323499691
 20
-102.9999999180436
 30
0.0
 11
1.233336319029343
 21
-100.9999998882413
 31
0.0
  0
LINE
  5
1B5
330
1F
100
AcDbEntity
  8
32
  6
Continuous
 62
     4
370
    25
100
AcDbLine
 10
1.233336319029343
 20
-100.9999998882413
 30
0.0
 11
1.83333632797004
 21
-100.9999998882413
 31
0.0
  0
LINE
  5
1B6
330
1F
100
AcDbEntity
  8
32
  6
Continuous
 62
     4
370
    25
100
AcDbLine
 10
1.83333632797004
 20
-100.9999998882413
 30
0.0
 11
1.533336323499691
 21
-102.9999999180436
 31
0.0
  0
LINE
  5
1B7
330
1F
100
AcDbEntity
  8
32
  6
Continuous
 62
     4
370
    25
100
AcDbLine
 10
-5.466663780808436
 20
-102.9999999180436
 30
0.0
 11
2.533336338400852
 21
-102.9999999180436
 31
0.0
  0
LINE
  5
1B8
330
1F
100
AcDbEntity
  8
32
  6
Continuous
 62
     4
370
    25
100
AcDbLine
 10
-8.133334047595701
 20
-108.5
 30
0.0
 11
-8.133334047595701
 21
-103.4999999254942
 31
0.0
  0
LINE
  5
1B9
330
1F
100
AcDbEntity
  8
32
  6
Continuous
 62
     4
370
    25
100
AcDbLine
 10
-8.133334047595701
 20
-107.4999999850988
 30
0.0
 11
-10.13333407739802
 21
-107.1999999806285
 31
0.0
  0
LINE
  5
1BA
330
1F
100
AcDbEntity
  8
32
  6
Continuous
 62
     4
370
    25
100
AcDbLine
 10
-10.13333407739802
 20
-107.7999999895692
 30
0.0
 11
-10.13333407739802
 21
-107.1999999806285
 31
0.0
  0
LINE
  5
1BB
330
1F
100
AcDbEntity
  8
32
  6
Continuous
 62
     4
370
    25
100
AcDbLine
 10
-10.13333407739802
 20
-107.7999999895692
 30
0.0
 11
-8.133334047595701
 21
-107.4999999850988
 31
0.0
  0
LINE
  5
1BC
330
1F
100
AcDbEntity
  8
32
  6
Continuous
 62
     4
370
    25
100
AcDbLine
 10
-11.13333409229918
 20
-107.4999999850988
 30
0.0
 11
-8.133334047595701
 21
-107.4999999850988
 31
0.0
  0
LINE
  5
1BD
330
1F
100
AcDbEntity
  8
32
  6
Continuous
 62
     4
370
    25
100
AcDbLine
 10
-8.133334047595701
 20
-107.4999999850988
 30
0.0
 11
-6.466663986444464
 21
-107.4999999850988
 31
0.0
  0
LINE
  5
1BE
330
1F
100
AcDbEntity
  8
32
  6
Continuous
 62
     4
370
    25
100
AcDbLine
 10
-6.466663986444464
 20
-107.4999999850988
 30
0.0
 11
-4.466663956642142
 21
-107.1999999806285
 31
0.0
  0
LINE
  5
1BF
330
1F
100
AcDbEntity
  8
32
  6
Continuous
 62
     4
370
    25
100
AcDbLine
 10
-4.466663956642142
 20
-107.7999999895692
 30
0.0
 11
-4.466663956642142
 21
-107.1999999806285
 31
0.0
  0
LINE
  5
1C0
330
1F
100
AcDbEntity
  8
32
  6
Continuous
 62
     4
370
    25
100
AcDbLine
 10
-4.466663956642142
 20
-107.7999999895692
 30
0.0
 11
-6.466663986444464
 21
-107.4999999850988
 31
0.0
  0
LINE
  5
1C1
330
1F
100
AcDbEntity
  8
32
  6
Continuous
 62
     4
370
    25
100
AcDbLine
 10
-6.466663986444464
 20
-107.4999999850988
 30
0.0
 11
-3.466663941740981
 21
-107.4999999850988
 31
0.0
  0
LINE
  5
1C2
330
1F
100
AcDbEntity
  8
32
  6
Continuous
 62
     4
370
    25
100
AcDbLine
 10
-6.466663986444464
 20
-108.5
 30
0.0
 11
-6.466663986444464
 21
-103.4999999254942
 31
0.0
  0
LINE
  5
1C3
330
1F
100
AcDbEntity
  8
32
  6
Continuous
 62
     4
370
    25
100
AcDbLine
 10
-7.966664008796206
 20
-94.33329980721027
 30
0.0
 11
-9.96666403859853
 21
-94.03329980273992
 31
0.0
  0
LINE
  5
1C4
330
1F
100
AcDbEntity
  8
32
  6
Continuous
 62
     4
370
    25
100
AcDbLine
 10
-9.96666403859853
 20
-94.63329981168062
 30
0.0
 11
-9.96666403859853
 21
-94.03329980273992
 31
0.0
  0
LINE
  5
1C5
330
1F
100
AcDbEntity
  8
32
  6
Continuous
 62
     4
370
    25
100
AcDbLine
 10
-9.96666403859853
 20
-94.63329981168062
 30
0.0
 11
-7.966664008796206
 21
-94.33329980721027
 31
0.0
  0
LINE
  5
1C6
330
1F
100
AcDbEntity
  8
32
  6
Continuous
 62
     4
370
    25
100
AcDbLine
 10
-10.96666405349969
 20
-94.33329980721027
 30
0.0
 11
-7.966664008796206
 21
-94.33329980721027
 31
0.0
  0
LINE
  5
1C7
330
1F
100
AcDbEntity
  8
32
  6
Continuous
 62
     4
370
    25
100
AcDbLine
 10
-6.633333834509093
 20
-94.33329980721027
 30
0.0
 11
-4.633333804706771
 21
-94.03329980273992
 31
0.0
  0
LINE
  5
1C8
330
1F
100
AcDbEntity
  8
32
  6
Continuous
 62
     4
370
    25
100
AcDbLine
 10
-4.633333804706771
 20
-94.63329981168062
 30
0.0
 11
-4.633333804706771
 21
-94.03329980273992
 31
0.0
  0
LINE
  5
1C9
330
1F
100
AcDbEntity
  8
32
  6
Continuous
 62
     4
370
    25
100
AcDbLine
 10
-4.633333804706771
 20
-94.63329981168062
 30
0.0
 11
-6.633333834509093
 21
-94.33329980721027
 31
0.0
  0
LINE
  5
1CA
330
1F
100
AcDbEntity
  8
32
  6
Continuous
 62
     4
370
    25
100
AcDbLine
 10
-6.633333834509093
 20
-94.33329980721027
 30
0.0
 11
-3.63333378980561
 21
-94.33329980721027
 31
0.0
  0
TEXT
  5
1CB
330
1F
100
AcDbEntity
  8
32
 62
     2
100
AcDbText
 10
-10.3000041159274
 20
-78.199999550968
 30
0.0
 40
2.0
  1
12.5
 41
0.7500000028125
  7
dcStyle0
 72
     5
 11
-4.3000040259274
 21
-78.199999550968
 31
0.0
100
AcDbText
  0
TEXT
  5
1CC
330
1F
100
AcDbEntity
  8
32
 62
     2
100
AcDbText
 10
-20.5666741159274
 20
-73.499999480968
 30
0.0
 40
2.0
  1
ｾﾗﾐｯｸ
 41
0.7500000029999999
  7
dcStyle0
 72
     5
 11
-13.0666739959274
 21
-73.499999480968
 31
0.0
100
AcDbText
  0
TEXT
  5
1CD
330
1F
100
AcDbEntity
  8
32
 62
     2
100
AcDbText
 10
-0.4329995759274006
 20
-73.166630410968
 30
0.0
 40
2.0
  1
剥離防止
 41
0.625000003515625
  7
dcStyle0
 72
     5
 11
5.5670005140726
 21
-73.166630410968
 31
0.0
100
AcDbText
  0
TEXT
  5
1CE
330
1F
100
AcDbEntity
  8
32
 62
     2
100
AcDbText
 10
-0.5996694259274014
 20
-75.666630450968
 30
0.0
 40
2.0
  1
スプリング
 41
0.5416666697222222
  7
dcStyle0
 72
     5
 11
5.900330654072599
 21
-75.666630450968
 31
0.0
100
AcDbText
  0
TEXT
  5
1CF
330
1F
100
AcDbEntity
  8
32
 62
     2
100
AcDbText
 10
-8.7999939859274
 20
-72.499999460968
 30
0.0
 40
2.0
  1
20
 41
0.7500000025
  7
dcStyle0
 72
     5
 11
-5.799993945927401
 21
-72.499999460968
 31
0.0
100
AcDbText
  0
TEXT
  5
1D0
330
1F
100
AcDbEntity
  8
32
 62
     2
100
AcDbText
 10
-15.43333415352357
 20
-85.9999996577629
 30
0.0
 40
2.0
  1
6.5
 50
90.0000001836389
 41
0.7500000025000009
  7
dcStyle0
 72
     5
 11
-15.43333416794654
 21
-81.4999995977629
 31
0.0
100
AcDbText
  0
TEXT
  5
1D1
330
1F
100
AcDbEntity
  8
32
 62
     2
100
AcDbText
 10
1.033336316476427
 20
-95.99999980776289
 30
0.0
 40
2.0
  1
 60 
 50
90.0000001836389
 41
0.7500000028125
  7
dcStyle0
 72
     5
 11
1.033336297245806
 21
-89.99999971776289
 31
0.0
100
AcDbText
  0
TEXT
  5
1D2
330
1F
100
AcDbEntity
  8
32
 62
     2
100
AcDbText
 10
-6.466663985927401
 20
-106.799999970968
 30
0.0
 40
2.0
  1
 5 
 41
0.7500000025
  7
dcStyle0
 72
     5
 11
-1.966663925927401
 21
-106.799999970968
 31
0.0
100
AcDbText
  0
TEXT
  5
1D3
330
1F
100
AcDbEntity
  8
32
 62
     2
100
AcDbText
 10
-17.4666332559274
 20
-95.333299820968
 30
0.0
 40
2.0
  1
 4.2 
 41
0.7500000029999999
  7
dcStyle0
 72
     5
 11
-9.966633135927399
 21
-95.333299820968
 31
0.0
100
AcDbText
  0
LINE
  5
1D4
330
1F
100
AcDbEntity
  8
16
  6
Continuous
 62
     3
370
    25
100
AcDbLine
 10
-182.0
 20
-128.5
 30
0.0
 11
-178.9999999552965
 21
-128.5
 31
0.0
  0
LINE
  5
1D5
330
1F
100
AcDbEntity
  8
16
  6
Continuous
 62
     3
370
    25
100
AcDbLine
 10
-178.9999999552965
 20
-128.5
 30
0.0
 11
-178.9999999552965
 21
-125.4999999552965
 31
0.0
  0
LINE
  5
1D6
330
1F
100
AcDbEntity
  8
16
  6
Continuous
 62
     3
370
    25
100
AcDbLine
 10
-182.0
 20
-125.4999999552965
 30
0.0
 11
-178.9999999552965
 21
-125.4999999552965
 31
0.0
  0
LINE
  5
1D7
330
1F
100
AcDbEntity
  8
16
  6
Continuous
 62
     3
370
    25
100
AcDbLine
 10
-182.0
 20
-128.5
 30
0.0
 11
-182.0
 21
-125.4999999552965
 31
0.0
  0
LINE
  5
1D8
330
1F
100
AcDbEntity
  8
16
  6
Continuous
 62
     3
370
    25
100
AcDbLine
 10
-182.0
 20
-128.5
 30
0.0
 11
-178.9999999552965
 21
-128.5
 31
0.0
  0
LINE
  5
1D9
330
1F
100
AcDbEntity
  8
16
  6
Continuous
 62
     3
370
    25
100
AcDbLine
 10
-178.9999999552965
 20
-128.5
 30
0.0
 11
-178.9999999552965
 21
-125.4999999552965
 31
0.0
  0
LINE
  5
1DA
330
1F
100
AcDbEntity
  8
16
  6
Continuous
 62
     3
370
    25
100
AcDbLine
 10
-182.0
 20
-125.4999999552965
 30
0.0
 11
-178.9999999552965
 21
-125.4999999552965
 31
0.0
  0
LINE
  5
1DB
330
1F
100
AcDbEntity
  8
16
  6
Continuous
 62
     3
370
    25
100
AcDbLine
 10
-182.0
 20
-128.5
 30
0.0
 11
-182.0
 21
-125.4999999552965
 31
0.0
  0
LINE
  5
1DC
330
1F
100
AcDbEntity
  8
16
  6
Continuous
 62
     3
370
    25
100
AcDbLine
 10
-182.0
 20
-128.5
 30
0.0
 11
-178.9999999552965
 21
-128.5
 31
0.0
  0
LINE
  5
1DD
330
1F
100
AcDbEntity
  8
16
  6
Continuous
 62
     3
370
    25
100
AcDbLine
 10
-178.9999999552965
 20
-128.5
 30
0.0
 11
-178.9999999552965
 21
-125.4999999552965
 31
0.0
  0
LINE
  5
1DE
330
1F
100
AcDbEntity
  8
16
  6
Continuous
 62
     3
370
    25
100
AcDbLine
 10
-182.0
 20
-125.4999999552965
 30
0.0
 11
-178.9999999552965
 21
-125.4999999552965
 31
0.0
  0
LINE
  5
1DF
330
1F
100
AcDbEntity
  8
16
  6
Continuous
 62
     3
370
    25
100
AcDbLine
 10
-182.0
 20
-128.5
 30
0.0
 11
-182.0
 21
-125.4999999552965
 31
0.0
  0
LINE
  5
1E0
330
1F
100
AcDbEntity
  8
16
  6
Continuous
 62
     3
370
    25
100
AcDbLine
 10
-182.0
 20
-128.5
 30
0.0
 11
-178.9999999552965
 21
-128.5
 31
0.0
  0
LINE
  5
1E1
330
1F
100
AcDbEntity
  8
16
  6
Continuous
 62
     3
370
    25
100
AcDbLine
 10
-178.9999999552965
 20
-128.5
 30
0.0
 11
-178.9999999552965
 21
-125.4999999552965
 31
0.0
  0
LINE
  5
1E2
330
1F
100
AcDbEntity
  8
16
  6
Continuous
 62
     3
370
    25
100
AcDbLine
 10
-182.0
 20
-125.4999999552965
 30
0.0
 11
-178.9999999552965
 21
-125.4999999552965
 31
0.0
  0
LINE
  5
1E3
330
1F
100
AcDbEntity
  8
16
  6
Continuous
 62
     3
370
    25
100
AcDbLine
 10
-182.0
 20
-128.5
 30
0.0
 11
-182.0
 21
-125.4999999552965
 31
0.0
  0
LINE
  5
1E4
330
1F
100
AcDbEntity
  8
16
  6
Continuous
 62
     3
370
    25
100
AcDbLine
 10
-182.0
 20
-128.5
 30
0.0
 11
-178.9999999552965
 21
-128.5
 31
0.0
  0
LINE
  5
1E5
330
1F
100
AcDbEntity
  8
16
  6
Continuous
 62
     3
370
    25
100
AcDbLine
 10
-178.9999999552965
 20
-128.5
 30
0.0
 11
-178.9999999552965
 21
-125.4999999552965
 31
0.0
  0
LINE
  5
1E6
330
1F
100
AcDbEntity
  8
16
  6
Continuous
 62
     3
370
    25
100
AcDbLine
 10
-182.0
 20
-125.4999999552965
 30
0.0
 11
-178.9999999552965
 21
-125.4999999552965
 31
0.0
  0
LINE
  5
1E7
330
1F
100
AcDbEntity
  8
16
  6
Continuous
 62
     3
370
    25
100
AcDbLine
 10
-182.0
 20
-128.5
 30
0.0
 11
-182.0
 21
-125.4999999552965
 31
0.0
  0
LINE
  5
1E8
330
1F
100
AcDbEntity
  8
16
  6
Continuous
 62
     3
370
    25
100
AcDbLine
 10
-111.4874984845519
 20
59.60000610351562
 30
0.0
 11
-74.1124984845519
 21
59.60000610351562
 31
0.0
  0
LINE
  5
1E9
330
1F
100
AcDbEntity
  8
16
  6
Continuous
 62
     3
370
    25
100
AcDbLine
 10
-74.1124984845519
 20
59.03750610351562
 30
0.0
 11
-74.1124984845519
 21
59.60000610351562
 31
0.0
  0
LINE
  5
1EA
330
1F
100
AcDbEntity
  8
16
  6
Continuous
 62
     3
370
    25
100
AcDbLine
 10
-111.4874984845519
 20
59.03750610351562
 30
0.0
 11
-74.1124984845519
 21
59.03750610351562
 31
0.0
  0
LINE
  5
1EB
330
1F
100
AcDbEntity
  8
16
  6
Continuous
 62
     3
370
    25
100
AcDbLine
 10
-111.4874984845519
 20
59.03750610351562
 30
0.0
 11
-111.4874984845519
 21
59.60000610351562
 31
0.0
  0
LINE
  5
1EC
330
1F
100
AcDbEntity
  8
16
  6
Continuous
 62
     3
370
    25
100
AcDbLine
 10
-111.4874984845519
 20
-27.33749389648437
 30
0.0
 11
-74.1124984845519
 21
-27.33749389648437
 31
0.0
  0
LINE
  5
1ED
330
1F
100
AcDbEntity
  8
16
  6
Continuous
 62
     3
370
    25
100
AcDbLine
 10
-74.1124984845519
 20
-27.89999389648437
 30
0.0
 11
-74.1124984845519
 21
-27.33749389648437
 31
0.0
  0
LINE
  5
1EE
330
1F
100
AcDbEntity
  8
16
  6
Continuous
 62
     3
370
    25
100
AcDbLine
 10
-111.4874984845519
 20
-27.89999389648437
 30
0.0
 11
-74.1124984845519
 21
-27.89999389648437
 31
0.0
  0
LINE
  5
1EF
330
1F
100
AcDbEntity
  8
16
  6
Continuous
 62
     3
370
    25
100
AcDbLine
 10
-111.4874984845519
 20
-27.89999389648437
 30
0.0
 11
-111.4874984845519
 21
-27.33749389648437
 31
0.0
  0
LINE
  5
1F0
330
1F
100
AcDbEntity
  8
16
  6
Continuous
 62
     3
370
    25
100
AcDbLine
 10
-108.9874984845519
 20
47.53750610351562
 30
0.0
 11
-107.999998472631
 21
47.53750610351562
 31
0.0
  0
LINE
  5
1F1
330
1F
100
AcDbEntity
  8
16
  6
Continuous
 62
     3
370
    25
100
AcDbLine
 10
-105.5000030621886
 20
47.53750610351562
 30
0.0
 11
-104.5125030502677
 21
47.53750610351562
 31
0.0
  0
LINE
  5
1F2
330
1F
100
AcDbEntity
  8
16
  6
Continuous
 62
     3
370
    25
100
AcDbLine
 10
-102.0125000104308
 20
47.53750610351562
 30
0.0
 11
-101.0249999985099
 21
47.53750610351562
 31
0.0
  0
LINE
  5
1F3
330
1F
100
AcDbEntity
  8
16
  6
Continuous
 62
     3
370
    25
100
AcDbLine
 10
-98.524996958673
 20
47.53750610351562
 30
0.0
 11
-97.53749694675207
 21
47.53750610351562
 31
0.0
  0
LINE
  5
1F4
330
1F
100
AcDbEntity
  8
16
  6
Continuous
 62
     3
370
    25
100
AcDbLine
 10
-95.03750153630972
 20
47.53750610351562
 30
0.0
 11
-94.05000152438879
 21
47.53750610351562
 31
0.0
  0
LINE
  5
1F5
330
1F
100
AcDbEntity
  8
16
  6
Continuous
 62
     3
370
    25
100
AcDbLine
 10
-91.5499984845519
 20
47.53750610351562
 30
0.0
 11
-90.56249847263098
 21
47.53750610351562
 31
0.0
  0
LINE
  5
1F6
330
1F
100
AcDbEntity
  8
16
  6
Continuous
 62
     3
370
    25
100
AcDbLine
 10
-88.06250306218863
 20
47.53750610351562
 30
0.0
 11
-87.0750030502677
 21
47.53750610351562
 31
0.0
  0
LINE
  5
1F7
330
1F
100
AcDbEntity
  8
16
  6
Continuous
 62
     3
370
    25
100
AcDbLine
 10
-84.57500001043081
 20
47.53750610351562
 30
0.0
 11
-83.58749999850988
 21
47.53750610351562
 31
0.0
  0
LINE
  5
1F8
330
1F
100
AcDbEntity
  8
16
  6
Continuous
 62
     3
370
    25
100
AcDbLine
 10
-81.087496958673
 20
47.53750610351562
 30
0.0
 11
-80.09999694675207
 21
47.53750610351562
 31
0.0
  0
LINE
  5
1F9
330
1F
100
AcDbEntity
  8
16
  6
Continuous
 62
     3
370
    25
100
AcDbLine
 10
-77.60000153630972
 20
47.53750610351562
 30
0.0
 11
-76.61250027269125
 21
47.53750610351562
 31
0.0
  0
LINE
  5
1FA
330
1F
100
AcDbEntity
  8
16
  6
Continuous
 62
     3
370
    25
100
AcDbLine
 10
-108.9874984845519
 20
46.66250610351562
 30
0.0
 11
-107.999998472631
 21
46.66250610351562
 31
0.0
  0
LINE
  5
1FB
330
1F
100
AcDbEntity
  8
16
  6
Continuous
 62
     3
370
    25
100
AcDbLine
 10
-105.5000030621886
 20
46.66250610351562
 30
0.0
 11
-104.5125030502677
 21
46.66250610351562
 31
0.0
  0
LINE
  5
1FC
330
1F
100
AcDbEntity
  8
16
  6
Continuous
 62
     3
370
    25
100
AcDbLine
 10
-102.0125000104308
 20
46.66250610351562
 30
0.0
 11
-101.0249999985099
 21
46.66250610351562
 31
0.0
  0
LINE
  5
1FD
330
1F
100
AcDbEntity
  8
16
  6
Continuous
 62
     3
370
    25
100
AcDbLine
 10
-98.524996958673
 20
46.66250610351562
 30
0.0
 11
-97.53749694675207
 21
46.66250610351562
 31
0.0
  0
LINE
  5
1FE
330
1F
100
AcDbEntity
  8
16
  6
Continuous
 62
     3
370
    25
100
AcDbLine
 10
-95.03750153630972
 20
46.66250610351562
 30
0.0
 11
-94.05000152438879
 21
46.66250610351562
 31
0.0
  0
LINE
  5
1FF
330
1F
100
AcDbEntity
  8
16
  6
Continuous
 62
     3
370
    25
100
AcDbLine
 10
-91.5499984845519
 20
46.66250610351562
 30
0.0
 11
-90.56249847263098
 21
46.66250610351562
 31
0.0
  0
LINE
  5
200
330
1F
100
AcDbEntity
  8
16
  6
Continuous
 62
     3
370
    25
100
AcDbLine
 10
-88.06250306218863
 20
46.66250610351562
 30
0.0
 11
-87.0750030502677
 21
46.66250610351562
 31
0.0
  0
LINE
  5
201
330
1F
100
AcDbEntity
  8
16
  6
Continuous
 62
     3
370
    25
100
AcDbLine
 10
-84.57500001043081
 20
46.66250610351562
 30
0.0
 11
-83.58749999850988
 21
46.66250610351562
 31
0.0
  0
LINE
  5
202
330
1F
100
AcDbEntity
  8
16
  6
Continuous
 62
     3
370
    25
100
AcDbLine
 10
-81.087496958673
 20
46.66250610351562
 30
0.0
 11
-80.09999694675207
 21
46.66250610351562
 31
0.0
  0
LINE
  5
203
330
1F
100
AcDbEntity
  8
16
  6
Continuous
 62
     3
370
    25
100
AcDbLine
 10
-77.60000153630972
 20
46.66250610351562
 30
0.0
 11
-76.61250027269125
 21
46.66250610351562
 31
0.0
  0
LINE
  5
204
330
1F
100
AcDbEntity
  8
16
  6
Continuous
 62
     3
370
    25
100
AcDbLine
 10
-108.9874984845519
 20
35.03750610351562
 30
0.0
 11
-107.999998472631
 21
35.03750610351562
 31
0.0
  0
LINE
  5
205
330
1F
100
AcDbEntity
  8
16
  6
Continuous
 62
     3
370
    25
100
AcDbLine
 10
-105.5000030621886
 20
35.03750610351562
 30
0.0
 11
-104.5125030502677
 21
35.03750610351562
 31
0.0
  0
LINE
  5
206
330
1F
100
AcDbEntity
  8
16
  6
Continuous
 62
     3
370
    25
100
AcDbLine
 10
-102.0125000104308
 20
35.03750610351562
 30
0.0
 11
-101.0249999985099
 21
35.03750610351562
 31
0.0
  0
LINE
  5
207
330
1F
100
AcDbEntity
  8
16
  6
Continuous
 62
     3
370
    25
100
AcDbLine
 10
-98.524996958673
 20
35.03750610351562
 30
0.0
 11
-97.53749694675207
 21
35.03750610351562
 31
0.0
  0
LINE
  5
208
330
1F
100
AcDbEntity
  8
16
  6
Continuous
 62
     3
370
    25
100
AcDbLine
 10
-95.03750153630972
 20
35.03750610351562
 30
0.0
 11
-94.05000152438879
 21
35.03750610351562
 31
0.0
  0
LINE
  5
209
330
1F
100
AcDbEntity
  8
16
  6
Continuous
 62
     3
370
    25
100
AcDbLine
 10
-91.5499984845519
 20
35.03750610351562
 30
0.0
 11
-90.56249847263098
 21
35.03750610351562
 31
0.0
  0
LINE
  5
20A
330
1F
100
AcDbEntity
  8
16
  6
Continuous
 62
     3
370
    25
100
AcDbLine
 10
-88.06250306218863
 20
35.03750610351562
 30
0.0
 11
-87.0750030502677
 21
35.03750610351562
 31
0.0
  0
LINE
  5
20B
330
1F
100
AcDbEntity
  8
16
  6
Continuous
 62
     3
370
    25
100
AcDbLine
 10
-84.57500001043081
 20
35.03750610351562
 30
0.0
 11
-83.58749999850988
 21
35.03750610351562
 31
0.0
  0
LINE
  5
20C
330
1F
100
AcDbEntity
  8
16
  6
Continuous
 62
     3
370
    25
100
AcDbLine
 10
-81.087496958673
 20
35.03750610351562
 30
0.0
 11
-80.09999694675207
 21
35.03750610351562
 31
0.0
  0
LINE
  5
20D
330
1F
100
AcDbEntity
  8
16
  6
Continuous
 62
     3
370
    25
100
AcDbLine
 10
-77.60000153630972
 20
35.03750610351562
 30
0.0
 11
-76.61250027269125
 21
35.03750610351562
 31
0.0
  0
LINE
  5
20E
330
1F
100
AcDbEntity
  8
16
  6
Continuous
 62
     3
370
    25
100
AcDbLine
 10
-108.9874984845519
 20
34.16250610351562
 30
0.0
 11
-107.999998472631
 21
34.16250610351562
 31
0.0
  0
LINE
  5
20F
330
1F
100
AcDbEntity
  8
16
  6
Continuous
 62
     3
370
    25
100
AcDbLine
 10
-105.5000030621886
 20
34.16250610351562
 30
0.0
 11
-104.5125030502677
 21
34.16250610351562
 31
0.0
  0
LINE
  5
210
330
1F
100
AcDbEntity
  8
16
  6
Continuous
 62
     3
370
    25
100
AcDbLine
 10
-102.0125000104308
 20
34.16250610351562
 30
0.0
 11
-101.0249999985099
 21
34.16250610351562
 31
0.0
  0
LINE
  5
211
330
1F
100
AcDbEntity
  8
16
  6
Continuous
 62
     3
370
    25
100
AcDbLine
 10
-98.524996958673
 20
34.16250610351562
 30
0.0
 11
-97.53749694675207
 21
34.16250610351562
 31
0.0
  0
LINE
  5
212
330
1F
100
AcDbEntity
  8
16
  6
Continuous
 62
     3
370
    25
100
AcDbLine
 10
-95.03750153630972
 20
34.16250610351562
 30
0.0
 11
-94.05000152438879
 21
34.16250610351562
 31
0.0
  0
LINE
  5
213
330
1F
100
AcDbEntity
  8
16
  6
Continuous
 62
     3
370
    25
100
AcDbLine
 10
-91.5499984845519
 20
34.16250610351562
 30
0.0
 11
-90.56249847263098
 21
34.16250610351562
 31
0.0
  0
LINE
  5
214
330
1F
100
AcDbEntity
  8
16
  6
Continuous
 62
     3
370
    25
100
AcDbLine
 10
-88.06250306218863
 20
34.16250610351562
 30
0.0
 11
-87.0750030502677
 21
34.16250610351562
 31
0.0
  0
LINE
  5
215
330
1F
100
AcDbEntity
  8
16
  6
Continuous
 62
     3
370
    25
100
AcDbLine
 10
-84.57500001043081
 20
34.16250610351562
 30
0.0
 11
-83.58749999850988
 21
34.16250610351562
 31
0.0
  0
LINE
  5
216
330
1F
100
AcDbEntity
  8
16
  6
Continuous
 62
     3
370
    25
100
AcDbLine
 10
-81.087496958673
 20
34.16250610351562
 30
0.0
 11
-80.09999694675207
 21
34.16250610351562
 31
0.0
  0
LINE
  5
217
330
1F
100
AcDbEntity
  8
16
  6
Continuous
 62
     3
370
    25
100
AcDbLine
 10
-77.60000153630972
 20
34.16250610351562
 30
0.0
 11
-76.61250027269125
 21
34.16250610351562
 31
0.0
  0
LINE
  5
218
330
1F
100
AcDbEntity
  8
16
  6
Continuous
 62
     3
370
    25
100
AcDbLine
 10
-108.9874984845519
 20
22.53750610351562
 30
0.0
 11
-107.999998472631
 21
22.53750610351562
 31
0.0
  0
LINE
  5
219
330
1F
100
AcDbEntity
  8
16
  6
Continuous
 62
     3
370
    25
100
AcDbLine
 10
-105.5000030621886
 20
22.53750610351562
 30
0.0
 11
-104.5125030502677
 21
22.53750610351562
 31
0.0
  0
LINE
  5
21A
330
1F
100
AcDbEntity
  8
16
  6
Continuous
 62
     3
370
    25
100
AcDbLine
 10
-102.0125000104308
 20
22.53750610351562
 30
0.0
 11
-101.0249999985099
 21
22.53750610351562
 31
0.0
  0
LINE
  5
21B
330
1F
100
AcDbEntity
  8
16
  6
Continuous
 62
     3
370
    25
100
AcDbLine
 10
-98.524996958673
 20
22.53750610351562
 30
0.0
 11
-97.53749694675207
 21
22.53750610351562
 31
0.0
  0
LINE
  5
21C
330
1F
100
AcDbEntity
  8
16
  6
Continuous
 62
     3
370
    25
100
AcDbLine
 10
-95.03750153630972
 20
22.53750610351562
 30
0.0
 11
-94.05000152438879
 21
22.53750610351562
 31
0.0
  0
LINE
  5
21D
330
1F
100
AcDbEntity
  8
16
  6
Continuous
 62
     3
370
    25
100
AcDbLine
 10
-91.5499984845519
 20
22.53750610351562
 30
0.0
 11
-90.56249847263098
 21
22.53750610351562
 31
0.0
  0
LINE
  5
21E
330
1F
100
AcDbEntity
  8
16
  6
Continuous
 62
     3
370
    25
100
AcDbLine
 10
-88.06250306218863
 20
22.53750610351562
 30
0.0
 11
-87.0750030502677
 21
22.53750610351562
 31
0.0
  0
LINE
  5
21F
330
1F
100
AcDbEntity
  8
16
  6
Continuous
 62
     3
370
    25
100
AcDbLine
 10
-84.57500001043081
 20
22.53750610351562
 30
0.0
 11
-83.58749999850988
 21
22.53750610351562
 31
0.0
  0
LINE
  5
220
330
1F
100
AcDbEntity
  8
16
  6
Continuous
 62
     3
370
    25
100
AcDbLine
 10
-81.087496958673
 20
22.53750610351562
 30
0.0
 11
-80.09999694675207
 21
22.53750610351562
 31
0.0
  0
LINE
  5
221
330
1F
100
AcDbEntity
  8
16
  6
Continuous
 62
     3
370
    25
100
AcDbLine
 10
-77.60000153630972
 20
22.53750610351562
 30
0.0
 11
-76.61250027269125
 21
22.53750610351562
 31
0.0
  0
LINE
  5
222
330
1F
100
AcDbEntity
  8
16
  6
Continuous
 62
     3
370
    25
100
AcDbLine
 10
-108.9874984845519
 20
21.66250610351562
 30
0.0
 11
-107.999998472631
 21
21.66250610351562
 31
0.0
  0
LINE
  5
223
330
1F
100
AcDbEntity
  8
16
  6
Continuous
 62
     3
370
    25
100
AcDbLine
 10
-105.5000030621886
 20
21.66250610351562
 30
0.0
 11
-104.5125030502677
 21
21.66250610351562
 31
0.0
  0
LINE
  5
224
330
1F
100
AcDbEntity
  8
16
  6
Continuous
 62
     3
370
    25
100
AcDbLine
 10
-102.0125000104308
 20
21.66250610351562
 30
0.0
 11
-101.0249999985099
 21
21.66250610351562
 31
0.0
  0
LINE
  5
225
330
1F
100
AcDbEntity
  8
16
  6
Continuous
 62
     3
370
    25
100
AcDbLine
 10
-98.524996958673
 20
21.66250610351562
 30
0.0
 11
-97.53749694675207
 21
21.66250610351562
 31
0.0
  0
LINE
  5
226
330
1F
100
AcDbEntity
  8
16
  6
Continuous
 62
     3
370
    25
100
AcDbLine
 10
-95.03750153630972
 20
21.66250610351562
 30
0.0
 11
-94.05000152438879
 21
21.66250610351562
 31
0.0
  0
LINE
  5
227
330
1F
100
AcDbEntity
  8
16
  6
Continuous
 62
     3
370
    25
100
AcDbLine
 10
-91.5499984845519
 20
21.66250610351562
 30
0.0
 11
-90.56249847263098
 21
21.66250610351562
 31
0.0
  0
LINE
  5
228
330
1F
100
AcDbEntity
  8
16
  6
Continuous
 62
     3
370
    25
100
AcDbLine
 10
-88.06250306218863
 20
21.66250610351562
 30
0.0
 11
-87.0750030502677
 21
21.66250610351562
 31
0.0
  0
LINE
  5
229
330
1F
100
AcDbEntity
  8
16
  6
Continuous
 62
     3
370
    25
100
AcDbLine
 10
-84.57500001043081
 20
21.66250610351562
 30
0.0
 11
-83.58749999850988
 21
21.66250610351562
 31
0.0
  0
LINE
  5
22A
330
1F
100
AcDbEntity
  8
16
  6
Continuous
 62
     3
370
    25
100
AcDbLine
 10
-81.087496958673
 20
21.66250610351562
 30
0.0
 11
-80.09999694675207
 21
21.66250610351562
 31
0.0
  0
LINE
  5
22B
330
1F
100
AcDbEntity
  8
16
  6
Continuous
 62
     3
370
    25
100
AcDbLine
 10
-77.60000153630972
 20
21.66250610351562
 30
0.0
 11
-76.61250027269125
 21
21.66250610351562
 31
0.0
  0
LINE
  5
22C
330
1F
100
AcDbEntity
  8
16
  6
Continuous
 62
     3
370
    25
100
AcDbLine
 10
-108.9874984845519
 20
10.03750610351562
 30
0.0
 11
-107.999998472631
 21
10.03750610351562
 31
0.0
  0
LINE
  5
22D
330
1F
100
AcDbEntity
  8
16
  6
Continuous
 62
     3
370
    25
100
AcDbLine
 10
-105.5000030621886
 20
10.03750610351562
 30
0.0
 11
-104.5125030502677
 21
10.03750610351562
 31
0.0
  0
LINE
  5
22E
330
1F
100
AcDbEntity
  8
16
  6
Continuous
 62
     3
370
    25
100
AcDbLine
 10
-102.0125000104308
 20
10.03750610351562
 30
0.0
 11
-101.0249999985099
 21
10.03750610351562
 31
0.0
  0
LINE
  5
22F
330
1F
100
AcDbEntity
  8
16
  6
Continuous
 62
     3
370
    25
100
AcDbLine
 10
-98.524996958673
 20
10.03750610351562
 30
0.0
 11
-97.53749694675207
 21
10.03750610351562
 31
0.0
  0
LINE
  5
230
330
1F
100
AcDbEntity
  8
16
  6
Continuous
 62
     3
370
    25
100
AcDbLine
 10
-95.03750153630972
 20
10.03750610351562
 30
0.0
 11
-94.05000152438879
 21
10.03750610351562
 31
0.0
  0
LINE
  5
231
330
1F
100
AcDbEntity
  8
16
  6
Continuous
 62
     3
370
    25
100
AcDbLine
 10
-91.5499984845519
 20
10.03750610351562
 30
0.0
 11
-90.56249847263098
 21
10.03750610351562
 31
0.0
  0
LINE
  5
232
330
1F
100
AcDbEntity
  8
16
  6
Continuous
 62
     3
370
    25
100
AcDbLine
 10
-88.06250306218863
 20
10.03750610351562
 30
0.0
 11
-87.0750030502677
 21
10.03750610351562
 31
0.0
  0
LINE
  5
233
330
1F
100
AcDbEntity
  8
16
  6
Continuous
 62
     3
370
    25
100
AcDbLine
 10
-84.57500001043081
 20
10.03750610351562
 30
0.0
 11
-83.58749999850988
 21
10.03750610351562
 31
0.0
  0
LINE
  5
234
330
1F
100
AcDbEntity
  8
16
  6
Continuous
 62
     3
370
    25
100
AcDbLine
 10
-81.087496958673
 20
10.03750610351562
 30
0.0
 11
-80.09999694675207
 21
10.03750610351562
 31
0.0
  0
LINE
  5
235
330
1F
100
AcDbEntity
  8
16
  6
Continuous
 62
     3
370
    25
100
AcDbLine
 10
-77.60000153630972
 20
10.03750610351562
 30
0.0
 11
-76.61250027269125
 21
10.03750610351562
 31
0.0
  0
LINE
  5
236
330
1F
100
AcDbEntity
  8
16
  6
Continuous
 62
     3
370
    25
100
AcDbLine
 10
-108.9874984845519
 20
9.162506103515625
 30
0.0
 11
-107.999998472631
 21
9.162506103515625
 31
0.0
  0
LINE
  5
237
330
1F
100
AcDbEntity
  8
16
  6
Continuous
 62
     3
370
    25
100
AcDbLine
 10
-105.5000030621886
 20
9.162506103515625
 30
0.0
 11
-104.5125030502677
 21
9.162506103515625
 31
0.0
  0
LINE
  5
238
330
1F
100
AcDbEntity
  8
16
  6
Continuous
 62
     3
370
    25
100
AcDbLine
 10
-102.0125000104308
 20
9.162506103515625
 30
0.0
 11
-101.0249999985099
 21
9.162506103515625
 31
0.0
  0
LINE
  5
239
330
1F
100
AcDbEntity
  8
16
  6
Continuous
 62
     3
370
    25
100
AcDbLine
 10
-98.524996958673
 20
9.162506103515625
 30
0.0
 11
-97.53749694675207
 21
9.162506103515625
 31
0.0
  0
LINE
  5
23A
330
1F
100
AcDbEntity
  8
16
  6
Continuous
 62
     3
370
    25
100
AcDbLine
 10
-95.03750153630972
 20
9.162506103515625
 30
0.0
 11
-94.05000152438879
 21
9.162506103515625
 31
0.0
  0
LINE
  5
23B
330
1F
100
AcDbEntity
  8
16
  6
Continuous
 62
     3
370
    25
100
AcDbLine
 10
-91.5499984845519
 20
9.162506103515625
 30
0.0
 11
-90.56249847263098
 21
9.162506103515625
 31
0.0
  0
LINE
  5
23C
330
1F
100
AcDbEntity
  8
16
  6
Continuous
 62
     3
370
    25
100
AcDbLine
 10
-88.06250306218863
 20
9.162506103515625
 30
0.0
 11
-87.0750030502677
 21
9.162506103515625
 31
0.0
  0
LINE
  5
23D
330
1F
100
AcDbEntity
  8
16
  6
Continuous
 62
     3
370
    25
100
AcDbLine
 10
-84.57500001043081
 20
9.162506103515625
 30
0.0
 11
-83.58749999850988
 21
9.162506103515625
 31
0.0
  0
LINE
  5
23E
330
1F
100
AcDbEntity
  8
16
  6
Continuous
 62
     3
370
    25
100
AcDbLine
 10
-81.087496958673
 20
9.162506103515625
 30
0.0
 11
-80.09999694675207
 21
9.162506103515625
 31
0.0
  0
LINE
  5
23F
330
1F
100
AcDbEntity
  8
16
  6
Continuous
 62
     3
370
    25
100
AcDbLine
 10
-77.60000153630972
 20
9.162506103515625
 30
0.0
 11
-76.61250027269125
 21
9.162506103515625
 31
0.0
  0
LINE
  5
240
330
1F
100
AcDbEntity
  8
16
  6
Continuous
 62
     3
370
    25
100
AcDbLine
 10
-108.9874984845519
 20
-2.462501525878906
 30
0.0
 11
-107.999998472631
 21
-2.462501525878906
 31
0.0
  0
LINE
  5
241
330
1F
100
AcDbEntity
  8
16
  6
Continuous
 62
     3
370
    25
100
AcDbLine
 10
-105.5000030621886
 20
-2.462501525878906
 30
0.0
 11
-104.5125030502677
 21
-2.462501525878906
 31
0.0
  0
LINE
  5
242
330
1F
100
AcDbEntity
  8
16
  6
Continuous
 62
     3
370
    25
100
AcDbLine
 10
-102.0125000104308
 20
-2.462501525878906
 30
0.0
 11
-101.0249999985099
 21
-2.462501525878906
 31
0.0
  0
LINE
  5
243
330
1F
100
AcDbEntity
  8
16
  6
Continuous
 62
     3
370
    25
100
AcDbLine
 10
-98.524996958673
 20
-2.462501525878906
 30
0.0
 11
-97.53749694675207
 21
-2.462501525878906
 31
0.0
  0
LINE
  5
244
330
1F
100
AcDbEntity
  8
16
  6
Continuous
 62
     3
370
    25
100
AcDbLine
 10
-95.03750153630972
 20
-2.462501525878906
 30
0.0
 11
-94.05000152438879
 21
-2.462501525878906
 31
0.0
  0
LINE
  5
245
330
1F
100
AcDbEntity
  8
16
  6
Continuous
 62
     3
370
    25
100
AcDbLine
 10
-91.5499984845519
 20
-2.462501525878906
 30
0.0
 11
-90.56249847263098
 21
-2.462501525878906
 31
0.0
  0
LINE
  5
246
330
1F
100
AcDbEntity
  8
16
  6
Continuous
 62
     3
370
    25
100
AcDbLine
 10
-88.06250306218863
 20
-2.462501525878906
 30
0.0
 11
-87.0750030502677
 21
-2.462501525878906
 31
0.0
  0
LINE
  5
247
330
1F
100
AcDbEntity
  8
16
  6
Continuous
 62
     3
370
    25
100
AcDbLine
 10
-84.57500001043081
 20
-2.462501525878906
 30
0.0
 11
-83.58749999850988
 21
-2.462501525878906
 31
0.0
  0
LINE
  5
248
330
1F
100
AcDbEntity
  8
16
  6
Continuous
 62
     3
370
    25
100
AcDbLine
 10
-81.087496958673
 20
-2.462501525878906
 30
0.0
 11
-80.09999694675207
 21
-2.462501525878906
 31
0.0
  0
LINE
  5
249
330
1F
100
AcDbEntity
  8
16
  6
Continuous
 62
     3
370
    25
100
AcDbLine
 10
-77.60000153630972
 20
-2.462501525878906
 30
0.0
 11
-76.61250027269125
 21
-2.462501525878906
 31
0.0
  0
LINE
  5
24A
330
1F
100
AcDbEntity
  8
16
  6
Continuous
 62
     3
370
    25
100
AcDbLine
 10
-108.9874984845519
 20
-3.337501525878906
 30
0.0
 11
-107.999998472631
 21
-3.337501525878906
 31
0.0
  0
LINE
  5
24B
330
1F
100
AcDbEntity
  8
16
  6
Continuous
 62
     3
370
    25
100
AcDbLine
 10
-105.5000030621886
 20
-3.337501525878906
 30
0.0
 11
-104.5125030502677
 21
-3.337501525878906
 31
0.0
  0
LINE
  5
24C
330
1F
100
AcDbEntity
  8
16
  6
Continuous
 62
     3
370
    25
100
AcDbLine
 10
-102.0125000104308
 20
-3.337501525878906
 30
0.0
 11
-101.0249999985099
 21
-3.337501525878906
 31
0.0
  0
LINE
  5
24D
330
1F
100
AcDbEntity
  8
16
  6
Continuous
 62
     3
370
    25
100
AcDbLine
 10
-98.524996958673
 20
-3.337501525878906
 30
0.0
 11
-97.53749694675207
 21
-3.337501525878906
 31
0.0
  0
LINE
  5
24E
330
1F
100
AcDbEntity
  8
16
  6
Continuous
 62
     3
370
    25
100
AcDbLine
 10
-95.03750153630972
 20
-3.337501525878906
 30
0.0
 11
-94.05000152438879
 21
-3.337501525878906
 31
0.0
  0
LINE
  5
24F
330
1F
100
AcDbEntity
  8
16
  6
Continuous
 62
     3
370
    25
100
AcDbLine
 10
-91.5499984845519
 20
-3.337501525878906
 30
0.0
 11
-90.56249847263098
 21
-3.337501525878906
 31
0.0
  0
LINE
  5
250
330
1F
100
AcDbEntity
  8
16
  6
Continuous
 62
     3
370
    25
100
AcDbLine
 10
-88.06250306218863
 20
-3.337501525878906
 30
0.0
 11
-87.0750030502677
 21
-3.337501525878906
 31
0.0
  0
LINE
  5
251
330
1F
100
AcDbEntity
  8
16
  6
Continuous
 62
     3
370
    25
100
AcDbLine
 10
-84.57500001043081
 20
-3.337501525878906
 30
0.0
 11
-83.58749999850988
 21
-3.337501525878906
 31
0.0
  0
LINE
  5
252
330
1F
100
AcDbEntity
  8
16
  6
Continuous
 62
     3
370
    25
100
AcDbLine
 10
-81.087496958673
 20
-3.337501525878906
 30
0.0
 11
-80.09999694675207
 21
-3.337501525878906
 31
0.0
  0
LINE
  5
253
330
1F
100
AcDbEntity
  8
16
  6
Continuous
 62
     3
370
    25
100
AcDbLine
 10
-77.60000153630972
 20
-3.337501525878906
 30
0.0
 11
-76.61250027269125
 21
-3.337501525878906
 31
0.0
  0
LINE
  5
254
330
1F
100
AcDbEntity
  8
16
  6
Continuous
 62
     3
370
    25
100
AcDbLine
 10
-108.9874984845519
 20
-14.96250152587891
 30
0.0
 11
-107.999998472631
 21
-14.96250152587891
 31
0.0
  0
LINE
  5
255
330
1F
100
AcDbEntity
  8
16
  6
Continuous
 62
     3
370
    25
100
AcDbLine
 10
-105.5000030621886
 20
-14.96250152587891
 30
0.0
 11
-104.5125030502677
 21
-14.96250152587891
 31
0.0
  0
LINE
  5
256
330
1F
100
AcDbEntity
  8
16
  6
Continuous
 62
     3
370
    25
100
AcDbLine
 10
-102.0125000104308
 20
-14.96250152587891
 30
0.0
 11
-101.0249999985099
 21
-14.96250152587891
 31
0.0
  0
LINE
  5
257
330
1F
100
AcDbEntity
  8
16
  6
Continuous
 62
     3
370
    25
100
AcDbLine
 10
-98.524996958673
 20
-14.96250152587891
 30
0.0
 11
-97.53749694675207
 21
-14.96250152587891
 31
0.0
  0
LINE
  5
258
330
1F
100
AcDbEntity
  8
16
  6
Continuous
 62
     3
370
    25
100
AcDbLine
 10
-95.03750153630972
 20
-14.96250152587891
 30
0.0
 11
-94.05000152438879
 21
-14.96250152587891
 31
0.0
  0
LINE
  5
259
330
1F
100
AcDbEntity
  8
16
  6
Continuous
 62
     3
370
    25
100
AcDbLine
 10
-91.5499984845519
 20
-14.96250152587891
 30
0.0
 11
-90.56249847263098
 21
-14.96250152587891
 31
0.0
  0
LINE
  5
25A
330
1F
100
AcDbEntity
  8
16
  6
Continuous
 62
     3
370
    25
100
AcDbLine
 10
-88.06250306218863
 20
-14.96250152587891
 30
0.0
 11
-87.0750030502677
 21
-14.96250152587891
 31
0.0
  0
LINE
  5
25B
330
1F
100
AcDbEntity
  8
16
  6
Continuous
 62
     3
370
    25
100
AcDbLine
 10
-84.57500001043081
 20
-14.96250152587891
 30
0.0
 11
-83.58749999850988
 21
-14.96250152587891
 31
0.0
  0
LINE
  5
25C
330
1F
100
AcDbEntity
  8
16
  6
Continuous
 62
     3
370
    25
100
AcDbLine
 10
-81.087496958673
 20
-14.96250152587891
 30
0.0
 11
-80.09999694675207
 21
-14.96250152587891
 31
0.0
  0
LINE
  5
25D
330
1F
100
AcDbEntity
  8
16
  6
Continuous
 62
     3
370
    25
100
AcDbLine
 10
-77.60000153630972
 20
-14.96250152587891
 30
0.0
 11
-76.61250027269125
 21
-14.96250152587891
 31
0.0
  0
LINE
  5
25E
330
1F
100
AcDbEntity
  8
16
  6
Continuous
 62
     3
370
    25
100
AcDbLine
 10
-108.9874984845519
 20
-15.83750152587891
 30
0.0
 11
-107.999998472631
 21
-15.83750152587891
 31
0.0
  0
LINE
  5
25F
330
1F
100
AcDbEntity
  8
16
  6
Continuous
 62
     3
370
    25
100
AcDbLine
 10
-105.5000030621886
 20
-15.83750152587891
 30
0.0
 11
-104.5125030502677
 21
-15.83750152587891
 31
0.0
  0
LINE
  5
260
330
1F
100
AcDbEntity
  8
16
  6
Continuous
 62
     3
370
    25
100
AcDbLine
 10
-102.0125000104308
 20
-15.83750152587891
 30
0.0
 11
-101.0249999985099
 21
-15.83750152587891
 31
0.0
  0
LINE
  5
261
330
1F
100
AcDbEntity
  8
16
  6
Continuous
 62
     3
370
    25
100
AcDbLine
 10
-98.524996958673
 20
-15.83750152587891
 30
0.0
 11
-97.53749694675207
 21
-15.83750152587891
 31
0.0
  0
LINE
  5
262
330
1F
100
AcDbEntity
  8
16
  6
Continuous
 62
     3
370
    25
100
AcDbLine
 10
-95.03750153630972
 20
-15.83750152587891
 30
0.0
 11
-94.05000152438879
 21
-15.83750152587891
 31
0.0
  0
LINE
  5
263
330
1F
100
AcDbEntity
  8
16
  6
Continuous
 62
     3
370
    25
100
AcDbLine
 10
-91.5499984845519
 20
-15.83750152587891
 30
0.0
 11
-90.56249847263098
 21
-15.83750152587891
 31
0.0
  0
LINE
  5
264
330
1F
100
AcDbEntity
  8
16
  6
Continuous
 62
     3
370
    25
100
AcDbLine
 10
-88.06250306218863
 20
-15.83750152587891
 30
0.0
 11
-87.0750030502677
 21
-15.83750152587891
 31
0.0
  0
LINE
  5
265
330
1F
100
AcDbEntity
  8
16
  6
Continuous
 62
     3
370
    25
100
AcDbLine
 10
-84.57500001043081
 20
-15.83750152587891
 30
0.0
 11
-83.58749999850988
 21
-15.83750152587891
 31
0.0
  0
LINE
  5
266
330
1F
100
AcDbEntity
  8
16
  6
Continuous
 62
     3
370
    25
100
AcDbLine
 10
-81.087496958673
 20
-15.83750152587891
 30
0.0
 11
-80.09999694675207
 21
-15.83750152587891
 31
0.0
  0
LINE
  5
267
330
1F
100
AcDbEntity
  8
16
  6
Continuous
 62
     3
370
    25
100
AcDbLine
 10
-77.60000153630972
 20
-15.83750152587891
 30
0.0
 11
-76.61250027269125
 21
-15.83750152587891
 31
0.0
  0
LINE
  5
268
330
1F
100
AcDbEntity
  8
16
  6
Continuous
 62
     3
370
    25
100
AcDbLine
 10
-111.4874984845519
 20
-27.33749389648437
 30
0.0
 11
-111.4874984845519
 21
59.03750610351562
 31
0.0
  0
LINE
  5
269
330
1F
100
AcDbEntity
  8
16
  6
Continuous
 62
     3
370
    25
100
AcDbLine
 10
-111.4874984845519
 20
-27.33749389648437
 30
0.0
 11
-108.9874984845519
 21
-27.33749389648437
 31
0.0
  0
LINE
  5
26A
330
1F
100
AcDbEntity
  8
16
  6
Continuous
 62
     3
370
    25
100
AcDbLine
 10
-108.9874984845519
 20
-27.33749389648437
 30
0.0
 11
-108.9874984845519
 21
59.03750610351562
 31
0.0
  0
LINE
  5
26B
330
1F
100
AcDbEntity
  8
16
  6
Continuous
 62
     3
370
    25
100
AcDbLine
 10
-111.4874984845519
 20
59.03750610351562
 30
0.0
 11
-108.9874984845519
 21
59.03750610351562
 31
0.0
  0
LINE
  5
26C
330
1F
100
AcDbEntity
  8
16
  6
Continuous
 62
     3
370
    25
100
AcDbLine
 10
-110.9874984845519
 20
-27.33749389648437
 30
0.0
 11
-110.9874984845519
 21
59.03750610351562
 31
0.0
  0
LINE
  5
26D
330
1F
100
AcDbEntity
  8
16
  6
Continuous
 62
     3
370
    25
100
AcDbLine
 10
-109.4874984845519
 20
-27.33749389648437
 30
0.0
 11
-109.4874984845519
 21
59.03750610351562
 31
0.0
  0
LINE
  5
26E
330
1F
100
AcDbEntity
  8
16
  6
Continuous
 62
     3
370
    25
100
AcDbLine
 10
-110.2374984845519
 20
-26.71249389648437
 30
0.0
 11
-110.2374984845519
 21
58.41250610351562
 31
0.0
  0
LINE
  5
26F
330
1F
100
AcDbEntity
  8
16
  6
Continuous
 62
     3
370
    25
100
AcDbLine
 10
-108.0000030621886
 20
-27.33749389648437
 30
0.0
 11
-108.0000030621886
 21
59.03750610351562
 31
0.0
  0
LINE
  5
270
330
1F
100
AcDbEntity
  8
16
  6
Continuous
 62
     3
370
    25
100
AcDbLine
 10
-108.0000030621886
 20
-27.33749389648437
 30
0.0
 11
-105.5000030621886
 21
-27.33749389648437
 31
0.0
  0
LINE
  5
271
330
1F
100
AcDbEntity
  8
16
  6
Continuous
 62
     3
370
    25
100
AcDbLine
 10
-105.5000030621886
 20
-27.33749389648437
 30
0.0
 11
-105.5000030621886
 21
59.03750610351562
 31
0.0
  0
LINE
  5
272
330
1F
100
AcDbEntity
  8
16
  6
Continuous
 62
     3
370
    25
100
AcDbLine
 10
-108.0000030621886
 20
59.03750610351562
 30
0.0
 11
-105.5000030621886
 21
59.03750610351562
 31
0.0
  0
LINE
  5
273
330
1F
100
AcDbEntity
  8
16
  6
Continuous
 62
     3
370
    25
100
AcDbLine
 10
-107.5000030621886
 20
-27.33749389648437
 30
0.0
 11
-107.5000030621886
 21
59.03750610351562
 31
0.0
  0
LINE
  5
274
330
1F
100
AcDbEntity
  8
16
  6
Continuous
 62
     3
370
    25
100
AcDbLine
 10
-106.0000030621886
 20
-27.33749389648437
 30
0.0
 11
-106.0000030621886
 21
59.03750610351562
 31
0.0
  0
LINE
  5
275
330
1F
100
AcDbEntity
  8
16
  6
Continuous
 62
     3
370
    25
100
AcDbLine
 10
-106.7500030621886
 20
-26.71249389648437
 30
0.0
 11
-106.7500030621886
 21
58.41250610351562
 31
0.0
  0
LINE
  5
276
330
1F
100
AcDbEntity
  8
16
  6
Continuous
 62
     3
370
    25
100
AcDbLine
 10
-104.5125000104308
 20
-27.33749389648437
 30
0.0
 11
-104.5125000104308
 21
59.03750610351562
 31
0.0
  0
LINE
  5
277
330
1F
100
AcDbEntity
  8
16
  6
Continuous
 62
     3
370
    25
100
AcDbLine
 10
-104.5125000104308
 20
-27.33749389648437
 30
0.0
 11
-102.0125000104308
 21
-27.33749389648437
 31
0.0
  0
LINE
  5
278
330
1F
100
AcDbEntity
  8
16
  6
Continuous
 62
     3
370
    25
100
AcDbLine
 10
-102.0125000104308
 20
-27.33749389648437
 30
0.0
 11
-102.0125000104308
 21
59.03750610351562
 31
0.0
  0
LINE
  5
279
330
1F
100
AcDbEntity
  8
16
  6
Continuous
 62
     3
370
    25
100
AcDbLine
 10
-104.5125000104308
 20
59.03750610351562
 30
0.0
 11
-102.0125000104308
 21
59.03750610351562
 31
0.0
  0
LINE
  5
27A
330
1F
100
AcDbEntity
  8
16
  6
Continuous
 62
     3
370
    25
100
AcDbLine
 10
-104.0125000104308
 20
-27.33749389648437
 30
0.0
 11
-104.0125000104308
 21
59.03750610351562
 31
0.0
  0
LINE
  5
27B
330
1F
100
AcDbEntity
  8
16
  6
Continuous
 62
     3
370
    25
100
AcDbLine
 10
-102.5125000104308
 20
-27.33749389648437
 30
0.0
 11
-102.5125000104308
 21
59.03750610351562
 31
0.0
  0
LINE
  5
27C
330
1F
100
AcDbEntity
  8
16
  6
Continuous
 62
     3
370
    25
100
AcDbLine
 10
-103.2625000104308
 20
-26.71249389648437
 30
0.0
 11
-103.2625000104308
 21
58.41250610351562
 31
0.0
  0
LINE
  5
27D
330
1F
100
AcDbEntity
  8
16
  6
Continuous
 62
     3
370
    25
100
AcDbLine
 10
-101.024996958673
 20
-27.33749389648437
 30
0.0
 11
-101.024996958673
 21
59.03750610351562
 31
0.0
  0
LINE
  5
27E
330
1F
100
AcDbEntity
  8
16
  6
Continuous
 62
     3
370
    25
100
AcDbLine
 10
-101.024996958673
 20
-27.33749389648437
 30
0.0
 11
-98.524996958673
 21
-27.33749389648437
 31
0.0
  0
LINE
  5
27F
330
1F
100
AcDbEntity
  8
16
  6
Continuous
 62
     3
370
    25
100
AcDbLine
 10
-98.524996958673
 20
-27.33749389648437
 30
0.0
 11
-98.524996958673
 21
59.03750610351562
 31
0.0
  0
LINE
  5
280
330
1F
100
AcDbEntity
  8
16
  6
Continuous
 62
     3
370
    25
100
AcDbLine
 10
-101.024996958673
 20
59.03750610351562
 30
0.0
 11
-98.524996958673
 21
59.03750610351562
 31
0.0
  0
LINE
  5
281
330
1F
100
AcDbEntity
  8
16
  6
Continuous
 62
     3
370
    25
100
AcDbLine
 10
-100.524996958673
 20
-27.33749389648437
 30
0.0
 11
-100.524996958673
 21
59.03750610351562
 31
0.0
  0
LINE
  5
282
330
1F
100
AcDbEntity
  8
16
  6
Continuous
 62
     3
370
    25
100
AcDbLine
 10
-99.024996958673
 20
-27.33749389648437
 30
0.0
 11
-99.024996958673
 21
59.03750610351562
 31
0.0
  0
LINE
  5
283
330
1F
100
AcDbEntity
  8
16
  6
Continuous
 62
     3
370
    25
100
AcDbLine
 10
-99.774996958673
 20
-26.71249389648437
 30
0.0
 11
-99.774996958673
 21
58.41250610351562
 31
0.0
  0
LINE
  5
284
330
1F
100
AcDbEntity
  8
16
  6
Continuous
 62
     3
370
    25
100
AcDbLine
 10
-97.53750153630972
 20
-27.33749389648437
 30
0.0
 11
-97.53750153630972
 21
59.03750610351562
 31
0.0
  0
LINE
  5
285
330
1F
100
AcDbEntity
  8
16
  6
Continuous
 62
     3
370
    25
100
AcDbLine
 10
-97.53750153630972
 20
-27.33749389648437
 30
0.0
 11
-95.03750153630972
 21
-27.33749389648437
 31
0.0
  0
LINE
  5
286
330
1F
100
AcDbEntity
  8
16
  6
Continuous
 62
     3
370
    25
100
AcDbLine
 10
-95.03750153630972
 20
-27.33749389648437
 30
0.0
 11
-95.03750153630972
 21
59.03750610351562
 31
0.0
  0
LINE
  5
287
330
1F
100
AcDbEntity
  8
16
  6
Continuous
 62
     3
370
    25
100
AcDbLine
 10
-97.53750153630972
 20
59.03750610351562
 30
0.0
 11
-95.03750153630972
 21
59.03750610351562
 31
0.0
  0
LINE
  5
288
330
1F
100
AcDbEntity
  8
16
  6
Continuous
 62
     3
370
    25
100
AcDbLine
 10
-97.03750153630972
 20
-27.33749389648437
 30
0.0
 11
-97.03750153630972
 21
59.03750610351562
 31
0.0
  0
LINE
  5
289
330
1F
100
AcDbEntity
  8
16
  6
Continuous
 62
     3
370
    25
100
AcDbLine
 10
-95.53750153630972
 20
-27.33749389648437
 30
0.0
 11
-95.53750153630972
 21
59.03750610351562
 31
0.0
  0
LINE
  5
28A
330
1F
100
AcDbEntity
  8
16
  6
Continuous
 62
     3
370
    25
100
AcDbLine
 10
-96.28750153630972
 20
-26.71249389648437
 30
0.0
 11
-96.28750153630972
 21
58.41250610351562
 31
0.0
  0
LINE
  5
28B
330
1F
100
AcDbEntity
  8
16
  6
Continuous
 62
     3
370
    25
100
AcDbLine
 10
-94.0499984845519
 20
-27.33749389648437
 30
0.0
 11
-94.0499984845519
 21
59.03750610351562
 31
0.0
  0
LINE
  5
28C
330
1F
100
AcDbEntity
  8
16
  6
Continuous
 62
     3
370
    25
100
AcDbLine
 10
-94.0499984845519
 20
-27.33749389648437
 30
0.0
 11
-91.5499984845519
 21
-27.33749389648437
 31
0.0
  0
LINE
  5
28D
330
1F
100
AcDbEntity
  8
16
  6
Continuous
 62
     3
370
    25
100
AcDbLine
 10
-91.5499984845519
 20
-27.33749389648437
 30
0.0
 11
-91.5499984845519
 21
59.03750610351562
 31
0.0
  0
LINE
  5
28E
330
1F
100
AcDbEntity
  8
16
  6
Continuous
 62
     3
370
    25
100
AcDbLine
 10
-94.0499984845519
 20
59.03750610351562
 30
0.0
 11
-91.5499984845519
 21
59.03750610351562
 31
0.0
  0
LINE
  5
28F
330
1F
100
AcDbEntity
  8
16
  6
Continuous
 62
     3
370
    25
100
AcDbLine
 10
-93.5499984845519
 20
-27.33749389648437
 30
0.0
 11
-93.5499984845519
 21
59.03750610351562
 31
0.0
  0
LINE
  5
290
330
1F
100
AcDbEntity
  8
16
  6
Continuous
 62
     3
370
    25
100
AcDbLine
 10
-92.0499984845519
 20
-27.33749389648437
 30
0.0
 11
-92.0499984845519
 21
59.03750610351562
 31
0.0
  0
LINE
  5
291
330
1F
100
AcDbEntity
  8
16
  6
Continuous
 62
     3
370
    25
100
AcDbLine
 10
-92.7999984845519
 20
-26.71249389648437
 30
0.0
 11
-92.7999984845519
 21
58.41250610351562
 31
0.0
  0
LINE
  5
292
330
1F
100
AcDbEntity
  8
16
  6
Continuous
 62
     3
370
    25
100
AcDbLine
 10
-90.56250306218863
 20
-27.33749389648437
 30
0.0
 11
-90.56250306218863
 21
59.03750610351562
 31
0.0
  0
LINE
  5
293
330
1F
100
AcDbEntity
  8
16
  6
Continuous
 62
     3
370
    25
100
AcDbLine
 10
-90.56250306218863
 20
-27.33749389648437
 30
0.0
 11
-88.06250306218863
 21
-27.33749389648437
 31
0.0
  0
LINE
  5
294
330
1F
100
AcDbEntity
  8
16
  6
Continuous
 62
     3
370
    25
100
AcDbLine
 10
-88.06250306218863
 20
-27.33749389648437
 30
0.0
 11
-88.06250306218863
 21
59.03750610351562
 31
0.0
  0
LINE
  5
295
330
1F
100
AcDbEntity
  8
16
  6
Continuous
 62
     3
370
    25
100
AcDbLine
 10
-90.56250306218863
 20
59.03750610351562
 30
0.0
 11
-88.06250306218863
 21
59.03750610351562
 31
0.0
  0
LINE
  5
296
330
1F
100
AcDbEntity
  8
16
  6
Continuous
 62
     3
370
    25
100
AcDbLine
 10
-90.06250306218863
 20
-27.33749389648437
 30
0.0
 11
-90.06250306218863
 21
59.03750610351562
 31
0.0
  0
LINE
  5
297
330
1F
100
AcDbEntity
  8
16
  6
Continuous
 62
     3
370
    25
100
AcDbLine
 10
-88.56250306218863
 20
-27.33749389648437
 30
0.0
 11
-88.56250306218863
 21
59.03750610351562
 31
0.0
  0
LINE
  5
298
330
1F
100
AcDbEntity
  8
16
  6
Continuous
 62
     3
370
    25
100
AcDbLine
 10
-89.31250306218863
 20
-26.71249389648437
 30
0.0
 11
-89.31250306218863
 21
58.41250610351562
 31
0.0
  0
LINE
  5
299
330
1F
100
AcDbEntity
  8
16
  6
Continuous
 62
     3
370
    25
100
AcDbLine
 10
-87.07500001043081
 20
-27.33749389648437
 30
0.0
 11
-87.07500001043081
 21
59.03750610351562
 31
0.0
  0
LINE
  5
29A
330
1F
100
AcDbEntity
  8
16
  6
Continuous
 62
     3
370
    25
100
AcDbLine
 10
-87.07500001043081
 20
-27.33749389648437
 30
0.0
 11
-84.57500001043081
 21
-27.33749389648437
 31
0.0
  0
LINE
  5
29B
330
1F
100
AcDbEntity
  8
16
  6
Continuous
 62
     3
370
    25
100
AcDbLine
 10
-84.57500001043081
 20
-27.33749389648437
 30
0.0
 11
-84.57500001043081
 21
59.03750610351562
 31
0.0
  0
LINE
  5
29C
330
1F
100
AcDbEntity
  8
16
  6
Continuous
 62
     3
370
    25
100
AcDbLine
 10
-87.07500001043081
 20
59.03750610351562
 30
0.0
 11
-84.57500001043081
 21
59.03750610351562
 31
0.0
  0
LINE
  5
29D
330
1F
100
AcDbEntity
  8
16
  6
Continuous
 62
     3
370
    25
100
AcDbLine
 10
-86.57500001043081
 20
-27.33749389648437
 30
0.0
 11
-86.57500001043081
 21
59.03750610351562
 31
0.0
  0
LINE
  5
29E
330
1F
100
AcDbEntity
  8
16
  6
Continuous
 62
     3
370
    25
100
AcDbLine
 10
-85.07500001043081
 20
-27.33749389648437
 30
0.0
 11
-85.07500001043081
 21
59.03750610351562
 31
0.0
  0
LINE
  5
29F
330
1F
100
AcDbEntity
  8
16
  6
Continuous
 62
     3
370
    25
100
AcDbLine
 10
-85.82500001043081
 20
-26.71249389648437
 30
0.0
 11
-85.82500001043081
 21
58.41250610351562
 31
0.0
  0
LINE
  5
2A0
330
1F
100
AcDbEntity
  8
16
  6
Continuous
 62
     3
370
    25
100
AcDbLine
 10
-83.587496958673
 20
-27.33749389648437
 30
0.0
 11
-83.587496958673
 21
59.03750610351562
 31
0.0
  0
LINE
  5
2A1
330
1F
100
AcDbEntity
  8
16
  6
Continuous
 62
     3
370
    25
100
AcDbLine
 10
-83.587496958673
 20
-27.33749389648437
 30
0.0
 11
-81.087496958673
 21
-27.33749389648437
 31
0.0
  0
LINE
  5
2A2
330
1F
100
AcDbEntity
  8
16
  6
Continuous
 62
     3
370
    25
100
AcDbLine
 10
-81.087496958673
 20
-27.33749389648437
 30
0.0
 11
-81.087496958673
 21
59.03750610351562
 31
0.0
  0
LINE
  5
2A3
330
1F
100
AcDbEntity
  8
16
  6
Continuous
 62
     3
370
    25
100
AcDbLine
 10
-83.587496958673
 20
59.03750610351562
 30
0.0
 11
-81.087496958673
 21
59.03750610351562
 31
0.0
  0
LINE
  5
2A4
330
1F
100
AcDbEntity
  8
16
  6
Continuous
 62
     3
370
    25
100
AcDbLine
 10
-83.087496958673
 20
-27.33749389648437
 30
0.0
 11
-83.087496958673
 21
59.03750610351562
 31
0.0
  0
LINE
  5
2A5
330
1F
100
AcDbEntity
  8
16
  6
Continuous
 62
     3
370
    25
100
AcDbLine
 10
-81.587496958673
 20
-27.33749389648437
 30
0.0
 11
-81.587496958673
 21
59.03750610351562
 31
0.0
  0
LINE
  5
2A6
330
1F
100
AcDbEntity
  8
16
  6
Continuous
 62
     3
370
    25
100
AcDbLine
 10
-82.337496958673
 20
-26.71249389648437
 30
0.0
 11
-82.337496958673
 21
58.41250610351562
 31
0.0
  0
LINE
  5
2A7
330
1F
100
AcDbEntity
  8
16
  6
Continuous
 62
     3
370
    25
100
AcDbLine
 10
-80.10000153630972
 20
-27.33749389648437
 30
0.0
 11
-80.10000153630972
 21
59.03750610351562
 31
0.0
  0
LINE
  5
2A8
330
1F
100
AcDbEntity
  8
16
  6
Continuous
 62
     3
370
    25
100
AcDbLine
 10
-80.10000153630972
 20
-27.33749389648437
 30
0.0
 11
-77.60000153630972
 21
-27.33749389648437
 31
0.0
  0
LINE
  5
2A9
330
1F
100
AcDbEntity
  8
16
  6
Continuous
 62
     3
370
    25
100
AcDbLine
 10
-77.60000153630972
 20
-27.33749389648437
 30
0.0
 11
-77.60000153630972
 21
59.03750610351562
 31
0.0
  0
LINE
  5
2AA
330
1F
100
AcDbEntity
  8
16
  6
Continuous
 62
     3
370
    25
100
AcDbLine
 10
-80.10000153630972
 20
59.03750610351562
 30
0.0
 11
-77.60000153630972
 21
59.03750610351562
 31
0.0
  0
LINE
  5
2AB
330
1F
100
AcDbEntity
  8
16
  6
Continuous
 62
     3
370
    25
100
AcDbLine
 10
-79.60000153630972
 20
-27.33749389648437
 30
0.0
 11
-79.60000153630972
 21
59.03750610351562
 31
0.0
  0
LINE
  5
2AC
330
1F
100
AcDbEntity
  8
16
  6
Continuous
 62
     3
370
    25
100
AcDbLine
 10
-78.10000153630972
 20
-27.33749389648437
 30
0.0
 11
-78.10000153630972
 21
59.03750610351562
 31
0.0
  0
LINE
  5
2AD
330
1F
100
AcDbEntity
  8
16
  6
Continuous
 62
     3
370
    25
100
AcDbLine
 10
-78.85000153630972
 20
-26.71249389648437
 30
0.0
 11
-78.85000153630972
 21
58.41250610351562
 31
0.0
  0
LINE
  5
2AE
330
1F
100
AcDbEntity
  8
16
  6
Continuous
 62
     3
370
    25
100
AcDbLine
 10
-76.6124984845519
 20
-27.33749389648437
 30
0.0
 11
-76.6124984845519
 21
59.03750610351562
 31
0.0
  0
LINE
  5
2AF
330
1F
100
AcDbEntity
  8
16
  6
Continuous
 62
     3
370
    25
100
AcDbLine
 10
-76.6124984845519
 20
-27.33749389648437
 30
0.0
 11
-74.1124984845519
 21
-27.33749389648437
 31
0.0
  0
LINE
  5
2B0
330
1F
100
AcDbEntity
  8
16
  6
Continuous
 62
     3
370
    25
100
AcDbLine
 10
-74.1124984845519
 20
-27.33749389648437
 30
0.0
 11
-74.1124984845519
 21
59.03750610351562
 31
0.0
  0
LINE
  5
2B1
330
1F
100
AcDbEntity
  8
16
  6
Continuous
 62
     3
370
    25
100
AcDbLine
 10
-76.6124984845519
 20
59.03750610351562
 30
0.0
 11
-74.1124984845519
 21
59.03750610351562
 31
0.0
  0
LINE
  5
2B2
330
1F
100
AcDbEntity
  8
16
  6
Continuous
 62
     3
370
    25
100
AcDbLine
 10
-76.1124984845519
 20
-27.33749389648437
 30
0.0
 11
-76.1124984845519
 21
59.03750610351562
 31
0.0
  0
LINE
  5
2B3
330
1F
100
AcDbEntity
  8
16
  6
Continuous
 62
     3
370
    25
100
AcDbLine
 10
-74.6124984845519
 20
-27.33749389648437
 30
0.0
 11
-74.6124984845519
 21
59.03750610351562
 31
0.0
  0
LINE
  5
2B4
330
1F
100
AcDbEntity
  8
16
  6
Continuous
 62
     3
370
    25
100
AcDbLine
 10
-75.3624984845519
 20
-26.71249389648437
 30
0.0
 11
-75.3624984845519
 21
58.41250610351562
 31
0.0
  0
LINE
  5
2B5
330
1F
100
AcDbEntity
  8
16
  6
Continuous
 62
     3
370
    25
100
AcDbLine
 10
-29.11250611394644
 20
59.03750610351562
 30
0.0
 11
-22.86250611394644
 21
59.03750610351562
 31
0.0
  0
LINE
  5
2B6
330
1F
100
AcDbEntity
  8
16
  6
Continuous
 62
     3
370
    25
100
AcDbLine
 10
-22.86250611394644
 20
59.03750610351562
 30
0.0
 11
-22.86250611394644
 21
59.60000610351562
 31
0.0
  0
LINE
  5
2B7
330
1F
100
AcDbEntity
  8
16
  6
Continuous
 62
     3
370
    25
100
AcDbLine
 10
-22.86250611394644
 20
59.60000610351562
 30
0.0
 11
-29.11250611394644
 21
59.60000610351562
 31
0.0
  0
LINE
  5
2B8
330
1F
100
AcDbEntity
  8
16
  6
Continuous
 62
     3
370
    25
100
AcDbLine
 10
-29.11250611394644
 20
59.60000610351562
 30
0.0
 11
-29.11250611394644
 21
59.03750610351562
 31
0.0
  0
LINE
  5
2B9
330
1F
100
AcDbEntity
  8
16
  6
Continuous
 62
     3
370
    25
100
AcDbLine
 10
-29.11250611394644
 20
-27.33750152587891
 30
0.0
 11
-22.86250611394644
 21
-27.33750152587891
 31
0.0
  0
LINE
  5
2BA
330
1F
100
AcDbEntity
  8
16
  6
Continuous
 62
     3
370
    25
100
AcDbLine
 10
-22.86250611394644
 20
-27.33750152587891
 30
0.0
 11
-22.86250611394644
 21
-27.90000152587891
 31
0.0
  0
LINE
  5
2BB
330
1F
100
AcDbEntity
  8
16
  6
Continuous
 62
     3
370
    25
100
AcDbLine
 10
-22.86250611394644
 20
-27.90000152587891
 30
0.0
 11
-29.11250611394644
 21
-27.90000152587891
 31
0.0
  0
LINE
  5
2BC
330
1F
100
AcDbEntity
  8
16
  6
Continuous
 62
     3
370
    25
100
AcDbLine
 10
-29.11250611394644
 20
-27.90000152587891
 30
0.0
 11
-29.11250611394644
 21
-27.33750152587891
 31
0.0
  0
ARC
  5
2BD
330
1F
100
AcDbEntity
  8
16
  6
Continuous
 62
     3
370
    25
100
AcDbCircle
 10
-26.86250611394644
 20
47.10000610351562
 30
0.0
 40
0.5
100
AcDbArc
 50
46.60000000000011
 51
133.4000000000003
  0
ARC
  5
2BE
330
1F
100
AcDbEntity
  8
16
  6
Continuous
 62
     3
370
    25
100
AcDbCircle
 10
-26.86250611394644
 20
47.10000610351562
 30
0.0
 40
0.5
100
AcDbArc
 50
226.6000000000004
 51
313.4000000000007
  0
LINE
  5
2BF
330
1F
100
AcDbEntity
  8
16
  6
Continuous
 62
     3
370
    25
100
AcDbLine
 10
-26.61250611394644
 20
47.47500610351562
 30
0.0
 11
-27.11250611394644
 21
47.47500610351562
 31
0.0
  0
ARC
  5
2C0
330
1F
100
AcDbEntity
  8
16
  6
Continuous
 62
     3
370
    25
100
AcDbCircle
 10
-27.11250623649453
 20
47.10000610351565
 30
0.0
 40
0.375
100
AcDbArc
 50
90.0000000000002
 51
270.0000000000006
  0
LINE
  5
2C1
330
1F
100
AcDbEntity
  8
16
  6
Continuous
 62
     3
370
    25
100
AcDbLine
 10
-27.11250660413879
 20
46.72500610351583
 30
0.0
 11
-26.61250660413879
 21
46.72500610351583
 31
0.0
  0
ARC
  5
2C2
330
1F
100
AcDbEntity
  8
16
  6
Continuous
 62
     3
370
    25
100
AcDbCircle
 10
-26.61250623649453
 20
47.10000610351565
 30
0.0
 40
0.375
100
AcDbArc
 50
270.0000000000006
 51
90.00000000000102
  0
LINE
  5
2C3
330
1F
100
AcDbEntity
  8
16
  6
Continuous
 62
     3
370
    25
100
AcDbLine
 10
-27.86250611394644
 20
47.10000610351562
 30
0.0
 11
-25.86250611394645
 21
47.10000610351562
 31
0.0
  0
LINE
  5
2C4
330
1F
100
AcDbEntity
  8
16
  6
Continuous
 62
     3
370
    25
100
AcDbLine
 10
-26.86250611394644
 20
47.85000610351562
 30
0.0
 11
-26.86250611394644
 21
46.35000610351562
 31
0.0
  0
ARC
  5
2C5
330
1F
100
AcDbEntity
  8
16
  6
Continuous
 62
     3
370
    25
100
AcDbCircle
 10
-26.86250611394644
 20
34.60000610351562
 30
0.0
 40
0.5
100
AcDbArc
 50
46.60000000000011
 51
133.4000000000003
  0
ARC
  5
2C6
330
1F
100
AcDbEntity
  8
16
  6
Continuous
 62
     3
370
    25
100
AcDbCircle
 10
-26.86250611394644
 20
34.60000610351562
 30
0.0
 40
0.5
100
AcDbArc
 50
226.6000000000004
 51
313.4000000000007
  0
LINE
  5
2C7
330
1F
100
AcDbEntity
  8
16
  6
Continuous
 62
     3
370
    25
100
AcDbLine
 10
-26.61250611394644
 20
34.97500610351562
 30
0.0
 11
-27.11250611394644
 21
34.97500610351562
 31
0.0
  0
ARC
  5
2C8
330
1F
100
AcDbEntity
  8
16
  6
Continuous
 62
     3
370
    25
100
AcDbCircle
 10
-27.11250623649453
 20
34.60000610351565
 30
0.0
 40
0.375
100
AcDbArc
 50
90.0000000000002
 51
270.0000000000006
  0
LINE
  5
2C9
330
1F
100
AcDbEntity
  8
16
  6
Continuous
 62
     3
370
    25
100
AcDbLine
 10
-27.11250660413879
 20
34.22500610351583
 30
0.0
 11
-26.61250660413879
 21
34.22500610351583
 31
0.0
  0
ARC
  5
2CA
330
1F
100
AcDbEntity
  8
16
  6
Continuous
 62
     3
370
    25
100
AcDbCircle
 10
-26.61250623649453
 20
34.60000610351565
 30
0.0
 40
0.375
100
AcDbArc
 50
270.0000000000006
 51
90.00000000000102
  0
LINE
  5
2CB
330
1F
100
AcDbEntity
  8
16
  6
Continuous
 62
     3
370
    25
100
AcDbLine
 10
-27.86250611394644
 20
34.60000610351562
 30
0.0
 11
-25.86250611394645
 21
34.60000610351562
 31
0.0
  0
LINE
  5
2CC
330
1F
100
AcDbEntity
  8
16
  6
Continuous
 62
     3
370
    25
100
AcDbLine
 10
-26.86250611394644
 20
35.35000610351562
 30
0.0
 11
-26.86250611394644
 21
33.85000610351562
 31
0.0
  0
ARC
  5
2CD
330
1F
100
AcDbEntity
  8
16
  6
Continuous
 62
     3
370
    25
100
AcDbCircle
 10
-26.86250611394644
 20
22.10000610351562
 30
0.0
 40
0.5
100
AcDbArc
 50
46.60000000000011
 51
133.4000000000003
  0
ARC
  5
2CE
330
1F
100
AcDbEntity
  8
16
  6
Continuous
 62
     3
370
    25
100
AcDbCircle
 10
-26.86250611394644
 20
22.10000610351562
 30
0.0
 40
0.5
100
AcDbArc
 50
226.6000000000004
 51
313.4000000000007
  0
LINE
  5
2CF
330
1F
100
AcDbEntity
  8
16
  6
Continuous
 62
     3
370
    25
100
AcDbLine
 10
-26.61250611394644
 20
22.47500610351562
 30
0.0
 11
-27.11250611394644
 21
22.47500610351562
 31
0.0
  0
ARC
  5
2D0
330
1F
100
AcDbEntity
  8
16
  6
Continuous
 62
     3
370
    25
100
AcDbCircle
 10
-27.11250623649453
 20
22.10000610351565
 30
0.0
 40
0.375
100
AcDbArc
 50
90.0000000000002
 51
270.0000000000006
  0
LINE
  5
2D1
330
1F
100
AcDbEntity
  8
16
  6
Continuous
 62
     3
370
    25
100
AcDbLine
 10
-27.11250660413879
 20
21.72500610351583
 30
0.0
 11
-26.61250660413879
 21
21.72500610351583
 31
0.0
  0
ARC
  5
2D2
330
1F
100
AcDbEntity
  8
16
  6
Continuous
 62
     3
370
    25
100
AcDbCircle
 10
-26.61250623649453
 20
22.10000610351565
 30
0.0
 40
0.375
100
AcDbArc
 50
270.0000000000006
 51
90.00000000000102
  0
LINE
  5
2D3
330
1F
100
AcDbEntity
  8
16
  6
Continuous
 62
     3
370
    25
100
AcDbLine
 10
-27.86250611394644
 20
22.10000610351562
 30
0.0
 11
-25.86250611394645
 21
22.10000610351562
 31
0.0
  0
LINE
  5
2D4
330
1F
100
AcDbEntity
  8
16
  6
Continuous
 62
     3
370
    25
100
AcDbLine
 10
-26.86250611394644
 20
22.85000610351562
 30
0.0
 11
-26.86250611394644
 21
21.35000610351562
 31
0.0
  0
ARC
  5
2D5
330
1F
100
AcDbEntity
  8
16
  6
Continuous
 62
     3
370
    25
100
AcDbCircle
 10
-26.86250611394644
 20
9.600006103515625
 30
0.0
 40
0.5
100
AcDbArc
 50
46.60000000000011
 51
133.4000000000003
  0
ARC
  5
2D6
330
1F
100
AcDbEntity
  8
16
  6
Continuous
 62
     3
370
    25
100
AcDbCircle
 10
-26.86250611394644
 20
9.600006103515625
 30
0.0
 40
0.5
100
AcDbArc
 50
226.6000000000004
 51
313.4000000000007
  0
LINE
  5
2D7
330
1F
100
AcDbEntity
  8
16
  6
Continuous
 62
     3
370
    25
100
AcDbLine
 10
-26.61250611394644
 20
9.975006103515625
 30
0.0
 11
-27.11250611394644
 21
9.975006103515625
 31
0.0
  0
ARC
  5
2D8
330
1F
100
AcDbEntity
  8
16
  6
Continuous
 62
     3
370
    25
100
AcDbCircle
 10
-27.11250623649453
 20
9.600006103515646
 30
0.0
 40
0.375
100
AcDbArc
 50
90.0000000000002
 51
270.0000000000006
  0
LINE
  5
2D9
330
1F
100
AcDbEntity
  8
16
  6
Continuous
 62
     3
370
    25
100
AcDbLine
 10
-27.11250660413879
 20
9.225006103515828
 30
0.0
 11
-26.61250660413879
 21
9.225006103515828
 31
0.0
  0
ARC
  5
2DA
330
1F
100
AcDbEntity
  8
16
  6
Continuous
 62
     3
370
    25
100
AcDbCircle
 10
-26.61250623649453
 20
9.600006103515646
 30
0.0
 40
0.375
100
AcDbArc
 50
270.0000000000006
 51
90.00000000000102
  0
LINE
  5
2DB
330
1F
100
AcDbEntity
  8
16
  6
Continuous
 62
     3
370
    25
100
AcDbLine
 10
-27.86250611394644
 20
9.600006103515625
 30
0.0
 11
-25.86250611394645
 21
9.600006103515625
 31
0.0
  0
LINE
  5
2DC
330
1F
100
AcDbEntity
  8
16
  6
Continuous
 62
     3
370
    25
100
AcDbLine
 10
-26.86250611394644
 20
10.35000610351562
 30
0.0
 11
-26.86250611394644
 21
8.850006103515625
 31
0.0
  0
ARC
  5
2DD
330
1F
100
AcDbEntity
  8
16
  6
Continuous
 62
     3
370
    25
100
AcDbCircle
 10
-26.86250611394644
 20
-2.900001525878906
 30
0.0
 40
0.5
100
AcDbArc
 50
46.60000000000011
 51
133.4000000000003
  0
ARC
  5
2DE
330
1F
100
AcDbEntity
  8
16
  6
Continuous
 62
     3
370
    25
100
AcDbCircle
 10
-26.86250611394644
 20
-2.900001525878906
 30
0.0
 40
0.5
100
AcDbArc
 50
226.6000000000004
 51
313.4000000000007
  0
LINE
  5
2DF
330
1F
100
AcDbEntity
  8
16
  6
Continuous
 62
     3
370
    25
100
AcDbLine
 10
-26.61250611394644
 20
-2.525001525878906
 30
0.0
 11
-27.11250611394644
 21
-2.525001525878906
 31
0.0
  0
ARC
  5
2E0
330
1F
100
AcDbEntity
  8
16
  6
Continuous
 62
     3
370
    25
100
AcDbCircle
 10
-27.11250623649453
 20
-2.900001525878887
 30
0.0
 40
0.375
100
AcDbArc
 50
90.0000000000002
 51
270.0000000000006
  0
LINE
  5
2E1
330
1F
100
AcDbEntity
  8
16
  6
Continuous
 62
     3
370
    25
100
AcDbLine
 10
-27.11250660413879
 20
-3.275001525878707
 30
0.0
 11
-26.61250660413879
 21
-3.275001525878707
 31
0.0
  0
ARC
  5
2E2
330
1F
100
AcDbEntity
  8
16
  6
Continuous
 62
     3
370
    25
100
AcDbCircle
 10
-26.61250623649453
 20
-2.900001525878887
 30
0.0
 40
0.375
100
AcDbArc
 50
270.0000000000006
 51
90.00000000000102
  0
LINE
  5
2E3
330
1F
100
AcDbEntity
  8
16
  6
Continuous
 62
     3
370
    25
100
AcDbLine
 10
-27.86250611394644
 20
-2.900001525878906
 30
0.0
 11
-25.86250611394645
 21
-2.900001525878906
 31
0.0
  0
LINE
  5
2E4
330
1F
100
AcDbEntity
  8
16
  6
Continuous
 62
     3
370
    25
100
AcDbLine
 10
-26.86250611394644
 20
-2.150001525878906
 30
0.0
 11
-26.86250611394644
 21
-3.650001525878906
 31
0.0
  0
ARC
  5
2E5
330
1F
100
AcDbEntity
  8
16
  6
Continuous
 62
     3
370
    25
100
AcDbCircle
 10
-26.86250611394644
 20
-15.40000152587891
 30
0.0
 40
0.5
100
AcDbArc
 50
46.60000000000011
 51
133.4000000000003
  0
ARC
  5
2E6
330
1F
100
AcDbEntity
  8
16
  6
Continuous
 62
     3
370
    25
100
AcDbCircle
 10
-26.86250611394644
 20
-15.40000152587891
 30
0.0
 40
0.5
100
AcDbArc
 50
226.6000000000004
 51
313.4000000000007
  0
LINE
  5
2E7
330
1F
100
AcDbEntity
  8
16
  6
Continuous
 62
     3
370
    25
100
AcDbLine
 10
-26.61250611394644
 20
-15.02500152587891
 30
0.0
 11
-27.11250611394644
 21
-15.02500152587891
 31
0.0
  0
ARC
  5
2E8
330
1F
100
AcDbEntity
  8
16
  6
Continuous
 62
     3
370
    25
100
AcDbCircle
 10
-27.11250623649453
 20
-15.40000152587889
 30
0.0
 40
0.375
100
AcDbArc
 50
90.0000000000002
 51
270.0000000000006
  0
LINE
  5
2E9
330
1F
100
AcDbEntity
  8
16
  6
Continuous
 62
     3
370
    25
100
AcDbLine
 10
-27.11250660413879
 20
-15.77500152587871
 30
0.0
 11
-26.61250660413879
 21
-15.77500152587871
 31
0.0
  0
ARC
  5
2EA
330
1F
100
AcDbEntity
  8
16
  6
Continuous
 62
     3
370
    25
100
AcDbCircle
 10
-26.61250623649453
 20
-15.40000152587889
 30
0.0
 40
0.375
100
AcDbArc
 50
270.0000000000006
 51
90.00000000000102
  0
LINE
  5
2EB
330
1F
100
AcDbEntity
  8
16
  6
Continuous
 62
     3
370
    25
100
AcDbLine
 10
-27.86250611394644
 20
-15.40000152587891
 30
0.0
 11
-25.86250611394645
 21
-15.40000152587891
 31
0.0
  0
LINE
  5
2EC
330
1F
100
AcDbEntity
  8
16
  6
Continuous
 62
     3
370
    25
100
AcDbLine
 10
-26.86250611394644
 20
-14.65000152587891
 30
0.0
 11
-26.86250611394644
 21
-16.15000152587891
 31
0.0
  0
LINE
  5
2ED
330
1F
100
AcDbEntity
  8
16
  6
Continuous
 62
     3
370
    25
100
AcDbLine
 10
-29.11250611394644
 20
59.03750610351562
 30
0.0
 11
-29.11250611394644
 21
-27.33749389648437
 31
0.0
  0
LINE
  5
2EE
330
1F
100
AcDbEntity
  8
16
  6
Continuous
 62
     3
370
    25
100
AcDbLine
 10
-29.11250611394644
 20
-27.33749389648437
 30
0.0
 11
-21.61250611394644
 21
-27.33749389648437
 31
0.0
  0
LINE
  5
2EF
330
1F
100
AcDbEntity
  8
16
  6
Continuous
 62
     3
370
    25
100
AcDbLine
 10
-21.61250611394644
 20
-27.33749389648437
 30
0.0
 11
-21.61250611394644
 21
59.03750610351562
 31
0.0
  0
LINE
  5
2F0
330
1F
100
AcDbEntity
  8
16
  6
Continuous
 62
     3
370
    25
100
AcDbLine
 10
-21.61250611394644
 20
59.03750610351562
 30
0.0
 11
-29.11250611394644
 21
59.03750610351562
 31
0.0
  0
LINE
  5
2F1
330
1F
100
AcDbEntity
  8
16
  6
Continuous
 62
     3
370
    25
100
AcDbLine
 10
-28.86250611394644
 20
59.03750610351562
 30
0.0
 11
-28.86250611394644
 21
-27.33749389648437
 31
0.0
  0
LINE
  5
2F2
330
1F
100
AcDbEntity
  8
16
  6
Continuous
 62
     3
370
    25
100
AcDbLine
 10
-27.98750611394644
 20
-27.33749389648437
 30
0.0
 11
-27.98750611394644
 21
59.03750610351562
 31
0.0
  0
LINE
  5
2F3
330
1F
100
AcDbEntity
  8
16
  6
Continuous
 62
     3
370
    25
100
AcDbLine
 10
-27.48750611394644
 20
59.03750610351562
 30
0.0
 11
-27.48750611394644
 21
-27.33749389648437
 31
0.0
  0
LINE
  5
2F4
330
1F
100
AcDbEntity
  8
16
  6
Continuous
 62
     3
370
    25
100
AcDbLine
 10
-24.11250611394644
 20
-27.33749389648437
 30
0.0
 11
-24.11250611394644
 21
59.03750610351562
 31
0.0
  0
LINE
  5
2F5
330
1F
100
AcDbEntity
  8
16
  6
Continuous
 62
     3
370
    25
100
AcDbLine
 10
-111.4874984845519
 20
-72.3375015258789
 30
0.0
 11
-111.4874984845519
 21
-72.5875015258789
 31
0.0
  0
LINE
  5
2F6
330
1F
100
AcDbEntity
  8
16
  6
Continuous
 62
     3
370
    25
100
AcDbLine
 10
-111.4874984845519
 20
-72.5875015258789
 30
0.0
 11
-111.1124984845519
 21
-72.5875015258789
 31
0.0
  0
LINE
  5
2F7
330
1F
100
AcDbEntity
  8
16
  6
Continuous
 62
     3
370
    25
100
AcDbLine
 10
-111.1124984845519
 20
-72.5875015258789
 30
0.0
 11
-110.6124984845519
 21
-73.4625015258789
 31
0.0
  0
LINE
  5
2F8
330
1F
100
AcDbEntity
  8
16
  6
Continuous
 62
     3
370
    25
100
AcDbLine
 10
-110.6124984845519
 20
-73.4625015258789
 30
0.0
 11
-110.6124984845519
 21
-73.8375015258789
 31
0.0
  0
LINE
  5
2F9
330
1F
100
AcDbEntity
  8
16
  6
Continuous
 62
     3
370
    25
100
AcDbLine
 10
-110.6124984845519
 20
-73.8375015258789
 30
0.0
 11
-110.4874984845519
 21
-73.9625015258789
 31
0.0
  0
LINE
  5
2FA
330
1F
100
AcDbEntity
  8
16
  6
Continuous
 62
     3
370
    25
100
AcDbLine
 10
-110.4874984845519
 20
-73.9625015258789
 30
0.0
 11
-110.4874984845519
 21
-77.3375015258789
 31
0.0
  0
LINE
  5
2FB
330
1F
100
AcDbEntity
  8
16
  6
Continuous
 62
     3
370
    25
100
AcDbLine
 10
-110.4874984845519
 20
-77.3375015258789
 30
0.0
 11
-110.5499984845519
 21
-77.4625015258789
 31
0.0
  0
LINE
  5
2FC
330
1F
100
AcDbEntity
  8
16
  6
Continuous
 62
     3
370
    25
100
AcDbLine
 10
-110.5499984845519
 20
-77.4625015258789
 30
0.0
 11
-110.5499984845519
 21
-79.8375015258789
 31
0.0
  0
LINE
  5
2FD
330
1F
100
AcDbEntity
  8
16
  6
Continuous
 62
     3
370
    25
100
AcDbLine
 10
-110.5499984845519
 20
-79.8375015258789
 30
0.0
 11
-109.9249984845519
 21
-79.8375015258789
 31
0.0
  0
LINE
  5
2FE
330
1F
100
AcDbEntity
  8
16
  6
Continuous
 62
     3
370
    25
100
AcDbLine
 10
-109.9249984845519
 20
-79.8375015258789
 30
0.0
 11
-109.9249984845519
 21
-77.4625015258789
 31
0.0
  0
LINE
  5
2FF
330
1F
100
AcDbEntity
  8
16
  6
Continuous
 62
     3
370
    25
100
AcDbLine
 10
-109.9249984845519
 20
-77.4625015258789
 30
0.0
 11
-109.9874984845519
 21
-77.3375015258789
 31
0.0
  0
LINE
  5
300
330
1F
100
AcDbEntity
  8
16
  6
Continuous
 62
     3
370
    25
100
AcDbLine
 10
-109.9874984845519
 20
-77.3375015258789
 30
0.0
 11
-109.9874984845519
 21
-73.9625015258789
 31
0.0
  0
LINE
  5
301
330
1F
100
AcDbEntity
  8
16
  6
Continuous
 62
     3
370
    25
100
AcDbLine
 10
-109.9874984845519
 20
-73.9625015258789
 30
0.0
 11
-109.8624984845519
 21
-73.8375015258789
 31
0.0
  0
LINE
  5
302
330
1F
100
AcDbEntity
  8
16
  6
Continuous
 62
     3
370
    25
100
AcDbLine
 10
-109.8624984845519
 20
-73.8375015258789
 30
0.0
 11
-109.8624984845519
 21
-73.4625015258789
 31
0.0
  0
LINE
  5
303
330
1F
100
AcDbEntity
  8
16
  6
Continuous
 62
     3
370
    25
100
AcDbLine
 10
-109.8624984845519
 20
-73.4625015258789
 30
0.0
 11
-109.3624984845519
 21
-72.5875015258789
 31
0.0
  0
LINE
  5
304
330
1F
100
AcDbEntity
  8
16
  6
Continuous
 62
     3
370
    25
100
AcDbLine
 10
-109.3624984845519
 20
-72.5875015258789
 30
0.0
 11
-108.9874984845519
 21
-72.5875015258789
 31
0.0
  0
LINE
  5
305
330
1F
100
AcDbEntity
  8
16
  6
Continuous
 62
     3
370
    25
100
AcDbLine
 10
-108.9874984845519
 20
-72.5875015258789
 30
0.0
 11
-108.9874984845519
 21
-72.3375015258789
 31
0.0
  0
LINE
  5
306
330
1F
100
AcDbEntity
  8
16
  6
Continuous
 62
     3
370
    25
100
AcDbLine
 10
-108.9874984845519
 20
-72.3375015258789
 30
0.0
 11
-109.4874984845519
 21
-72.3375015258789
 31
0.0
  0
LINE
  5
307
330
1F
100
AcDbEntity
  8
16
  6
Continuous
 62
     3
370
    25
100
AcDbLine
 10
-109.4874984845519
 20
-72.3375015258789
 30
0.0
 11
-110.2374984845519
 21
-73.0875015258789
 31
0.0
  0
LINE
  5
308
330
1F
100
AcDbEntity
  8
16
  6
Continuous
 62
     3
370
    25
100
AcDbLine
 10
-110.2374984845519
 20
-73.0875015258789
 30
0.0
 11
-110.9874984845519
 21
-72.3375015258789
 31
0.0
  0
LINE
  5
309
330
1F
100
AcDbEntity
  8
16
  6
Continuous
 62
     3
370
    25
100
AcDbLine
 10
-110.9874984845519
 20
-72.3375015258789
 30
0.0
 11
-111.4874984845519
 21
-72.3375015258789
 31
0.0
  0
CIRCLE
  5
30A
330
1F
100
AcDbEntity
  8
16
  6
Continuous
 62
     3
370
    25
100
AcDbCircle
 10
-110.2374985580807
 20
-72.77500152587889
 30
0.0
 40
0.2249999940395355
  0
LINE
  5
30B
330
1F
100
AcDbEntity
  8
16
  6
Continuous
 62
     3
370
    25
100
AcDbLine
 10
-108.0000030621886
 20
-72.3375015258789
 30
0.0
 11
-108.0000030621886
 21
-72.5875015258789
 31
0.0
  0
LINE
  5
30C
330
1F
100
AcDbEntity
  8
16
  6
Continuous
 62
     3
370
    25
100
AcDbLine
 10
-108.0000030621886
 20
-72.5875015258789
 30
0.0
 11
-107.6250030621886
 21
-72.5875015258789
 31
0.0
  0
LINE
  5
30D
330
1F
100
AcDbEntity
  8
16
  6
Continuous
 62
     3
370
    25
100
AcDbLine
 10
-107.6250030621886
 20
-72.5875015258789
 30
0.0
 11
-107.1250030621886
 21
-73.4625015258789
 31
0.0
  0
LINE
  5
30E
330
1F
100
AcDbEntity
  8
16
  6
Continuous
 62
     3
370
    25
100
AcDbLine
 10
-107.1250030621886
 20
-73.4625015258789
 30
0.0
 11
-107.1250030621886
 21
-73.8375015258789
 31
0.0
  0
LINE
  5
30F
330
1F
100
AcDbEntity
  8
16
  6
Continuous
 62
     3
370
    25
100
AcDbLine
 10
-107.1250030621886
 20
-73.8375015258789
 30
0.0
 11
-107.0000030621886
 21
-73.9625015258789
 31
0.0
  0
LINE
  5
310
330
1F
100
AcDbEntity
  8
16
  6
Continuous
 62
     3
370
    25
100
AcDbLine
 10
-107.0000030621886
 20
-73.9625015258789
 30
0.0
 11
-107.0000030621886
 21
-77.3375015258789
 31
0.0
  0
LINE
  5
311
330
1F
100
AcDbEntity
  8
16
  6
Continuous
 62
     3
370
    25
100
AcDbLine
 10
-107.0000030621886
 20
-77.3375015258789
 30
0.0
 11
-107.0625030621886
 21
-77.4625015258789
 31
0.0
  0
LINE
  5
312
330
1F
100
AcDbEntity
  8
16
  6
Continuous
 62
     3
370
    25
100
AcDbLine
 10
-107.0625030621886
 20
-77.4625015258789
 30
0.0
 11
-107.0625030621886
 21
-79.8375015258789
 31
0.0
  0
LINE
  5
313
330
1F
100
AcDbEntity
  8
16
  6
Continuous
 62
     3
370
    25
100
AcDbLine
 10
-107.0625030621886
 20
-79.8375015258789
 30
0.0
 11
-106.4375030621886
 21
-79.8375015258789
 31
0.0
  0
LINE
  5
314
330
1F
100
AcDbEntity
  8
16
  6
Continuous
 62
     3
370
    25
100
AcDbLine
 10
-106.4375030621886
 20
-79.8375015258789
 30
0.0
 11
-106.4375030621886
 21
-77.4625015258789
 31
0.0
  0
LINE
  5
315
330
1F
100
AcDbEntity
  8
16
  6
Continuous
 62
     3
370
    25
100
AcDbLine
 10
-106.4375030621886
 20
-77.4625015258789
 30
0.0
 11
-106.5000030621886
 21
-77.3375015258789
 31
0.0
  0
LINE
  5
316
330
1F
100
AcDbEntity
  8
16
  6
Continuous
 62
     3
370
    25
100
AcDbLine
 10
-106.5000030621886
 20
-77.3375015258789
 30
0.0
 11
-106.5000030621886
 21
-73.9625015258789
 31
0.0
  0
LINE
  5
317
330
1F
100
AcDbEntity
  8
16
  6
Continuous
 62
     3
370
    25
100
AcDbLine
 10
-106.5000030621886
 20
-73.9625015258789
 30
0.0
 11
-106.3750030621886
 21
-73.8375015258789
 31
0.0
  0
LINE
  5
318
330
1F
100
AcDbEntity
  8
16
  6
Continuous
 62
     3
370
    25
100
AcDbLine
 10
-106.3750030621886
 20
-73.8375015258789
 30
0.0
 11
-106.3750030621886
 21
-73.4625015258789
 31
0.0
  0
LINE
  5
319
330
1F
100
AcDbEntity
  8
16
  6
Continuous
 62
     3
370
    25
100
AcDbLine
 10
-106.3750030621886
 20
-73.4625015258789
 30
0.0
 11
-105.8750030621886
 21
-72.5875015258789
 31
0.0
  0
LINE
  5
31A
330
1F
100
AcDbEntity
  8
16
  6
Continuous
 62
     3
370
    25
100
AcDbLine
 10
-105.8750030621886
 20
-72.5875015258789
 30
0.0
 11
-105.5000030621886
 21
-72.5875015258789
 31
0.0
  0
LINE
  5
31B
330
1F
100
AcDbEntity
  8
16
  6
Continuous
 62
     3
370
    25
100
AcDbLine
 10
-105.5000030621886
 20
-72.5875015258789
 30
0.0
 11
-105.5000030621886
 21
-72.3375015258789
 31
0.0
  0
LINE
  5
31C
330
1F
100
AcDbEntity
  8
16
  6
Continuous
 62
     3
370
    25
100
AcDbLine
 10
-105.5000030621886
 20
-72.3375015258789
 30
0.0
 11
-106.0000030621886
 21
-72.3375015258789
 31
0.0
  0
LINE
  5
31D
330
1F
100
AcDbEntity
  8
16
  6
Continuous
 62
     3
370
    25
100
AcDbLine
 10
-106.0000030621886
 20
-72.3375015258789
 30
0.0
 11
-106.7500030621886
 21
-73.0875015258789
 31
0.0
  0
LINE
  5
31E
330
1F
100
AcDbEntity
  8
16
  6
Continuous
 62
     3
370
    25
100
AcDbLine
 10
-106.7500030621886
 20
-73.0875015258789
 30
0.0
 11
-107.5000030621886
 21
-72.3375015258789
 31
0.0
  0
LINE
  5
31F
330
1F
100
AcDbEntity
  8
16
  6
Continuous
 62
     3
370
    25
100
AcDbLine
 10
-107.5000030621886
 20
-72.3375015258789
 30
0.0
 11
-108.0000030621886
 21
-72.3375015258789
 31
0.0
  0
CIRCLE
  5
320
330
1F
100
AcDbEntity
  8
16
  6
Continuous
 62
     3
370
    25
100
AcDbCircle
 10
-106.7500031357175
 20
-72.77500152587889
 30
0.0
 40
0.2249999940395355
  0
LINE
  5
321
330
1F
100
AcDbEntity
  8
16
  6
Continuous
 62
     3
370
    25
100
AcDbLine
 10
-104.5125000104308
 20
-72.3375015258789
 30
0.0
 11
-104.5125000104308
 21
-72.5875015258789
 31
0.0
  0
LINE
  5
322
330
1F
100
AcDbEntity
  8
16
  6
Continuous
 62
     3
370
    25
100
AcDbLine
 10
-104.5125000104308
 20
-72.5875015258789
 30
0.0
 11
-104.1375000104308
 21
-72.5875015258789
 31
0.0
  0
LINE
  5
323
330
1F
100
AcDbEntity
  8
16
  6
Continuous
 62
     3
370
    25
100
AcDbLine
 10
-104.1375000104308
 20
-72.5875015258789
 30
0.0
 11
-103.6375000104308
 21
-73.4625015258789
 31
0.0
  0
LINE
  5
324
330
1F
100
AcDbEntity
  8
16
  6
Continuous
 62
     3
370
    25
100
AcDbLine
 10
-103.6375000104308
 20
-73.4625015258789
 30
0.0
 11
-103.6375000104308
 21
-73.8375015258789
 31
0.0
  0
LINE
  5
325
330
1F
100
AcDbEntity
  8
16
  6
Continuous
 62
     3
370
    25
100
AcDbLine
 10
-103.6375000104308
 20
-73.8375015258789
 30
0.0
 11
-103.5125000104308
 21
-73.9625015258789
 31
0.0
  0
LINE
  5
326
330
1F
100
AcDbEntity
  8
16
  6
Continuous
 62
     3
370
    25
100
AcDbLine
 10
-103.5125000104308
 20
-73.9625015258789
 30
0.0
 11
-103.5125000104308
 21
-77.3375015258789
 31
0.0
  0
LINE
  5
327
330
1F
100
AcDbEntity
  8
16
  6
Continuous
 62
     3
370
    25
100
AcDbLine
 10
-103.5125000104308
 20
-77.3375015258789
 30
0.0
 11
-103.5750000104308
 21
-77.4625015258789
 31
0.0
  0
LINE
  5
328
330
1F
100
AcDbEntity
  8
16
  6
Continuous
 62
     3
370
    25
100
AcDbLine
 10
-103.5750000104308
 20
-77.4625015258789
 30
0.0
 11
-103.5750000104308
 21
-79.8375015258789
 31
0.0
  0
LINE
  5
329
330
1F
100
AcDbEntity
  8
16
  6
Continuous
 62
     3
370
    25
100
AcDbLine
 10
-103.5750000104308
 20
-79.8375015258789
 30
0.0
 11
-102.9500000104308
 21
-79.8375015258789
 31
0.0
  0
LINE
  5
32A
330
1F
100
AcDbEntity
  8
16
  6
Continuous
 62
     3
370
    25
100
AcDbLine
 10
-102.9500000104308
 20
-79.8375015258789
 30
0.0
 11
-102.9500000104308
 21
-77.4625015258789
 31
0.0
  0
LINE
  5
32B
330
1F
100
AcDbEntity
  8
16
  6
Continuous
 62
     3
370
    25
100
AcDbLine
 10
-102.9500000104308
 20
-77.4625015258789
 30
0.0
 11
-103.0125000104308
 21
-77.3375015258789
 31
0.0
  0
LINE
  5
32C
330
1F
100
AcDbEntity
  8
16
  6
Continuous
 62
     3
370
    25
100
AcDbLine
 10
-103.0125000104308
 20
-77.3375015258789
 30
0.0
 11
-103.0125000104308
 21
-73.9625015258789
 31
0.0
  0
LINE
  5
32D
330
1F
100
AcDbEntity
  8
16
  6
Continuous
 62
     3
370
    25
100
AcDbLine
 10
-103.0125000104308
 20
-73.9625015258789
 30
0.0
 11
-102.8875000104308
 21
-73.8375015258789
 31
0.0
  0
LINE
  5
32E
330
1F
100
AcDbEntity
  8
16
  6
Continuous
 62
     3
370
    25
100
AcDbLine
 10
-102.8875000104308
 20
-73.8375015258789
 30
0.0
 11
-102.8875000104308
 21
-73.4625015258789
 31
0.0
  0
LINE
  5
32F
330
1F
100
AcDbEntity
  8
16
  6
Continuous
 62
     3
370
    25
100
AcDbLine
 10
-102.8875000104308
 20
-73.4625015258789
 30
0.0
 11
-102.3875000104308
 21
-72.5875015258789
 31
0.0
  0
LINE
  5
330
330
1F
100
AcDbEntity
  8
16
  6
Continuous
 62
     3
370
    25
100
AcDbLine
 10
-102.3875000104308
 20
-72.5875015258789
 30
0.0
 11
-102.0125000104308
 21
-72.5875015258789
 31
0.0
  0
LINE
  5
331
330
1F
100
AcDbEntity
  8
16
  6
Continuous
 62
     3
370
    25
100
AcDbLine
 10
-102.0125000104308
 20
-72.5875015258789
 30
0.0
 11
-102.0125000104308
 21
-72.3375015258789
 31
0.0
  0
LINE
  5
332
330
1F
100
AcDbEntity
  8
16
  6
Continuous
 62
     3
370
    25
100
AcDbLine
 10
-102.0125000104308
 20
-72.3375015258789
 30
0.0
 11
-102.5125000104308
 21
-72.3375015258789
 31
0.0
  0
LINE
  5
333
330
1F
100
AcDbEntity
  8
16
  6
Continuous
 62
     3
370
    25
100
AcDbLine
 10
-102.5125000104308
 20
-72.3375015258789
 30
0.0
 11
-103.2625000104308
 21
-73.0875015258789
 31
0.0
  0
LINE
  5
334
330
1F
100
AcDbEntity
  8
16
  6
Continuous
 62
     3
370
    25
100
AcDbLine
 10
-103.2625000104308
 20
-73.0875015258789
 30
0.0
 11
-104.0125000104308
 21
-72.3375015258789
 31
0.0
  0
LINE
  5
335
330
1F
100
AcDbEntity
  8
16
  6
Continuous
 62
     3
370
    25
100
AcDbLine
 10
-104.0125000104308
 20
-72.3375015258789
 30
0.0
 11
-104.5125000104308
 21
-72.3375015258789
 31
0.0
  0
CIRCLE
  5
336
330
1F
100
AcDbEntity
  8
16
  6
Continuous
 62
     3
370
    25
100
AcDbCircle
 10
-103.2625000839597
 20
-72.77500152587889
 30
0.0
 40
0.2249999940395355
  0
LINE
  5
337
330
1F
100
AcDbEntity
  8
16
  6
Continuous
 62
     3
370
    25
100
AcDbLine
 10
-101.024996958673
 20
-72.3375015258789
 30
0.0
 11
-101.024996958673
 21
-72.5875015258789
 31
0.0
  0
LINE
  5
338
330
1F
100
AcDbEntity
  8
16
  6
Continuous
 62
     3
370
    25
100
AcDbLine
 10
-101.024996958673
 20
-72.5875015258789
 30
0.0
 11
-100.649996958673
 21
-72.5875015258789
 31
0.0
  0
LINE
  5
339
330
1F
100
AcDbEntity
  8
16
  6
Continuous
 62
     3
370
    25
100
AcDbLine
 10
-100.649996958673
 20
-72.5875015258789
 30
0.0
 11
-100.149996958673
 21
-73.4625015258789
 31
0.0
  0
LINE
  5
33A
330
1F
100
AcDbEntity
  8
16
  6
Continuous
 62
     3
370
    25
100
AcDbLine
 10
-100.149996958673
 20
-73.4625015258789
 30
0.0
 11
-100.149996958673
 21
-73.8375015258789
 31
0.0
  0
LINE
  5
33B
330
1F
100
AcDbEntity
  8
16
  6
Continuous
 62
     3
370
    25
100
AcDbLine
 10
-100.149996958673
 20
-73.8375015258789
 30
0.0
 11
-100.024996958673
 21
-73.9625015258789
 31
0.0
  0
LINE
  5
33C
330
1F
100
AcDbEntity
  8
16
  6
Continuous
 62
     3
370
    25
100
AcDbLine
 10
-100.024996958673
 20
-73.9625015258789
 30
0.0
 11
-100.024996958673
 21
-77.3375015258789
 31
0.0
  0
LINE
  5
33D
330
1F
100
AcDbEntity
  8
16
  6
Continuous
 62
     3
370
    25
100
AcDbLine
 10
-100.024996958673
 20
-77.3375015258789
 30
0.0
 11
-100.087496958673
 21
-77.4625015258789
 31
0.0
  0
LINE
  5
33E
330
1F
100
AcDbEntity
  8
16
  6
Continuous
 62
     3
370
    25
100
AcDbLine
 10
-100.087496958673
 20
-77.4625015258789
 30
0.0
 11
-100.087496958673
 21
-79.8375015258789
 31
0.0
  0
LINE
  5
33F
330
1F
100
AcDbEntity
  8
16
  6
Continuous
 62
     3
370
    25
100
AcDbLine
 10
-100.087496958673
 20
-79.8375015258789
 30
0.0
 11
-99.462496958673
 21
-79.8375015258789
 31
0.0
  0
LINE
  5
340
330
1F
100
AcDbEntity
  8
16
  6
Continuous
 62
     3
370
    25
100
AcDbLine
 10
-99.462496958673
 20
-79.8375015258789
 30
0.0
 11
-99.462496958673
 21
-77.4625015258789
 31
0.0
  0
LINE
  5
341
330
1F
100
AcDbEntity
  8
16
  6
Continuous
 62
     3
370
    25
100
AcDbLine
 10
-99.462496958673
 20
-77.4625015258789
 30
0.0
 11
-99.524996958673
 21
-77.3375015258789
 31
0.0
  0
LINE
  5
342
330
1F
100
AcDbEntity
  8
16
  6
Continuous
 62
     3
370
    25
100
AcDbLine
 10
-99.524996958673
 20
-77.3375015258789
 30
0.0
 11
-99.524996958673
 21
-73.9625015258789
 31
0.0
  0
LINE
  5
343
330
1F
100
AcDbEntity
  8
16
  6
Continuous
 62
     3
370
    25
100
AcDbLine
 10
-99.524996958673
 20
-73.9625015258789
 30
0.0
 11
-99.399996958673
 21
-73.8375015258789
 31
0.0
  0
LINE
  5
344
330
1F
100
AcDbEntity
  8
16
  6
Continuous
 62
     3
370
    25
100
AcDbLine
 10
-99.399996958673
 20
-73.8375015258789
 30
0.0
 11
-99.399996958673
 21
-73.4625015258789
 31
0.0
  0
LINE
  5
345
330
1F
100
AcDbEntity
  8
16
  6
Continuous
 62
     3
370
    25
100
AcDbLine
 10
-99.399996958673
 20
-73.4625015258789
 30
0.0
 11
-98.899996958673
 21
-72.5875015258789
 31
0.0
  0
LINE
  5
346
330
1F
100
AcDbEntity
  8
16
  6
Continuous
 62
     3
370
    25
100
AcDbLine
 10
-98.899996958673
 20
-72.5875015258789
 30
0.0
 11
-98.524996958673
 21
-72.5875015258789
 31
0.0
  0
LINE
  5
347
330
1F
100
AcDbEntity
  8
16
  6
Continuous
 62
     3
370
    25
100
AcDbLine
 10
-98.524996958673
 20
-72.5875015258789
 30
0.0
 11
-98.524996958673
 21
-72.3375015258789
 31
0.0
  0
LINE
  5
348
330
1F
100
AcDbEntity
  8
16
  6
Continuous
 62
     3
370
    25
100
AcDbLine
 10
-98.524996958673
 20
-72.3375015258789
 30
0.0
 11
-99.024996958673
 21
-72.3375015258789
 31
0.0
  0
LINE
  5
349
330
1F
100
AcDbEntity
  8
16
  6
Continuous
 62
     3
370
    25
100
AcDbLine
 10
-99.024996958673
 20
-72.3375015258789
 30
0.0
 11
-99.774996958673
 21
-73.0875015258789
 31
0.0
  0
LINE
  5
34A
330
1F
100
AcDbEntity
  8
16
  6
Continuous
 62
     3
370
    25
100
AcDbLine
 10
-99.774996958673
 20
-73.0875015258789
 30
0.0
 11
-100.524996958673
 21
-72.3375015258789
 31
0.0
  0
LINE
  5
34B
330
1F
100
AcDbEntity
  8
16
  6
Continuous
 62
     3
370
    25
100
AcDbLine
 10
-100.524996958673
 20
-72.3375015258789
 30
0.0
 11
-101.024996958673
 21
-72.3375015258789
 31
0.0
  0
CIRCLE
  5
34C
330
1F
100
AcDbEntity
  8
16
  6
Continuous
 62
     3
370
    25
100
AcDbCircle
 10
-99.77499703220187
 20
-72.77500152587889
 30
0.0
 40
0.2249999940395355
  0
LINE
  5
34D
330
1F
100
AcDbEntity
  8
16
  6
Continuous
 62
     3
370
    25
100
AcDbLine
 10
-97.53750153630972
 20
-72.3375015258789
 30
0.0
 11
-97.53750153630972
 21
-72.5875015258789
 31
0.0
  0
LINE
  5
34E
330
1F
100
AcDbEntity
  8
16
  6
Continuous
 62
     3
370
    25
100
AcDbLine
 10
-97.53750153630972
 20
-72.5875015258789
 30
0.0
 11
-97.16250153630972
 21
-72.5875015258789
 31
0.0
  0
LINE
  5
34F
330
1F
100
AcDbEntity
  8
16
  6
Continuous
 62
     3
370
    25
100
AcDbLine
 10
-97.16250153630972
 20
-72.5875015258789
 30
0.0
 11
-96.66250153630972
 21
-73.4625015258789
 31
0.0
  0
LINE
  5
350
330
1F
100
AcDbEntity
  8
16
  6
Continuous
 62
     3
370
    25
100
AcDbLine
 10
-96.66250153630972
 20
-73.4625015258789
 30
0.0
 11
-96.66250153630972
 21
-73.8375015258789
 31
0.0
  0
LINE
  5
351
330
1F
100
AcDbEntity
  8
16
  6
Continuous
 62
     3
370
    25
100
AcDbLine
 10
-96.66250153630972
 20
-73.8375015258789
 30
0.0
 11
-96.53750153630972
 21
-73.9625015258789
 31
0.0
  0
LINE
  5
352
330
1F
100
AcDbEntity
  8
16
  6
Continuous
 62
     3
370
    25
100
AcDbLine
 10
-96.53750153630972
 20
-73.9625015258789
 30
0.0
 11
-96.53750153630972
 21
-77.3375015258789
 31
0.0
  0
LINE
  5
353
330
1F
100
AcDbEntity
  8
16
  6
Continuous
 62
     3
370
    25
100
AcDbLine
 10
-96.53750153630972
 20
-77.3375015258789
 30
0.0
 11
-96.60000153630972
 21
-77.4625015258789
 31
0.0
  0
LINE
  5
354
330
1F
100
AcDbEntity
  8
16
  6
Continuous
 62
     3
370
    25
100
AcDbLine
 10
-96.60000153630972
 20
-77.4625015258789
 30
0.0
 11
-96.60000153630972
 21
-79.8375015258789
 31
0.0
  0
LINE
  5
355
330
1F
100
AcDbEntity
  8
16
  6
Continuous
 62
     3
370
    25
100
AcDbLine
 10
-96.60000153630972
 20
-79.8375015258789
 30
0.0
 11
-95.97500153630972
 21
-79.8375015258789
 31
0.0
  0
LINE
  5
356
330
1F
100
AcDbEntity
  8
16
  6
Continuous
 62
     3
370
    25
100
AcDbLine
 10
-95.97500153630972
 20
-79.8375015258789
 30
0.0
 11
-95.97500153630972
 21
-77.4625015258789
 31
0.0
  0
LINE
  5
357
330
1F
100
AcDbEntity
  8
16
  6
Continuous
 62
     3
370
    25
100
AcDbLine
 10
-95.97500153630972
 20
-77.4625015258789
 30
0.0
 11
-96.03750153630972
 21
-77.3375015258789
 31
0.0
  0
LINE
  5
358
330
1F
100
AcDbEntity
  8
16
  6
Continuous
 62
     3
370
    25
100
AcDbLine
 10
-96.03750153630972
 20
-77.3375015258789
 30
0.0
 11
-96.03750153630972
 21
-73.9625015258789
 31
0.0
  0
LINE
  5
359
330
1F
100
AcDbEntity
  8
16
  6
Continuous
 62
     3
370
    25
100
AcDbLine
 10
-96.03750153630972
 20
-73.9625015258789
 30
0.0
 11
-95.91250153630972
 21
-73.8375015258789
 31
0.0
  0
LINE
  5
35A
330
1F
100
AcDbEntity
  8
16
  6
Continuous
 62
     3
370
    25
100
AcDbLine
 10
-95.91250153630972
 20
-73.8375015258789
 30
0.0
 11
-95.91250153630972
 21
-73.4625015258789
 31
0.0
  0
LINE
  5
35B
330
1F
100
AcDbEntity
  8
16
  6
Continuous
 62
     3
370
    25
100
AcDbLine
 10
-95.91250153630972
 20
-73.4625015258789
 30
0.0
 11
-95.41250153630972
 21
-72.5875015258789
 31
0.0
  0
LINE
  5
35C
330
1F
100
AcDbEntity
  8
16
  6
Continuous
 62
     3
370
    25
100
AcDbLine
 10
-95.41250153630972
 20
-72.5875015258789
 30
0.0
 11
-95.03750153630972
 21
-72.5875015258789
 31
0.0
  0
LINE
  5
35D
330
1F
100
AcDbEntity
  8
16
  6
Continuous
 62
     3
370
    25
100
AcDbLine
 10
-95.03750153630972
 20
-72.5875015258789
 30
0.0
 11
-95.03750153630972
 21
-72.3375015258789
 31
0.0
  0
LINE
  5
35E
330
1F
100
AcDbEntity
  8
16
  6
Continuous
 62
     3
370
    25
100
AcDbLine
 10
-95.03750153630972
 20
-72.3375015258789
 30
0.0
 11
-95.53750153630972
 21
-72.3375015258789
 31
0.0
  0
LINE
  5
35F
330
1F
100
AcDbEntity
  8
16
  6
Continuous
 62
     3
370
    25
100
AcDbLine
 10
-95.53750153630972
 20
-72.3375015258789
 30
0.0
 11
-96.28750153630972
 21
-73.0875015258789
 31
0.0
  0
LINE
  5
360
330
1F
100
AcDbEntity
  8
16
  6
Continuous
 62
     3
370
    25
100
AcDbLine
 10
-96.28750153630972
 20
-73.0875015258789
 30
0.0
 11
-97.03750153630972
 21
-72.3375015258789
 31
0.0
  0
LINE
  5
361
330
1F
100
AcDbEntity
  8
16
  6
Continuous
 62
     3
370
    25
100
AcDbLine
 10
-97.03750153630972
 20
-72.3375015258789
 30
0.0
 11
-97.53750153630972
 21
-72.3375015258789
 31
0.0
  0
CIRCLE
  5
362
330
1F
100
AcDbEntity
  8
16
  6
Continuous
 62
     3
370
    25
100
AcDbCircle
 10
-96.28750160983859
 20
-72.77500152587889
 30
0.0
 40
0.2249999940395355
  0
LINE
  5
363
330
1F
100
AcDbEntity
  8
16
  6
Continuous
 62
     3
370
    25
100
AcDbLine
 10
-94.0499984845519
 20
-72.3375015258789
 30
0.0
 11
-94.0499984845519
 21
-72.5875015258789
 31
0.0
  0
LINE
  5
364
330
1F
100
AcDbEntity
  8
16
  6
Continuous
 62
     3
370
    25
100
AcDbLine
 10
-94.0499984845519
 20
-72.5875015258789
 30
0.0
 11
-93.6749984845519
 21
-72.5875015258789
 31
0.0
  0
LINE
  5
365
330
1F
100
AcDbEntity
  8
16
  6
Continuous
 62
     3
370
    25
100
AcDbLine
 10
-93.6749984845519
 20
-72.5875015258789
 30
0.0
 11
-93.1749984845519
 21
-73.4625015258789
 31
0.0
  0
LINE
  5
366
330
1F
100
AcDbEntity
  8
16
  6
Continuous
 62
     3
370
    25
100
AcDbLine
 10
-93.1749984845519
 20
-73.4625015258789
 30
0.0
 11
-93.1749984845519
 21
-73.8375015258789
 31
0.0
  0
LINE
  5
367
330
1F
100
AcDbEntity
  8
16
  6
Continuous
 62
     3
370
    25
100
AcDbLine
 10
-93.1749984845519
 20
-73.8375015258789
 30
0.0
 11
-93.0499984845519
 21
-73.9625015258789
 31
0.0
  0
LINE
  5
368
330
1F
100
AcDbEntity
  8
16
  6
Continuous
 62
     3
370
    25
100
AcDbLine
 10
-93.0499984845519
 20
-73.9625015258789
 30
0.0
 11
-93.0499984845519
 21
-77.3375015258789
 31
0.0
  0
LINE
  5
369
330
1F
100
AcDbEntity
  8
16
  6
Continuous
 62
     3
370
    25
100
AcDbLine
 10
-93.0499984845519
 20
-77.3375015258789
 30
0.0
 11
-93.1124984845519
 21
-77.4625015258789
 31
0.0
  0
LINE
  5
36A
330
1F
100
AcDbEntity
  8
16
  6
Continuous
 62
     3
370
    25
100
AcDbLine
 10
-93.1124984845519
 20
-77.4625015258789
 30
0.0
 11
-93.1124984845519
 21
-79.8375015258789
 31
0.0
  0
LINE
  5
36B
330
1F
100
AcDbEntity
  8
16
  6
Continuous
 62
     3
370
    25
100
AcDbLine
 10
-93.1124984845519
 20
-79.8375015258789
 30
0.0
 11
-92.4874984845519
 21
-79.8375015258789
 31
0.0
  0
LINE
  5
36C
330
1F
100
AcDbEntity
  8
16
  6
Continuous
 62
     3
370
    25
100
AcDbLine
 10
-92.4874984845519
 20
-79.8375015258789
 30
0.0
 11
-92.4874984845519
 21
-77.4625015258789
 31
0.0
  0
LINE
  5
36D
330
1F
100
AcDbEntity
  8
16
  6
Continuous
 62
     3
370
    25
100
AcDbLine
 10
-92.4874984845519
 20
-77.4625015258789
 30
0.0
 11
-92.5499984845519
 21
-77.3375015258789
 31
0.0
  0
LINE
  5
36E
330
1F
100
AcDbEntity
  8
16
  6
Continuous
 62
     3
370
    25
100
AcDbLine
 10
-92.5499984845519
 20
-77.3375015258789
 30
0.0
 11
-92.5499984845519
 21
-73.9625015258789
 31
0.0
  0
LINE
  5
36F
330
1F
100
AcDbEntity
  8
16
  6
Continuous
 62
     3
370
    25
100
AcDbLine
 10
-92.5499984845519
 20
-73.9625015258789
 30
0.0
 11
-92.4249984845519
 21
-73.8375015258789
 31
0.0
  0
LINE
  5
370
330
1F
100
AcDbEntity
  8
16
  6
Continuous
 62
     3
370
    25
100
AcDbLine
 10
-92.4249984845519
 20
-73.8375015258789
 30
0.0
 11
-92.4249984845519
 21
-73.4625015258789
 31
0.0
  0
LINE
  5
371
330
1F
100
AcDbEntity
  8
16
  6
Continuous
 62
     3
370
    25
100
AcDbLine
 10
-92.4249984845519
 20
-73.4625015258789
 30
0.0
 11
-91.9249984845519
 21
-72.5875015258789
 31
0.0
  0
LINE
  5
372
330
1F
100
AcDbEntity
  8
16
  6
Continuous
 62
     3
370
    25
100
AcDbLine
 10
-91.9249984845519
 20
-72.5875015258789
 30
0.0
 11
-91.5499984845519
 21
-72.5875015258789
 31
0.0
  0
LINE
  5
373
330
1F
100
AcDbEntity
  8
16
  6
Continuous
 62
     3
370
    25
100
AcDbLine
 10
-91.5499984845519
 20
-72.5875015258789
 30
0.0
 11
-91.5499984845519
 21
-72.3375015258789
 31
0.0
  0
LINE
  5
374
330
1F
100
AcDbEntity
  8
16
  6
Continuous
 62
     3
370
    25
100
AcDbLine
 10
-91.5499984845519
 20
-72.3375015258789
 30
0.0
 11
-92.0499984845519
 21
-72.3375015258789
 31
0.0
  0
LINE
  5
375
330
1F
100
AcDbEntity
  8
16
  6
Continuous
 62
     3
370
    25
100
AcDbLine
 10
-92.0499984845519
 20
-72.3375015258789
 30
0.0
 11
-92.7999984845519
 21
-73.0875015258789
 31
0.0
  0
LINE
  5
376
330
1F
100
AcDbEntity
  8
16
  6
Continuous
 62
     3
370
    25
100
AcDbLine
 10
-92.7999984845519
 20
-73.0875015258789
 30
0.0
 11
-93.5499984845519
 21
-72.3375015258789
 31
0.0
  0
LINE
  5
377
330
1F
100
AcDbEntity
  8
16
  6
Continuous
 62
     3
370
    25
100
AcDbLine
 10
-93.5499984845519
 20
-72.3375015258789
 30
0.0
 11
-94.0499984845519
 21
-72.3375015258789
 31
0.0
  0
CIRCLE
  5
378
330
1F
100
AcDbEntity
  8
16
  6
Continuous
 62
     3
370
    25
100
AcDbCircle
 10
-92.79999855808077
 20
-72.77500152587889
 30
0.0
 40
0.2249999940395355
  0
LINE
  5
379
330
1F
100
AcDbEntity
  8
16
  6
Continuous
 62
     3
370
    25
100
AcDbLine
 10
-90.56250306218863
 20
-72.3375015258789
 30
0.0
 11
-90.56250306218863
 21
-72.5875015258789
 31
0.0
  0
LINE
  5
37A
330
1F
100
AcDbEntity
  8
16
  6
Continuous
 62
     3
370
    25
100
AcDbLine
 10
-90.56250306218863
 20
-72.5875015258789
 30
0.0
 11
-90.18750306218863
 21
-72.5875015258789
 31
0.0
  0
LINE
  5
37B
330
1F
100
AcDbEntity
  8
16
  6
Continuous
 62
     3
370
    25
100
AcDbLine
 10
-90.18750306218863
 20
-72.5875015258789
 30
0.0
 11
-89.68750306218863
 21
-73.4625015258789
 31
0.0
  0
LINE
  5
37C
330
1F
100
AcDbEntity
  8
16
  6
Continuous
 62
     3
370
    25
100
AcDbLine
 10
-89.68750306218863
 20
-73.4625015258789
 30
0.0
 11
-89.68750306218863
 21
-73.8375015258789
 31
0.0
  0
LINE
  5
37D
330
1F
100
AcDbEntity
  8
16
  6
Continuous
 62
     3
370
    25
100
AcDbLine
 10
-89.68750306218863
 20
-73.8375015258789
 30
0.0
 11
-89.56250306218863
 21
-73.9625015258789
 31
0.0
  0
LINE
  5
37E
330
1F
100
AcDbEntity
  8
16
  6
Continuous
 62
     3
370
    25
100
AcDbLine
 10
-89.56250306218863
 20
-73.9625015258789
 30
0.0
 11
-89.56250306218863
 21
-77.3375015258789
 31
0.0
  0
LINE
  5
37F
330
1F
100
AcDbEntity
  8
16
  6
Continuous
 62
     3
370
    25
100
AcDbLine
 10
-89.56250306218863
 20
-77.3375015258789
 30
0.0
 11
-89.62500306218863
 21
-77.4625015258789
 31
0.0
  0
LINE
  5
380
330
1F
100
AcDbEntity
  8
16
  6
Continuous
 62
     3
370
    25
100
AcDbLine
 10
-89.62500306218863
 20
-77.4625015258789
 30
0.0
 11
-89.62500306218863
 21
-79.8375015258789
 31
0.0
  0
LINE
  5
381
330
1F
100
AcDbEntity
  8
16
  6
Continuous
 62
     3
370
    25
100
AcDbLine
 10
-89.62500306218863
 20
-79.8375015258789
 30
0.0
 11
-89.00000306218863
 21
-79.8375015258789
 31
0.0
  0
LINE
  5
382
330
1F
100
AcDbEntity
  8
16
  6
Continuous
 62
     3
370
    25
100
AcDbLine
 10
-89.00000306218863
 20
-79.8375015258789
 30
0.0
 11
-89.00000306218863
 21
-77.4625015258789
 31
0.0
  0
LINE
  5
383
330
1F
100
AcDbEntity
  8
16
  6
Continuous
 62
     3
370
    25
100
AcDbLine
 10
-89.00000306218863
 20
-77.4625015258789
 30
0.0
 11
-89.06250306218863
 21
-77.3375015258789
 31
0.0
  0
LINE
  5
384
330
1F
100
AcDbEntity
  8
16
  6
Continuous
 62
     3
370
    25
100
AcDbLine
 10
-89.06250306218863
 20
-77.3375015258789
 30
0.0
 11
-89.06250306218863
 21
-73.9625015258789
 31
0.0
  0
LINE
  5
385
330
1F
100
AcDbEntity
  8
16
  6
Continuous
 62
     3
370
    25
100
AcDbLine
 10
-89.06250306218863
 20
-73.9625015258789
 30
0.0
 11
-88.93750306218863
 21
-73.8375015258789
 31
0.0
  0
LINE
  5
386
330
1F
100
AcDbEntity
  8
16
  6
Continuous
 62
     3
370
    25
100
AcDbLine
 10
-88.93750306218863
 20
-73.8375015258789
 30
0.0
 11
-88.93750306218863
 21
-73.4625015258789
 31
0.0
  0
LINE
  5
387
330
1F
100
AcDbEntity
  8
16
  6
Continuous
 62
     3
370
    25
100
AcDbLine
 10
-88.93750306218863
 20
-73.4625015258789
 30
0.0
 11
-88.43750306218863
 21
-72.5875015258789
 31
0.0
  0
LINE
  5
388
330
1F
100
AcDbEntity
  8
16
  6
Continuous
 62
     3
370
    25
100
AcDbLine
 10
-88.43750306218863
 20
-72.5875015258789
 30
0.0
 11
-88.06250306218863
 21
-72.5875015258789
 31
0.0
  0
LINE
  5
389
330
1F
100
AcDbEntity
  8
16
  6
Continuous
 62
     3
370
    25
100
AcDbLine
 10
-88.06250306218863
 20
-72.5875015258789
 30
0.0
 11
-88.06250306218863
 21
-72.3375015258789
 31
0.0
  0
LINE
  5
38A
330
1F
100
AcDbEntity
  8
16
  6
Continuous
 62
     3
370
    25
100
AcDbLine
 10
-88.06250306218863
 20
-72.3375015258789
 30
0.0
 11
-88.56250306218863
 21
-72.3375015258789
 31
0.0
  0
LINE
  5
38B
330
1F
100
AcDbEntity
  8
16
  6
Continuous
 62
     3
370
    25
100
AcDbLine
 10
-88.56250306218863
 20
-72.3375015258789
 30
0.0
 11
-89.31250306218863
 21
-73.0875015258789
 31
0.0
  0
LINE
  5
38C
330
1F
100
AcDbEntity
  8
16
  6
Continuous
 62
     3
370
    25
100
AcDbLine
 10
-89.31250306218863
 20
-73.0875015258789
 30
0.0
 11
-90.06250306218863
 21
-72.3375015258789
 31
0.0
  0
LINE
  5
38D
330
1F
100
AcDbEntity
  8
16
  6
Continuous
 62
     3
370
    25
100
AcDbLine
 10
-90.06250306218863
 20
-72.3375015258789
 30
0.0
 11
-90.56250306218863
 21
-72.3375015258789
 31
0.0
  0
CIRCLE
  5
38E
330
1F
100
AcDbEntity
  8
16
  6
Continuous
 62
     3
370
    25
100
AcDbCircle
 10
-89.31250313571749
 20
-72.77500152587889
 30
0.0
 40
0.2249999940395355
  0
LINE
  5
38F
330
1F
100
AcDbEntity
  8
16
  6
Continuous
 62
     3
370
    25
100
AcDbLine
 10
-87.07500001043081
 20
-72.3375015258789
 30
0.0
 11
-87.07500001043081
 21
-72.5875015258789
 31
0.0
  0
LINE
  5
390
330
1F
100
AcDbEntity
  8
16
  6
Continuous
 62
     3
370
    25
100
AcDbLine
 10
-87.07500001043081
 20
-72.5875015258789
 30
0.0
 11
-86.70000001043081
 21
-72.5875015258789
 31
0.0
  0
LINE
  5
391
330
1F
100
AcDbEntity
  8
16
  6
Continuous
 62
     3
370
    25
100
AcDbLine
 10
-86.70000001043081
 20
-72.5875015258789
 30
0.0
 11
-86.20000001043081
 21
-73.4625015258789
 31
0.0
  0
LINE
  5
392
330
1F
100
AcDbEntity
  8
16
  6
Continuous
 62
     3
370
    25
100
AcDbLine
 10
-86.20000001043081
 20
-73.4625015258789
 30
0.0
 11
-86.20000001043081
 21
-73.8375015258789
 31
0.0
  0
LINE
  5
393
330
1F
100
AcDbEntity
  8
16
  6
Continuous
 62
     3
370
    25
100
AcDbLine
 10
-86.20000001043081
 20
-73.8375015258789
 30
0.0
 11
-86.07500001043081
 21
-73.9625015258789
 31
0.0
  0
LINE
  5
394
330
1F
100
AcDbEntity
  8
16
  6
Continuous
 62
     3
370
    25
100
AcDbLine
 10
-86.07500001043081
 20
-73.9625015258789
 30
0.0
 11
-86.07500001043081
 21
-77.3375015258789
 31
0.0
  0
LINE
  5
395
330
1F
100
AcDbEntity
  8
16
  6
Continuous
 62
     3
370
    25
100
AcDbLine
 10
-86.07500001043081
 20
-77.3375015258789
 30
0.0
 11
-86.13750001043081
 21
-77.4625015258789
 31
0.0
  0
LINE
  5
396
330
1F
100
AcDbEntity
  8
16
  6
Continuous
 62
     3
370
    25
100
AcDbLine
 10
-86.13750001043081
 20
-77.4625015258789
 30
0.0
 11
-86.13750001043081
 21
-79.8375015258789
 31
0.0
  0
LINE
  5
397
330
1F
100
AcDbEntity
  8
16
  6
Continuous
 62
     3
370
    25
100
AcDbLine
 10
-86.13750001043081
 20
-79.8375015258789
 30
0.0
 11
-85.51250001043081
 21
-79.8375015258789
 31
0.0
  0
LINE
  5
398
330
1F
100
AcDbEntity
  8
16
  6
Continuous
 62
     3
370
    25
100
AcDbLine
 10
-85.51250001043081
 20
-79.8375015258789
 30
0.0
 11
-85.51250001043081
 21
-77.4625015258789
 31
0.0
  0
LINE
  5
399
330
1F
100
AcDbEntity
  8
16
  6
Continuous
 62
     3
370
    25
100
AcDbLine
 10
-85.51250001043081
 20
-77.4625015258789
 30
0.0
 11
-85.57500001043081
 21
-77.3375015258789
 31
0.0
  0
LINE
  5
39A
330
1F
100
AcDbEntity
  8
16
  6
Continuous
 62
     3
370
    25
100
AcDbLine
 10
-85.57500001043081
 20
-77.3375015258789
 30
0.0
 11
-85.57500001043081
 21
-73.9625015258789
 31
0.0
  0
LINE
  5
39B
330
1F
100
AcDbEntity
  8
16
  6
Continuous
 62
     3
370
    25
100
AcDbLine
 10
-85.57500001043081
 20
-73.9625015258789
 30
0.0
 11
-85.45000001043081
 21
-73.8375015258789
 31
0.0
  0
LINE
  5
39C
330
1F
100
AcDbEntity
  8
16
  6
Continuous
 62
     3
370
    25
100
AcDbLine
 10
-85.45000001043081
 20
-73.8375015258789
 30
0.0
 11
-85.45000001043081
 21
-73.4625015258789
 31
0.0
  0
LINE
  5
39D
330
1F
100
AcDbEntity
  8
16
  6
Continuous
 62
     3
370
    25
100
AcDbLine
 10
-85.45000001043081
 20
-73.4625015258789
 30
0.0
 11
-84.95000001043081
 21
-72.5875015258789
 31
0.0
  0
LINE
  5
39E
330
1F
100
AcDbEntity
  8
16
  6
Continuous
 62
     3
370
    25
100
AcDbLine
 10
-84.95000001043081
 20
-72.5875015258789
 30
0.0
 11
-84.57500001043081
 21
-72.5875015258789
 31
0.0
  0
LINE
  5
39F
330
1F
100
AcDbEntity
  8
16
  6
Continuous
 62
     3
370
    25
100
AcDbLine
 10
-84.57500001043081
 20
-72.5875015258789
 30
0.0
 11
-84.57500001043081
 21
-72.3375015258789
 31
0.0
  0
LINE
  5
3A0
330
1F
100
AcDbEntity
  8
16
  6
Continuous
 62
     3
370
    25
100
AcDbLine
 10
-84.57500001043081
 20
-72.3375015258789
 30
0.0
 11
-85.07500001043081
 21
-72.3375015258789
 31
0.0
  0
LINE
  5
3A1
330
1F
100
AcDbEntity
  8
16
  6
Continuous
 62
     3
370
    25
100
AcDbLine
 10
-85.07500001043081
 20
-72.3375015258789
 30
0.0
 11
-85.82500001043081
 21
-73.0875015258789
 31
0.0
  0
LINE
  5
3A2
330
1F
100
AcDbEntity
  8
16
  6
Continuous
 62
     3
370
    25
100
AcDbLine
 10
-85.82500001043081
 20
-73.0875015258789
 30
0.0
 11
-86.57500001043081
 21
-72.3375015258789
 31
0.0
  0
LINE
  5
3A3
330
1F
100
AcDbEntity
  8
16
  6
Continuous
 62
     3
370
    25
100
AcDbLine
 10
-86.57500001043081
 20
-72.3375015258789
 30
0.0
 11
-87.07500001043081
 21
-72.3375015258789
 31
0.0
  0
CIRCLE
  5
3A4
330
1F
100
AcDbEntity
  8
16
  6
Continuous
 62
     3
370
    25
100
AcDbCircle
 10
-85.82500008395968
 20
-72.77500152587889
 30
0.0
 40
0.2249999940395355
  0
LINE
  5
3A5
330
1F
100
AcDbEntity
  8
16
  6
Continuous
 62
     3
370
    25
100
AcDbLine
 10
-83.587496958673
 20
-72.3375015258789
 30
0.0
 11
-83.587496958673
 21
-72.5875015258789
 31
0.0
  0
LINE
  5
3A6
330
1F
100
AcDbEntity
  8
16
  6
Continuous
 62
     3
370
    25
100
AcDbLine
 10
-83.587496958673
 20
-72.5875015258789
 30
0.0
 11
-83.212496958673
 21
-72.5875015258789
 31
0.0
  0
LINE
  5
3A7
330
1F
100
AcDbEntity
  8
16
  6
Continuous
 62
     3
370
    25
100
AcDbLine
 10
-83.212496958673
 20
-72.5875015258789
 30
0.0
 11
-82.712496958673
 21
-73.4625015258789
 31
0.0
  0
LINE
  5
3A8
330
1F
100
AcDbEntity
  8
16
  6
Continuous
 62
     3
370
    25
100
AcDbLine
 10
-82.712496958673
 20
-73.4625015258789
 30
0.0
 11
-82.712496958673
 21
-73.8375015258789
 31
0.0
  0
LINE
  5
3A9
330
1F
100
AcDbEntity
  8
16
  6
Continuous
 62
     3
370
    25
100
AcDbLine
 10
-82.712496958673
 20
-73.8375015258789
 30
0.0
 11
-82.587496958673
 21
-73.9625015258789
 31
0.0
  0
LINE
  5
3AA
330
1F
100
AcDbEntity
  8
16
  6
Continuous
 62
     3
370
    25
100
AcDbLine
 10
-82.587496958673
 20
-73.9625015258789
 30
0.0
 11
-82.587496958673
 21
-77.3375015258789
 31
0.0
  0
LINE
  5
3AB
330
1F
100
AcDbEntity
  8
16
  6
Continuous
 62
     3
370
    25
100
AcDbLine
 10
-82.587496958673
 20
-77.3375015258789
 30
0.0
 11
-82.649996958673
 21
-77.4625015258789
 31
0.0
  0
LINE
  5
3AC
330
1F
100
AcDbEntity
  8
16
  6
Continuous
 62
     3
370
    25
100
AcDbLine
 10
-82.649996958673
 20
-77.4625015258789
 30
0.0
 11
-82.649996958673
 21
-79.8375015258789
 31
0.0
  0
LINE
  5
3AD
330
1F
100
AcDbEntity
  8
16
  6
Continuous
 62
     3
370
    25
100
AcDbLine
 10
-82.649996958673
 20
-79.8375015258789
 30
0.0
 11
-82.024996958673
 21
-79.8375015258789
 31
0.0
  0
LINE
  5
3AE
330
1F
100
AcDbEntity
  8
16
  6
Continuous
 62
     3
370
    25
100
AcDbLine
 10
-82.024996958673
 20
-79.8375015258789
 30
0.0
 11
-82.024996958673
 21
-77.4625015258789
 31
0.0
  0
LINE
  5
3AF
330
1F
100
AcDbEntity
  8
16
  6
Continuous
 62
     3
370
    25
100
AcDbLine
 10
-82.024996958673
 20
-77.4625015258789
 30
0.0
 11
-82.087496958673
 21
-77.3375015258789
 31
0.0
  0
LINE
  5
3B0
330
1F
100
AcDbEntity
  8
16
  6
Continuous
 62
     3
370
    25
100
AcDbLine
 10
-82.087496958673
 20
-77.3375015258789
 30
0.0
 11
-82.087496958673
 21
-73.9625015258789
 31
0.0
  0
LINE
  5
3B1
330
1F
100
AcDbEntity
  8
16
  6
Continuous
 62
     3
370
    25
100
AcDbLine
 10
-82.087496958673
 20
-73.9625015258789
 30
0.0
 11
-81.962496958673
 21
-73.8375015258789
 31
0.0
  0
LINE
  5
3B2
330
1F
100
AcDbEntity
  8
16
  6
Continuous
 62
     3
370
    25
100
AcDbLine
 10
-81.962496958673
 20
-73.8375015258789
 30
0.0
 11
-81.962496958673
 21
-73.4625015258789
 31
0.0
  0
LINE
  5
3B3
330
1F
100
AcDbEntity
  8
16
  6
Continuous
 62
     3
370
    25
100
AcDbLine
 10
-81.962496958673
 20
-73.4625015258789
 30
0.0
 11
-81.462496958673
 21
-72.5875015258789
 31
0.0
  0
LINE
  5
3B4
330
1F
100
AcDbEntity
  8
16
  6
Continuous
 62
     3
370
    25
100
AcDbLine
 10
-81.462496958673
 20
-72.5875015258789
 30
0.0
 11
-81.087496958673
 21
-72.5875015258789
 31
0.0
  0
LINE
  5
3B5
330
1F
100
AcDbEntity
  8
16
  6
Continuous
 62
     3
370
    25
100
AcDbLine
 10
-81.087496958673
 20
-72.5875015258789
 30
0.0
 11
-81.087496958673
 21
-72.3375015258789
 31
0.0
  0
LINE
  5
3B6
330
1F
100
AcDbEntity
  8
16
  6
Continuous
 62
     3
370
    25
100
AcDbLine
 10
-81.087496958673
 20
-72.3375015258789
 30
0.0
 11
-81.587496958673
 21
-72.3375015258789
 31
0.0
  0
LINE
  5
3B7
330
1F
100
AcDbEntity
  8
16
  6
Continuous
 62
     3
370
    25
100
AcDbLine
 10
-81.587496958673
 20
-72.3375015258789
 30
0.0
 11
-82.337496958673
 21
-73.0875015258789
 31
0.0
  0
LINE
  5
3B8
330
1F
100
AcDbEntity
  8
16
  6
Continuous
 62
     3
370
    25
100
AcDbLine
 10
-82.337496958673
 20
-73.0875015258789
 30
0.0
 11
-83.087496958673
 21
-72.3375015258789
 31
0.0
  0
LINE
  5
3B9
330
1F
100
AcDbEntity
  8
16
  6
Continuous
 62
     3
370
    25
100
AcDbLine
 10
-83.087496958673
 20
-72.3375015258789
 30
0.0
 11
-83.587496958673
 21
-72.3375015258789
 31
0.0
  0
CIRCLE
  5
3BA
330
1F
100
AcDbEntity
  8
16
  6
Continuous
 62
     3
370
    25
100
AcDbCircle
 10
-82.33749703220187
 20
-72.77500152587889
 30
0.0
 40
0.2249999940395355
  0
LINE
  5
3BB
330
1F
100
AcDbEntity
  8
16
  6
Continuous
 62
     3
370
    25
100
AcDbLine
 10
-80.10000153630972
 20
-72.3375015258789
 30
0.0
 11
-80.10000153630972
 21
-72.5875015258789
 31
0.0
  0
LINE
  5
3BC
330
1F
100
AcDbEntity
  8
16
  6
Continuous
 62
     3
370
    25
100
AcDbLine
 10
-80.10000153630972
 20
-72.5875015258789
 30
0.0
 11
-79.72500153630972
 21
-72.5875015258789
 31
0.0
  0
LINE
  5
3BD
330
1F
100
AcDbEntity
  8
16
  6
Continuous
 62
     3
370
    25
100
AcDbLine
 10
-79.72500153630972
 20
-72.5875015258789
 30
0.0
 11
-79.22500153630972
 21
-73.4625015258789
 31
0.0
  0
LINE
  5
3BE
330
1F
100
AcDbEntity
  8
16
  6
Continuous
 62
     3
370
    25
100
AcDbLine
 10
-79.22500153630972
 20
-73.4625015258789
 30
0.0
 11
-79.22500153630972
 21
-73.8375015258789
 31
0.0
  0
LINE
  5
3BF
330
1F
100
AcDbEntity
  8
16
  6
Continuous
 62
     3
370
    25
100
AcDbLine
 10
-79.22500153630972
 20
-73.8375015258789
 30
0.0
 11
-79.10000153630972
 21
-73.9625015258789
 31
0.0
  0
LINE
  5
3C0
330
1F
100
AcDbEntity
  8
16
  6
Continuous
 62
     3
370
    25
100
AcDbLine
 10
-79.10000153630972
 20
-73.9625015258789
 30
0.0
 11
-79.10000153630972
 21
-77.3375015258789
 31
0.0
  0
LINE
  5
3C1
330
1F
100
AcDbEntity
  8
16
  6
Continuous
 62
     3
370
    25
100
AcDbLine
 10
-79.10000153630972
 20
-77.3375015258789
 30
0.0
 11
-79.16250153630972
 21
-77.4625015258789
 31
0.0
  0
LINE
  5
3C2
330
1F
100
AcDbEntity
  8
16
  6
Continuous
 62
     3
370
    25
100
AcDbLine
 10
-79.16250153630972
 20
-77.4625015258789
 30
0.0
 11
-79.16250153630972
 21
-79.8375015258789
 31
0.0
  0
LINE
  5
3C3
330
1F
100
AcDbEntity
  8
16
  6
Continuous
 62
     3
370
    25
100
AcDbLine
 10
-79.16250153630972
 20
-79.8375015258789
 30
0.0
 11
-78.53750153630972
 21
-79.8375015258789
 31
0.0
  0
LINE
  5
3C4
330
1F
100
AcDbEntity
  8
16
  6
Continuous
 62
     3
370
    25
100
AcDbLine
 10
-78.53750153630972
 20
-79.8375015258789
 30
0.0
 11
-78.53750153630972
 21
-77.4625015258789
 31
0.0
  0
LINE
  5
3C5
330
1F
100
AcDbEntity
  8
16
  6
Continuous
 62
     3
370
    25
100
AcDbLine
 10
-78.53750153630972
 20
-77.4625015258789
 30
0.0
 11
-78.60000153630972
 21
-77.3375015258789
 31
0.0
  0
LINE
  5
3C6
330
1F
100
AcDbEntity
  8
16
  6
Continuous
 62
     3
370
    25
100
AcDbLine
 10
-78.60000153630972
 20
-77.3375015258789
 30
0.0
 11
-78.60000153630972
 21
-73.9625015258789
 31
0.0
  0
LINE
  5
3C7
330
1F
100
AcDbEntity
  8
16
  6
Continuous
 62
     3
370
    25
100
AcDbLine
 10
-78.60000153630972
 20
-73.9625015258789
 30
0.0
 11
-78.47500153630972
 21
-73.8375015258789
 31
0.0
  0
LINE
  5
3C8
330
1F
100
AcDbEntity
  8
16
  6
Continuous
 62
     3
370
    25
100
AcDbLine
 10
-78.47500153630972
 20
-73.8375015258789
 30
0.0
 11
-78.47500153630972
 21
-73.4625015258789
 31
0.0
  0
LINE
  5
3C9
330
1F
100
AcDbEntity
  8
16
  6
Continuous
 62
     3
370
    25
100
AcDbLine
 10
-78.47500153630972
 20
-73.4625015258789
 30
0.0
 11
-77.97500153630972
 21
-72.5875015258789
 31
0.0
  0
LINE
  5
3CA
330
1F
100
AcDbEntity
  8
16
  6
Continuous
 62
     3
370
    25
100
AcDbLine
 10
-77.97500153630972
 20
-72.5875015258789
 30
0.0
 11
-77.60000153630972
 21
-72.5875015258789
 31
0.0
  0
LINE
  5
3CB
330
1F
100
AcDbEntity
  8
16
  6
Continuous
 62
     3
370
    25
100
AcDbLine
 10
-77.60000153630972
 20
-72.5875015258789
 30
0.0
 11
-77.60000153630972
 21
-72.3375015258789
 31
0.0
  0
LINE
  5
3CC
330
1F
100
AcDbEntity
  8
16
  6
Continuous
 62
     3
370
    25
100
AcDbLine
 10
-77.60000153630972
 20
-72.3375015258789
 30
0.0
 11
-78.10000153630972
 21
-72.3375015258789
 31
0.0
  0
LINE
  5
3CD
330
1F
100
AcDbEntity
  8
16
  6
Continuous
 62
     3
370
    25
100
AcDbLine
 10
-78.10000153630972
 20
-72.3375015258789
 30
0.0
 11
-78.85000153630972
 21
-73.0875015258789
 31
0.0
  0
LINE
  5
3CE
330
1F
100
AcDbEntity
  8
16
  6
Continuous
 62
     3
370
    25
100
AcDbLine
 10
-78.85000153630972
 20
-73.0875015258789
 30
0.0
 11
-79.60000153630972
 21
-72.3375015258789
 31
0.0
  0
LINE
  5
3CF
330
1F
100
AcDbEntity
  8
16
  6
Continuous
 62
     3
370
    25
100
AcDbLine
 10
-79.60000153630972
 20
-72.3375015258789
 30
0.0
 11
-80.10000153630972
 21
-72.3375015258789
 31
0.0
  0
CIRCLE
  5
3D0
330
1F
100
AcDbEntity
  8
16
  6
Continuous
 62
     3
370
    25
100
AcDbCircle
 10
-78.85000160983859
 20
-72.77500152587889
 30
0.0
 40
0.2249999940395355
  0
LINE
  5
3D1
330
1F
100
AcDbEntity
  8
16
  6
Continuous
 62
     3
370
    25
100
AcDbLine
 10
-76.6124984845519
 20
-72.3375015258789
 30
0.0
 11
-76.6124984845519
 21
-72.5875015258789
 31
0.0
  0
LINE
  5
3D2
330
1F
100
AcDbEntity
  8
16
  6
Continuous
 62
     3
370
    25
100
AcDbLine
 10
-76.6124984845519
 20
-72.5875015258789
 30
0.0
 11
-76.2374984845519
 21
-72.5875015258789
 31
0.0
  0
LINE
  5
3D3
330
1F
100
AcDbEntity
  8
16
  6
Continuous
 62
     3
370
    25
100
AcDbLine
 10
-76.2374984845519
 20
-72.5875015258789
 30
0.0
 11
-75.7374984845519
 21
-73.4625015258789
 31
0.0
  0
LINE
  5
3D4
330
1F
100
AcDbEntity
  8
16
  6
Continuous
 62
     3
370
    25
100
AcDbLine
 10
-75.7374984845519
 20
-73.4625015258789
 30
0.0
 11
-75.7374984845519
 21
-73.8375015258789
 31
0.0
  0
LINE
  5
3D5
330
1F
100
AcDbEntity
  8
16
  6
Continuous
 62
     3
370
    25
100
AcDbLine
 10
-75.7374984845519
 20
-73.8375015258789
 30
0.0
 11
-75.6124984845519
 21
-73.9625015258789
 31
0.0
  0
LINE
  5
3D6
330
1F
100
AcDbEntity
  8
16
  6
Continuous
 62
     3
370
    25
100
AcDbLine
 10
-75.6124984845519
 20
-73.9625015258789
 30
0.0
 11
-75.6124984845519
 21
-77.3375015258789
 31
0.0
  0
LINE
  5
3D7
330
1F
100
AcDbEntity
  8
16
  6
Continuous
 62
     3
370
    25
100
AcDbLine
 10
-75.6124984845519
 20
-77.3375015258789
 30
0.0
 11
-75.6749984845519
 21
-77.4625015258789
 31
0.0
  0
LINE
  5
3D8
330
1F
100
AcDbEntity
  8
16
  6
Continuous
 62
     3
370
    25
100
AcDbLine
 10
-75.6749984845519
 20
-77.4625015258789
 30
0.0
 11
-75.6749984845519
 21
-79.8375015258789
 31
0.0
  0
LINE
  5
3D9
330
1F
100
AcDbEntity
  8
16
  6
Continuous
 62
     3
370
    25
100
AcDbLine
 10
-75.6749984845519
 20
-79.8375015258789
 30
0.0
 11
-75.0499984845519
 21
-79.8375015258789
 31
0.0
  0
LINE
  5
3DA
330
1F
100
AcDbEntity
  8
16
  6
Continuous
 62
     3
370
    25
100
AcDbLine
 10
-75.0499984845519
 20
-79.8375015258789
 30
0.0
 11
-75.0499984845519
 21
-77.4625015258789
 31
0.0
  0
LINE
  5
3DB
330
1F
100
AcDbEntity
  8
16
  6
Continuous
 62
     3
370
    25
100
AcDbLine
 10
-75.0499984845519
 20
-77.4625015258789
 30
0.0
 11
-75.1124984845519
 21
-77.3375015258789
 31
0.0
  0
LINE
  5
3DC
330
1F
100
AcDbEntity
  8
16
  6
Continuous
 62
     3
370
    25
100
AcDbLine
 10
-75.1124984845519
 20
-77.3375015258789
 30
0.0
 11
-75.1124984845519
 21
-73.9625015258789
 31
0.0
  0
LINE
  5
3DD
330
1F
100
AcDbEntity
  8
16
  6
Continuous
 62
     3
370
    25
100
AcDbLine
 10
-75.1124984845519
 20
-73.9625015258789
 30
0.0
 11
-74.9874984845519
 21
-73.8375015258789
 31
0.0
  0
LINE
  5
3DE
330
1F
100
AcDbEntity
  8
16
  6
Continuous
 62
     3
370
    25
100
AcDbLine
 10
-74.9874984845519
 20
-73.8375015258789
 30
0.0
 11
-74.9874984845519
 21
-73.4625015258789
 31
0.0
  0
LINE
  5
3DF
330
1F
100
AcDbEntity
  8
16
  6
Continuous
 62
     3
370
    25
100
AcDbLine
 10
-74.9874984845519
 20
-73.4625015258789
 30
0.0
 11
-74.4874984845519
 21
-72.5875015258789
 31
0.0
  0
LINE
  5
3E0
330
1F
100
AcDbEntity
  8
16
  6
Continuous
 62
     3
370
    25
100
AcDbLine
 10
-74.4874984845519
 20
-72.5875015258789
 30
0.0
 11
-74.1124984845519
 21
-72.5875015258789
 31
0.0
  0
LINE
  5
3E1
330
1F
100
AcDbEntity
  8
16
  6
Continuous
 62
     3
370
    25
100
AcDbLine
 10
-74.1124984845519
 20
-72.5875015258789
 30
0.0
 11
-74.1124984845519
 21
-72.3375015258789
 31
0.0
  0
LINE
  5
3E2
330
1F
100
AcDbEntity
  8
16
  6
Continuous
 62
     3
370
    25
100
AcDbLine
 10
-74.1124984845519
 20
-72.3375015258789
 30
0.0
 11
-74.6124984845519
 21
-72.3375015258789
 31
0.0
  0
LINE
  5
3E3
330
1F
100
AcDbEntity
  8
16
  6
Continuous
 62
     3
370
    25
100
AcDbLine
 10
-74.6124984845519
 20
-72.3375015258789
 30
0.0
 11
-75.3624984845519
 21
-73.0875015258789
 31
0.0
  0
LINE
  5
3E4
330
1F
100
AcDbEntity
  8
16
  6
Continuous
 62
     3
370
    25
100
AcDbLine
 10
-75.3624984845519
 20
-73.0875015258789
 30
0.0
 11
-76.1124984845519
 21
-72.3375015258789
 31
0.0
  0
LINE
  5
3E5
330
1F
100
AcDbEntity
  8
16
  6
Continuous
 62
     3
370
    25
100
AcDbLine
 10
-76.1124984845519
 20
-72.3375015258789
 30
0.0
 11
-76.6124984845519
 21
-72.3375015258789
 31
0.0
  0
CIRCLE
  5
3E6
330
1F
100
AcDbEntity
  8
16
  6
Continuous
 62
     3
370
    25
100
AcDbCircle
 10
-75.36249855808077
 20
-72.77500152587889
 30
0.0
 40
0.2249999940395355
  0
LINE
  5
3E7
330
1F
100
AcDbEntity
  8
16
  6
Continuous
 62
     3
370
    25
100
AcDbLine
 10
-111.4874984845519
 20
-72.3375015258789
 30
0.0
 11
-74.1124984845519
 21
-72.3375015258789
 31
0.0
  0
LINE
  5
3E8
330
1F
100
AcDbEntity
  8
16
  6
Continuous
 62
     3
370
    25
100
AcDbLine
 10
-111.4874984845519
 20
-72.3375015258789
 30
0.0
 11
-111.4874984845519
 21
-78.5875015258789
 31
0.0
  0
LINE
  5
3E9
330
1F
100
AcDbEntity
  8
16
  6
Continuous
 62
     3
370
    25
100
AcDbLine
 10
-111.4874984845519
 20
-78.5875015258789
 30
0.0
 11
-110.5499984845519
 21
-78.5875015258789
 31
0.0
  0
LINE
  5
3EA
330
1F
100
AcDbEntity
  8
16
  6
Continuous
 62
     3
370
    25
100
AcDbLine
 10
-109.9249984845519
 20
-78.5875015258789
 30
0.0
 11
-107.0624985322356
 21
-78.5875015258789
 31
0.0
  0
LINE
  5
3EB
330
1F
100
AcDbEntity
  8
16
  6
Continuous
 62
     3
370
    25
100
AcDbLine
 10
-106.4375030621886
 20
-78.5875015258789
 30
0.0
 11
-103.5750031098723
 21
-78.5875015258789
 31
0.0
  0
LINE
  5
3EC
330
1F
100
AcDbEntity
  8
16
  6
Continuous
 62
     3
370
    25
100
AcDbLine
 10
-102.9500000104308
 20
-78.5875015258789
 30
0.0
 11
-100.0875000581145
 21
-78.5875015258789
 31
0.0
  0
LINE
  5
3ED
330
1F
100
AcDbEntity
  8
16
  6
Continuous
 62
     3
370
    25
100
AcDbLine
 10
-99.462496958673
 20
-78.5875015258789
 30
0.0
 11
-96.59999700635672
 21
-78.5875015258789
 31
0.0
  0
LINE
  5
3EE
330
1F
100
AcDbEntity
  8
16
  6
Continuous
 62
     3
370
    25
100
AcDbLine
 10
-95.97500153630972
 20
-78.5875015258789
 30
0.0
 11
-93.11250158399343
 21
-78.5875015258789
 31
0.0
  0
LINE
  5
3EF
330
1F
100
AcDbEntity
  8
16
  6
Continuous
 62
     3
370
    25
100
AcDbLine
 10
-92.4874984845519
 20
-78.5875015258789
 30
0.0
 11
-89.62499853223562
 21
-78.5875015258789
 31
0.0
  0
LINE
  5
3F0
330
1F
100
AcDbEntity
  8
16
  6
Continuous
 62
     3
370
    25
100
AcDbLine
 10
-89.00000306218863
 20
-78.5875015258789
 30
0.0
 11
-86.13750310987234
 21
-78.5875015258789
 31
0.0
  0
LINE
  5
3F1
330
1F
100
AcDbEntity
  8
16
  6
Continuous
 62
     3
370
    25
100
AcDbLine
 10
-85.51250001043081
 20
-78.5875015258789
 30
0.0
 11
-82.65000005811453
 21
-78.5875015258789
 31
0.0
  0
LINE
  5
3F2
330
1F
100
AcDbEntity
  8
16
  6
Continuous
 62
     3
370
    25
100
AcDbLine
 10
-82.024996958673
 20
-78.5875015258789
 30
0.0
 11
-79.16249700635672
 21
-78.5875015258789
 31
0.0
  0
LINE
  5
3F3
330
1F
100
AcDbEntity
  8
16
  6
Continuous
 62
     3
370
    25
100
AcDbLine
 10
-78.53750153630972
 20
-78.5875015258789
 30
0.0
 11
-75.67500158399343
 21
-78.5875015258789
 31
0.0
  0
LINE
  5
3F4
330
1F
100
AcDbEntity
  8
16
  6
Continuous
 62
     3
370
    25
100
AcDbLine
 10
-75.0499984845519
 20
-78.5875015258789
 30
0.0
 11
-74.1124984845519
 21
-78.5875015258789
 31
0.0
  0
LINE
  5
3F5
330
1F
100
AcDbEntity
  8
16
  6
Continuous
 62
     3
370
    25
100
AcDbLine
 10
-74.1124984845519
 20
-78.5875015258789
 30
0.0
 11
-74.1124984845519
 21
-72.3375015258789
 31
0.0
  0
LINE
  5
3F6
330
1F
100
AcDbEntity
  8
16
  6
Continuous
 62
     3
370
    25
100
AcDbLine
 10
-109.243746958673
 20
-73.8375015258789
 30
0.0
 11
-109.243746958673
 21
-74.3375015258789
 31
0.0
  0
ARC
  5
3F7
330
1F
100
AcDbEntity
  8
16
  6
Continuous
 62
     3
370
    25
100
AcDbCircle
 10
-108.4937469586731
 20
-74.33750201607126
 30
0.0
 40
0.75
100
AcDbArc
 50
180.0000000000004
 51
0.0000000000008142
  0
LINE
  5
3F8
330
1F
100
AcDbEntity
  8
16
  6
Continuous
 62
     3
370
    25
100
AcDbLine
 10
-107.7437469586738
 20
-74.33750299645594
 30
0.0
 11
-107.7437469586738
 21
-73.83750299645594
 31
0.0
  0
ARC
  5
3F9
330
1F
100
AcDbEntity
  8
16
  6
Continuous
 62
     3
370
    25
100
AcDbCircle
 10
-108.4937469586738
 20
-73.83750299645594
 30
0.0
 40
0.75
100
AcDbArc
 50
0.0
 51
180.0000000000004
  0
LINE
  5
3FA
330
1F
100
AcDbEntity
  8
16
  6
Continuous
 62
     3
370
    25
100
AcDbLine
 10
-109.618746958673
 20
-74.0875015258789
 30
0.0
 11
-107.368746958673
 21
-74.0875015258789
 31
0.0
  0
LINE
  5
3FB
330
1F
100
AcDbEntity
  8
16
  6
Continuous
 62
     3
370
    25
100
AcDbLine
 10
-108.493746958673
 20
-72.7125015258789
 30
0.0
 11
-108.493746958673
 21
-75.4625015258789
 31
0.0
  0
LINE
  5
3FC
330
1F
100
AcDbEntity
  8
16
  6
Continuous
 62
     3
370
    25
100
AcDbLine
 10
-106.4687530621886
 20
-73.9625015258789
 30
0.0
 11
-106.3437530621886
 21
-73.8375015258789
 31
0.0
  0
LINE
  5
3FD
330
1F
100
AcDbEntity
  8
16
  6
Continuous
 62
     3
370
    25
100
AcDbLine
 10
-106.3437530621886
 20
-73.8375015258789
 30
0.0
 11
-103.6687531098723
 21
-73.8375015258789
 31
0.0
  0
LINE
  5
3FE
330
1F
100
AcDbEntity
  8
16
  6
Continuous
 62
     3
370
    25
100
AcDbLine
 10
-103.6687531098723
 20
-73.8375015258789
 30
0.0
 11
-103.5437531098723
 21
-73.9625015258789
 31
0.0
  0
LINE
  5
3FF
330
1F
100
AcDbEntity
  8
16
  6
Continuous
 62
     3
370
    25
100
AcDbLine
 10
-103.5437531098723
 20
-75.2125015258789
 30
0.0
 11
-103.6687531098723
 21
-75.3375015258789
 31
0.0
  0
LINE
  5
400
330
1F
100
AcDbEntity
  8
16
  6
Continuous
 62
     3
370
    25
100
AcDbLine
 10
-103.6687531098723
 20
-75.3375015258789
 30
0.0
 11
-106.3437530621886
 21
-75.3375015258789
 31
0.0
  0
LINE
  5
401
330
1F
100
AcDbEntity
  8
16
  6
Continuous
 62
     3
370
    25
100
AcDbLine
 10
-106.3437530621886
 20
-75.3375015258789
 30
0.0
 11
-106.4687530621886
 21
-75.2125015258789
 31
0.0
  0
LINE
  5
402
330
1F
100
AcDbEntity
  8
16
  6
Continuous
 62
     3
370
    25
100
AcDbLine
 10
-102.9812500104308
 20
-73.9625015258789
 30
0.0
 11
-102.8562500104308
 21
-73.8375015258789
 31
0.0
  0
LINE
  5
403
330
1F
100
AcDbEntity
  8
16
  6
Continuous
 62
     3
370
    25
100
AcDbLine
 10
-102.8562500104308
 20
-73.8375015258789
 30
0.0
 11
-100.1812500581145
 21
-73.8375015258789
 31
0.0
  0
LINE
  5
404
330
1F
100
AcDbEntity
  8
16
  6
Continuous
 62
     3
370
    25
100
AcDbLine
 10
-100.1812500581145
 20
-73.8375015258789
 30
0.0
 11
-100.0562500581145
 21
-73.9625015258789
 31
0.0
  0
LINE
  5
405
330
1F
100
AcDbEntity
  8
16
  6
Continuous
 62
     3
370
    25
100
AcDbLine
 10
-100.0562500581145
 20
-75.2125015258789
 30
0.0
 11
-100.1812500581145
 21
-75.3375015258789
 31
0.0
  0
LINE
  5
406
330
1F
100
AcDbEntity
  8
16
  6
Continuous
 62
     3
370
    25
100
AcDbLine
 10
-100.1812500581145
 20
-75.3375015258789
 30
0.0
 11
-102.8562500104308
 21
-75.3375015258789
 31
0.0
  0
LINE
  5
407
330
1F
100
AcDbEntity
  8
16
  6
Continuous
 62
     3
370
    25
100
AcDbLine
 10
-102.8562500104308
 20
-75.3375015258789
 30
0.0
 11
-102.9812500104308
 21
-75.2125015258789
 31
0.0
  0
LINE
  5
408
330
1F
100
AcDbEntity
  8
16
  6
Continuous
 62
     3
370
    25
100
AcDbLine
 10
-99.493746958673
 20
-73.9625015258789
 30
0.0
 11
-99.368746958673
 21
-73.8375015258789
 31
0.0
  0
LINE
  5
409
330
1F
100
AcDbEntity
  8
16
  6
Continuous
 62
     3
370
    25
100
AcDbLine
 10
-99.368746958673
 20
-73.8375015258789
 30
0.0
 11
-96.69374700635672
 21
-73.8375015258789
 31
0.0
  0
LINE
  5
40A
330
1F
100
AcDbEntity
  8
16
  6
Continuous
 62
     3
370
    25
100
AcDbLine
 10
-96.69374700635672
 20
-73.8375015258789
 30
0.0
 11
-96.56874700635672
 21
-73.9625015258789
 31
0.0
  0
LINE
  5
40B
330
1F
100
AcDbEntity
  8
16
  6
Continuous
 62
     3
370
    25
100
AcDbLine
 10
-96.56874700635672
 20
-75.2125015258789
 30
0.0
 11
-96.69374700635672
 21
-75.3375015258789
 31
0.0
  0
LINE
  5
40C
330
1F
100
AcDbEntity
  8
16
  6
Continuous
 62
     3
370
    25
100
AcDbLine
 10
-96.69374700635672
 20
-75.3375015258789
 30
0.0
 11
-99.368746958673
 21
-75.3375015258789
 31
0.0
  0
LINE
  5
40D
330
1F
100
AcDbEntity
  8
16
  6
Continuous
 62
     3
370
    25
100
AcDbLine
 10
-99.368746958673
 20
-75.3375015258789
 30
0.0
 11
-99.493746958673
 21
-75.2125015258789
 31
0.0
  0
LINE
  5
40E
330
1F
100
AcDbEntity
  8
16
  6
Continuous
 62
     3
370
    25
100
AcDbLine
 10
-96.00625153630972
 20
-73.9625015258789
 30
0.0
 11
-95.88125153630972
 21
-73.8375015258789
 31
0.0
  0
LINE
  5
40F
330
1F
100
AcDbEntity
  8
16
  6
Continuous
 62
     3
370
    25
100
AcDbLine
 10
-95.88125153630972
 20
-73.8375015258789
 30
0.0
 11
-93.20625158399343
 21
-73.8375015258789
 31
0.0
  0
LINE
  5
410
330
1F
100
AcDbEntity
  8
16
  6
Continuous
 62
     3
370
    25
100
AcDbLine
 10
-93.20625158399343
 20
-73.8375015258789
 30
0.0
 11
-93.08125158399343
 21
-73.9625015258789
 31
0.0
  0
LINE
  5
411
330
1F
100
AcDbEntity
  8
16
  6
Continuous
 62
     3
370
    25
100
AcDbLine
 10
-93.08125158399343
 20
-75.2125015258789
 30
0.0
 11
-93.20625158399343
 21
-75.3375015258789
 31
0.0
  0
LINE
  5
412
330
1F
100
AcDbEntity
  8
16
  6
Continuous
 62
     3
370
    25
100
AcDbLine
 10
-93.20625158399343
 20
-75.3375015258789
 30
0.0
 11
-95.88125153630972
 21
-75.3375015258789
 31
0.0
  0
LINE
  5
413
330
1F
100
AcDbEntity
  8
16
  6
Continuous
 62
     3
370
    25
100
AcDbLine
 10
-95.88125153630972
 20
-75.3375015258789
 30
0.0
 11
-96.00625153630972
 21
-75.2125015258789
 31
0.0
  0
LINE
  5
414
330
1F
100
AcDbEntity
  8
16
  6
Continuous
 62
     3
370
    25
100
AcDbLine
 10
-92.5187484845519
 20
-73.9625015258789
 30
0.0
 11
-92.3937484845519
 21
-73.8375015258789
 31
0.0
  0
LINE
  5
415
330
1F
100
AcDbEntity
  8
16
  6
Continuous
 62
     3
370
    25
100
AcDbLine
 10
-92.3937484845519
 20
-73.8375015258789
 30
0.0
 11
-89.71874853223562
 21
-73.8375015258789
 31
0.0
  0
LINE
  5
416
330
1F
100
AcDbEntity
  8
16
  6
Continuous
 62
     3
370
    25
100
AcDbLine
 10
-89.71874853223562
 20
-73.8375015258789
 30
0.0
 11
-89.59374853223562
 21
-73.9625015258789
 31
0.0
  0
LINE
  5
417
330
1F
100
AcDbEntity
  8
16
  6
Continuous
 62
     3
370
    25
100
AcDbLine
 10
-89.59374853223562
 20
-75.2125015258789
 30
0.0
 11
-89.71874853223562
 21
-75.3375015258789
 31
0.0
  0
LINE
  5
418
330
1F
100
AcDbEntity
  8
16
  6
Continuous
 62
     3
370
    25
100
AcDbLine
 10
-89.71874853223562
 20
-75.3375015258789
 30
0.0
 11
-92.3937484845519
 21
-75.3375015258789
 31
0.0
  0
LINE
  5
419
330
1F
100
AcDbEntity
  8
16
  6
Continuous
 62
     3
370
    25
100
AcDbLine
 10
-92.3937484845519
 20
-75.3375015258789
 30
0.0
 11
-92.5187484845519
 21
-75.2125015258789
 31
0.0
  0
LINE
  5
41A
330
1F
100
AcDbEntity
  8
16
  6
Continuous
 62
     3
370
    25
100
AcDbLine
 10
-89.03125306218863
 20
-73.9625015258789
 30
0.0
 11
-88.90625306218863
 21
-73.8375015258789
 31
0.0
  0
LINE
  5
41B
330
1F
100
AcDbEntity
  8
16
  6
Continuous
 62
     3
370
    25
100
AcDbLine
 10
-88.90625306218863
 20
-73.8375015258789
 30
0.0
 11
-86.23125310987234
 21
-73.8375015258789
 31
0.0
  0
LINE
  5
41C
330
1F
100
AcDbEntity
  8
16
  6
Continuous
 62
     3
370
    25
100
AcDbLine
 10
-86.23125310987234
 20
-73.8375015258789
 30
0.0
 11
-86.10625310987234
 21
-73.9625015258789
 31
0.0
  0
LINE
  5
41D
330
1F
100
AcDbEntity
  8
16
  6
Continuous
 62
     3
370
    25
100
AcDbLine
 10
-86.10625310987234
 20
-75.2125015258789
 30
0.0
 11
-86.23125310987234
 21
-75.3375015258789
 31
0.0
  0
LINE
  5
41E
330
1F
100
AcDbEntity
  8
16
  6
Continuous
 62
     3
370
    25
100
AcDbLine
 10
-86.23125310987234
 20
-75.3375015258789
 30
0.0
 11
-88.90625306218863
 21
-75.3375015258789
 31
0.0
  0
LINE
  5
41F
330
1F
100
AcDbEntity
  8
16
  6
Continuous
 62
     3
370
    25
100
AcDbLine
 10
-88.90625306218863
 20
-75.3375015258789
 30
0.0
 11
-89.03125306218863
 21
-75.2125015258789
 31
0.0
  0
LINE
  5
420
330
1F
100
AcDbEntity
  8
16
  6
Continuous
 62
     3
370
    25
100
AcDbLine
 10
-85.54375001043081
 20
-73.9625015258789
 30
0.0
 11
-85.41875001043081
 21
-73.8375015258789
 31
0.0
  0
LINE
  5
421
330
1F
100
AcDbEntity
  8
16
  6
Continuous
 62
     3
370
    25
100
AcDbLine
 10
-85.41875001043081
 20
-73.8375015258789
 30
0.0
 11
-82.74375005811453
 21
-73.8375015258789
 31
0.0
  0
LINE
  5
422
330
1F
100
AcDbEntity
  8
16
  6
Continuous
 62
     3
370
    25
100
AcDbLine
 10
-82.74375005811453
 20
-73.8375015258789
 30
0.0
 11
-82.61875005811453
 21
-73.9625015258789
 31
0.0
  0
LINE
  5
423
330
1F
100
AcDbEntity
  8
16
  6
Continuous
 62
     3
370
    25
100
AcDbLine
 10
-82.61875005811453
 20
-75.2125015258789
 30
0.0
 11
-82.74375005811453
 21
-75.3375015258789
 31
0.0
  0
LINE
  5
424
330
1F
100
AcDbEntity
  8
16
  6
Continuous
 62
     3
370
    25
100
AcDbLine
 10
-82.74375005811453
 20
-75.3375015258789
 30
0.0
 11
-85.41875001043081
 21
-75.3375015258789
 31
0.0
  0
LINE
  5
425
330
1F
100
AcDbEntity
  8
16
  6
Continuous
 62
     3
370
    25
100
AcDbLine
 10
-85.41875001043081
 20
-75.3375015258789
 30
0.0
 11
-85.54375001043081
 21
-75.2125015258789
 31
0.0
  0
LINE
  5
426
330
1F
100
AcDbEntity
  8
16
  6
Continuous
 62
     3
370
    25
100
AcDbLine
 10
-82.056246958673
 20
-73.9625015258789
 30
0.0
 11
-81.931246958673
 21
-73.8375015258789
 31
0.0
  0
LINE
  5
427
330
1F
100
AcDbEntity
  8
16
  6
Continuous
 62
     3
370
    25
100
AcDbLine
 10
-81.931246958673
 20
-73.8375015258789
 30
0.0
 11
-79.25624700635672
 21
-73.8375015258789
 31
0.0
  0
LINE
  5
428
330
1F
100
AcDbEntity
  8
16
  6
Continuous
 62
     3
370
    25
100
AcDbLine
 10
-79.25624700635672
 20
-73.8375015258789
 30
0.0
 11
-79.13124700635672
 21
-73.9625015258789
 31
0.0
  0
LINE
  5
429
330
1F
100
AcDbEntity
  8
16
  6
Continuous
 62
     3
370
    25
100
AcDbLine
 10
-79.13124700635672
 20
-75.2125015258789
 30
0.0
 11
-79.25624700635672
 21
-75.3375015258789
 31
0.0
  0
LINE
  5
42A
330
1F
100
AcDbEntity
  8
16
  6
Continuous
 62
     3
370
    25
100
AcDbLine
 10
-79.25624700635672
 20
-75.3375015258789
 30
0.0
 11
-81.931246958673
 21
-75.3375015258789
 31
0.0
  0
LINE
  5
42B
330
1F
100
AcDbEntity
  8
16
  6
Continuous
 62
     3
370
    25
100
AcDbLine
 10
-81.931246958673
 20
-75.3375015258789
 30
0.0
 11
-82.056246958673
 21
-75.2125015258789
 31
0.0
  0
LINE
  5
42C
330
1F
100
AcDbEntity
  8
16
  6
Continuous
 62
     3
370
    25
100
AcDbLine
 10
-78.56875153630972
 20
-73.9625015258789
 30
0.0
 11
-78.44375153630972
 21
-73.8375015258789
 31
0.0
  0
LINE
  5
42D
330
1F
100
AcDbEntity
  8
16
  6
Continuous
 62
     3
370
    25
100
AcDbLine
 10
-78.44375153630972
 20
-73.8375015258789
 30
0.0
 11
-75.76875158399343
 21
-73.8375015258789
 31
0.0
  0
LINE
  5
42E
330
1F
100
AcDbEntity
  8
16
  6
Continuous
 62
     3
370
    25
100
AcDbLine
 10
-75.76875158399343
 20
-73.8375015258789
 30
0.0
 11
-75.64375158399343
 21
-73.9625015258789
 31
0.0
  0
LINE
  5
42F
330
1F
100
AcDbEntity
  8
16
  6
Continuous
 62
     3
370
    25
100
AcDbLine
 10
-75.64375158399343
 20
-75.2125015258789
 30
0.0
 11
-75.76875158399343
 21
-75.3375015258789
 31
0.0
  0
LINE
  5
430
330
1F
100
AcDbEntity
  8
16
  6
Continuous
 62
     3
370
    25
100
AcDbLine
 10
-75.76875158399343
 20
-75.3375015258789
 30
0.0
 11
-78.44375153630972
 21
-75.3375015258789
 31
0.0
  0
LINE
  5
431
330
1F
100
AcDbEntity
  8
16
  6
Continuous
 62
     3
370
    25
100
AcDbLine
 10
-78.44375153630972
 20
-75.3375015258789
 30
0.0
 11
-78.56875153630972
 21
-75.2125015258789
 31
0.0
  0
LINE
  5
432
330
1F
100
AcDbEntity
  8
16
  6
Continuous
 62
     3
370
    25
100
AcDbLine
 10
-74.95624849712476
 20
-73.83750154823065
 30
0.0
 11
-74.70624849339947
 21
-73.83750154823065
 31
0.0
  0
LINE
  5
433
330
1F
100
AcDbEntity
  8
16
  6
Continuous
 62
     3
370
    25
100
AcDbLine
 10
-74.70624849339947
 20
-73.83750154823065
 30
0.0
 11
-74.70624849339947
 21
-75.33750157058239
 31
0.0
  0
LINE
  5
434
330
1F
100
AcDbEntity
  8
16
  6
Continuous
 62
     3
370
    25
100
AcDbLine
 10
-74.70624849339947
 20
-75.33750157058239
 30
0.0
 11
-74.95624849712476
 21
-75.33750157058239
 31
0.0
  0
LINE
  5
435
330
1F
100
AcDbEntity
  8
16
  6
Continuous
 62
     3
370
    25
100
AcDbLine
 10
-75.0812484989874
 20
-73.9625015500933
 30
0.0
 11
-74.95624849712476
 21
-73.83750154823065
 31
0.0
  0
LINE
  5
436
330
1F
100
AcDbEntity
  8
16
  6
Continuous
 62
     3
370
    25
100
AcDbLine
 10
-74.95624849712476
 20
-75.33750157058239
 30
0.0
 11
-75.0812484989874
 21
-75.21250156871974
 31
0.0
  0
LINE
  5
437
330
1F
100
AcDbEntity
  8
22
  6
Continuous
 62
     4
370
    25
100
AcDbLine
 10
91.20000407099724
 20
95.70000328421592
 30
0.0
 11
86.20000399649143
 21
95.70000328421592
 31
0.0
  0
LINE
  5
438
330
1F
100
AcDbEntity
  8
22
  6
Continuous
 62
     4
370
    25
100
AcDbLine
 10
86.20000399649143
 20
95.70000328421592
 30
0.0
 11
86.20000399649143
 21
91.70000322461128
 31
0.0
  0
LINE
  5
439
330
1F
100
AcDbEntity
  8
22
  6
Continuous
 62
     4
370
    25
100
AcDbLine
 10
86.20000399649143
 20
91.70000322461128
 30
0.0
 11
144.2000048607588
 21
91.70000322461128
 31
0.0
  0
LINE
  5
43A
330
1F
100
AcDbEntity
  8
22
  6
Continuous
 62
     4
370
    25
100
AcDbLine
 10
144.2000048607588
 20
91.70000322461128
 30
0.0
 11
144.2000048607588
 21
95.70000328421592
 31
0.0
  0
LINE
  5
43B
330
1F
100
AcDbEntity
  8
22
  6
Continuous
 62
     4
370
    25
100
AcDbLine
 10
144.2000048607588
 20
95.70000328421592
 30
0.0
 11
139.200004786253
 21
95.70000328421592
 31
0.0
  0
LINE
  5
43C
330
1F
100
AcDbEntity
  8
22
  6
Continuous
 62
     4
370
    25
100
AcDbLine
 10
68.20000372827053
 20
27.20000226348639
 30
0.0
 11
67.20000371336937
 21
27.20000226348639
 31
0.0
  0
LINE
  5
43D
330
1F
100
AcDbEntity
  8
22
  6
Continuous
 62
     4
370
    25
100
AcDbLine
 10
67.20000371336937
 20
27.20000226348639
 30
0.0
 11
67.20000371336937
 21
24.70000222623348
 31
0.0
  0
LINE
  5
43E
330
1F
100
AcDbEntity
  8
22
  6
Continuous
 62
     4
370
    25
100
AcDbLine
 10
67.20000371336937
 20
24.70000222623348
 30
0.0
 11
81.20000392198563
 21
24.70000222623348
 31
0.0
  0
LINE
  5
43F
330
1F
100
AcDbEntity
  8
22
  6
Continuous
 62
     4
370
    25
100
AcDbLine
 10
81.20000392198563
 20
24.70000222623348
 30
0.0
 11
81.20000392198563
 21
27.20000226348639
 31
0.0
  0
LINE
  5
440
330
1F
100
AcDbEntity
  8
22
  6
Continuous
 62
     4
370
    25
100
AcDbLine
 10
81.20000392198563
 20
27.20000226348639
 30
0.0
 11
80.20000390708447
 21
27.20000226348639
 31
0.0
  0
LINE
  5
441
330
1F
100
AcDbEntity
  8
22
  6
Continuous
 62
     4
370
    25
100
AcDbLine
 10
79.2000038921833
 20
17.20000211447477
 30
0.0
 11
93.20000410079956
 21
17.20000211447477
 31
0.0
  0
LINE
  5
442
330
1F
100
AcDbEntity
  8
22
  6
Continuous
 62
     4
370
    25
100
AcDbLine
 10
98.70000418275595
 20
17.20000211447477
 30
0.0
 11
127.7000046148896
 21
17.20000211447477
 31
0.0
  0
LINE
  5
443
330
1F
100
AcDbEntity
  8
22
  6
Continuous
 62
     4
370
    25
100
AcDbLine
 10
82.20000393688679
 20
-59.29999902546406
 30
0.0
 11
130.2000046521425
 21
-59.29999902546406
 31
0.0
  0
LINE
  5
444
330
1F
100
AcDbEntity
  8
22
  6
Continuous
 62
     4
370
    25
100
AcDbLine
 10
-182.0
 20
-128.5
 30
0.0
 11
-178.9999999552965
 21
-128.5
 31
0.0
  0
LINE
  5
445
330
1F
100
AcDbEntity
  8
22
  6
Continuous
 62
     4
370
    25
100
AcDbLine
 10
-178.9999999552965
 20
-128.5
 30
0.0
 11
-178.9999999552965
 21
-125.4999999552965
 31
0.0
  0
LINE
  5
446
330
1F
100
AcDbEntity
  8
22
  6
Continuous
 62
     4
370
    25
100
AcDbLine
 10
-178.9999999552965
 20
-125.4999999552965
 30
0.0
 11
-182.0
 21
-125.4999999552965
 31
0.0
  0
LINE
  5
447
330
1F
100
AcDbEntity
  8
22
  6
Continuous
 62
     4
370
    25
100
AcDbLine
 10
-182.0
 20
-125.4999999552965
 30
0.0
 11
-182.0
 21
-128.5
 31
0.0
  0
LINE
  5
448
330
1F
100
AcDbEntity
  8
22
  6
Continuous
 62
     4
370
    25
100
AcDbLine
 10
-182.0
 20
-128.5
 30
0.0
 11
-178.9999999552965
 21
-128.5
 31
0.0
  0
LINE
  5
449
330
1F
100
AcDbEntity
  8
22
  6
Continuous
 62
     4
370
    25
100
AcDbLine
 10
-178.9999999552965
 20
-128.5
 30
0.0
 11
-178.9999999552965
 21
-125.4999999552965
 31
0.0
  0
LINE
  5
44A
330
1F
100
AcDbEntity
  8
22
  6
Continuous
 62
     4
370
    25
100
AcDbLine
 10
-178.9999999552965
 20
-125.4999999552965
 30
0.0
 11
-182.0
 21
-125.4999999552965
 31
0.0
  0
LINE
  5
44B
330
1F
100
AcDbEntity
  8
22
  6
Continuous
 62
     4
370
    25
100
AcDbLine
 10
-182.0
 20
-125.4999999552965
 30
0.0
 11
-182.0
 21
-128.5
 31
0.0
  0
LINE
  5
44C
330
1F
100
AcDbEntity
  8
22
  6
Continuous
 62
     4
370
    25
100
AcDbLine
 10
-182.0
 20
-128.5
 30
0.0
 11
-178.9999999552965
 21
-128.5
 31
0.0
  0
LINE
  5
44D
330
1F
100
AcDbEntity
  8
22
  6
Continuous
 62
     4
370
    25
100
AcDbLine
 10
-178.9999999552965
 20
-128.5
 30
0.0
 11
-178.9999999552965
 21
-125.4999999552965
 31
0.0
  0
LINE
  5
44E
330
1F
100
AcDbEntity
  8
22
  6
Continuous
 62
     4
370
    25
100
AcDbLine
 10
-178.9999999552965
 20
-125.4999999552965
 30
0.0
 11
-182.0
 21
-125.4999999552965
 31
0.0
  0
LINE
  5
44F
330
1F
100
AcDbEntity
  8
22
  6
Continuous
 62
     4
370
    25
100
AcDbLine
 10
-182.0
 20
-125.4999999552965
 30
0.0
 11
-182.0
 21
-128.5
 31
0.0
  0
ARC
  5
450
330
1F
100
AcDbEntity
  8
22
  6
Continuous
 62
     4
370
    25
100
AcDbCircle
 10
59.20000359416008
 20
102.7000033885241
 30
0.0
 40
5.000000074505806
100
AcDbArc
 50
270.0000000000006
 51
0.0000000000008142
  0
LINE
  5
451
330
1F
100
AcDbEntity
  8
22
  6
Continuous
 62
     4
370
    25
100
AcDbLine
 10
59.20000522813459
 20
97.70000331401852
 30
0.0
 11
59.20000359416008
 21
-57.29999899566172
 31
0.0
  0
ARC
  5
452
330
1F
100
AcDbEntity
  8
22
  6
Continuous
 62
     4
370
    25
100
AcDbCircle
 10
59.20000196018557
 20
-62.29999907016727
 30
0.0
 40
5.000000074505806
100
AcDbArc
 50
0.0
 51
90.0000000000002
  0
LINE
  5
453
330
1F
100
AcDbEntity
  8
22
  6
Continuous
 62
     4
370
    25
100
AcDbLine
 10
64.20000203469138
 20
-62.29999907016727
 30
0.0
 11
164.200005158782
 21
-62.29999907016754
 31
0.0
  0
ARC
  5
454
330
1F
100
AcDbEntity
  8
22
  6
Continuous
 62
     4
370
    25
100
AcDbCircle
 10
169.2000052332867
 20
-62.30000233811656
 30
0.0
 40
5.000000074505806
100
AcDbArc
 50
90.0000000000002
 51
180.0000000000004
  0
LINE
  5
455
330
1F
100
AcDbEntity
  8
22
  6
Continuous
 62
     4
370
    25
100
AcDbLine
 10
169.2000068672612
 20
-57.30000226361102
 30
0.0
 11
169.2000052332878
 21
97.70000331401825
 31
0.0
  0
ARC
  5
456
330
1F
100
AcDbEntity
  8
22
  6
Continuous
 62
     4
370
    25
100
AcDbCircle
 10
169.2000101352113
 20
102.7000033885217
 30
0.0
 40
5.000000074505806
100
AcDbArc
 50
180.0000000000004
 51
270.0000000000006
  0
LINE
  5
457
330
1F
100
AcDbEntity
  8
22
  6
Continuous
 62
     4
370
    25
100
AcDbLine
 10
164.2000100607066
 20
102.7000066564707
 30
0.0
 11
64.20000366866589
 21
102.7000033885241
 31
0.0
  0
LINE
  5
458
330
1F
100
AcDbEntity
  8
22
  6
Continuous
 62
     4
370
    25
100
AcDbLine
 10
-108.9874984845519
 20
41.28750610351562
 30
0.0
 11
-108.6874984800815
 21
42.74750616341829
 31
0.0
  0
LINE
  5
459
330
1F
100
AcDbEntity
  8
22
  6
Continuous
 62
     4
370
    25
100
AcDbLine
 10
-108.9874984845519
 20
41.28750610351562
 30
0.0
 11
-107.9874984696507
 21
42.3875061199069
 31
0.0
  0
LINE
  5
45A
330
1F
100
AcDbEntity
  8
22
  6
Continuous
 62
     4
370
    25
100
AcDbLine
 10
-108.9874984845519
 20
41.28750610351562
 30
0.0
 11
-85.51869778083562
 21
88.22500680293888
 31
0.0
  0
LINE
  5
45B
330
1F
100
AcDbEntity
  8
22
  6
Continuous
 62
     4
370
    25
100
AcDbLine
 10
-85.51869778083562
 20
88.22500680293888
 30
0.0
 11
-39.51869709538222
 21
88.22500680293888
 31
0.0
  0
LINE
  5
45C
330
1F
100
AcDbEntity
  8
22
  6
Continuous
 62
     4
370
    25
100
AcDbLine
 10
-101.5187484845519
 20
47.53750610351562
 30
0.0
 11
-101.2187484800815
 21
48.99750616341829
 31
0.0
  0
LINE
  5
45D
330
1F
100
AcDbEntity
  8
22
  6
Continuous
 62
     4
370
    25
100
AcDbLine
 10
-101.5187484845519
 20
47.53750610351562
 30
0.0
 11
-100.5187484696507
 21
48.6375061199069
 31
0.0
  0
LINE
  5
45E
330
1F
100
AcDbEntity
  8
22
  6
Continuous
 62
     4
370
    25
100
AcDbLine
 10
-101.5187484845519
 20
47.53750610351562
 30
0.0
 11
-83.36254856800736
 21
83.85000664461404
 31
0.0
  0
LINE
  5
45F
330
1F
100
AcDbEntity
  8
22
  6
Continuous
 62
     4
370
    25
100
AcDbLine
 10
-83.36254856800736
 20
83.85000664461404
 30
0.0
 11
-39.36254791235627
 21
83.85000664461404
 31
0.0
  0
LINE
  5
460
330
1F
100
AcDbEntity
  8
22
  6
Continuous
 62
     4
370
    25
100
AcDbLine
 10
-91.056246958673
 20
59.60000610351562
 30
0.0
 11
-90.75624695420265
 21
61.06000616341829
 31
0.0
  0
LINE
  5
461
330
1F
100
AcDbEntity
  8
22
  6
Continuous
 62
     4
370
    25
100
AcDbLine
 10
-91.056246958673
 20
59.60000610351562
 30
0.0
 11
-90.05624694377184
 21
60.7000061199069
 31
0.0
  0
LINE
  5
462
330
1F
100
AcDbEntity
  8
22
  6
Continuous
 62
     4
370
    25
100
AcDbLine
 10
-91.056246958673
 20
59.60000610351562
 30
0.0
 11
-81.33749681385234
 21
79.03750639315695
 31
0.0
  0
LINE
  5
463
330
1F
100
AcDbEntity
  8
22
  6
Continuous
 62
     4
370
    25
100
AcDbLine
 10
-81.33749681385234
 20
79.03750639315695
 30
0.0
 11
-39.33749618800358
 21
79.03750639315695
 31
0.0
  0
LINE
  5
464
330
1F
100
AcDbEntity
  8
22
  6
Continuous
 62
     4
370
    25
100
AcDbLine
 10
-113.6124984845519
 20
61.03750610351562
 30
0.0
 11
-113.6124984845519
 21
73.03750628232956
 31
0.0
  0
LINE
  5
465
330
1F
100
AcDbEntity
  8
22
  6
Continuous
 62
     4
370
    25
100
AcDbLine
 10
-113.6124984845519
 20
72.0375062674284
 30
0.0
 11
-115.1124985069036
 21
72.43750627338886
 31
0.0
  0
LINE
  5
466
330
1F
100
AcDbEntity
  8
22
  6
Continuous
 62
     4
370
    25
100
AcDbLine
 10
-115.1124985069036
 20
71.63750626146793
 30
0.0
 11
-113.6124984845519
 21
72.0375062674284
 31
0.0
  0
LINE
  5
467
330
1F
100
AcDbEntity
  8
22
  6
Continuous
 62
     4
370
    25
100
AcDbLine
 10
-120.61249858886
 20
72.0375062674284
 30
0.0
 11
-113.6124984845519
 21
72.0375062674284
 31
0.0
  0
LINE
  5
468
330
1F
100
AcDbEntity
  8
22
  6
Continuous
 62
     4
370
    25
100
AcDbLine
 10
-113.6124984845519
 20
72.0375062674284
 30
0.0
 11
-108.987498415634
 21
72.0375062674284
 31
0.0
  0
LINE
  5
469
330
1F
100
AcDbEntity
  8
22
  6
Continuous
 62
     4
370
    25
100
AcDbLine
 10
-108.987498415634
 20
72.0375062674284
 30
0.0
 11
-107.4874983932823
 21
72.43750627338886
 31
0.0
  0
LINE
  5
46A
330
1F
100
AcDbEntity
  8
22
  6
Continuous
 62
     4
370
    25
100
AcDbLine
 10
-107.4874983932823
 20
71.63750626146793
 30
0.0
 11
-108.987498415634
 21
72.0375062674284
 31
0.0
  0
LINE
  5
46B
330
1F
100
AcDbEntity
  8
22
  6
Continuous
 62
     4
370
    25
100
AcDbLine
 10
-108.987498415634
 20
72.0375062674284
 30
0.0
 11
-105.9874983709305
 21
72.0375062674284
 31
0.0
  0
LINE
  5
46C
330
1F
100
AcDbEntity
  8
22
  6
Continuous
 62
     4
370
    25
100
AcDbLine
 10
-108.987498415634
 20
65.35000288486481
 30
0.0
 11
-108.987498415634
 21
73.03750628232956
 31
0.0
  0
LINE
  5
46D
330
1F
100
AcDbEntity
  8
22
  6
Continuous
 62
     4
370
    25
100
AcDbLine
 10
-107.6124984845519
 20
64.85000610351562
 30
0.0
 11
-107.3124984800815
 21
66.3100061634183
 31
0.0
  0
LINE
  5
46E
330
1F
100
AcDbEntity
  8
22
  6
Continuous
 62
     4
370
    25
100
AcDbLine
 10
-107.6124984845519
 20
64.85000610351562
 30
0.0
 11
-106.6124984696507
 21
65.9500061199069
 31
0.0
  0
LINE
  5
46F
330
1F
100
AcDbEntity
  8
22
  6
Continuous
 62
     4
370
    25
100
AcDbLine
 10
-107.6124984845519
 20
64.85000610351562
 30
0.0
 11
-98.14374834345654
 21
83.78750638570637
 31
0.0
  0
LINE
  5
470
330
1F
100
AcDbEntity
  8
22
  6
Continuous
 62
     4
370
    25
100
AcDbLine
 10
-110.1437485222705
 20
83.78750638570637
 30
0.0
 11
-98.14374834345654
 21
83.78750638570637
 31
0.0
  0
LINE
  5
471
330
1F
100
AcDbEntity
  8
22
  6
Continuous
 62
     4
370
    25
100
AcDbLine
 10
-113.6124984845519
 20
-53.837501257658
 30
0.0
 11
-112.1124984622001
 21
-53.43750125169754
 31
0.0
  0
LINE
  5
472
330
1F
100
AcDbEntity
  8
22
  6
Continuous
 62
     4
370
    25
100
AcDbLine
 10
-112.1124984622001
 20
-54.23750126361847
 30
0.0
 11
-113.6124984845519
 21
-53.837501257658
 31
0.0
  0
LINE
  5
473
330
1F
100
AcDbEntity
  8
22
  6
Continuous
 62
     4
370
    25
100
AcDbLine
 10
-113.6124984845519
 20
-53.837501257658
 30
0.0
 11
-71.98749786429107
 21
-53.837501257658
 31
0.0
  0
LINE
  5
474
330
1F
100
AcDbEntity
  8
22
  6
Continuous
 62
     4
370
    25
100
AcDbLine
 10
-71.98749786429107
 20
-53.837501257658
 30
0.0
 11
-73.48749788664281
 21
-53.43750125169754
 31
0.0
  0
LINE
  5
475
330
1F
100
AcDbEntity
  8
22
  6
Continuous
 62
     4
370
    25
100
AcDbLine
 10
-73.48749788664281
 20
-54.23750126361847
 30
0.0
 11
-71.98749786429107
 21
-53.837501257658
 31
0.0
  0
LINE
  5
476
330
1F
100
AcDbEntity
  8
22
  6
Continuous
 62
     4
370
    25
100
AcDbLine
 10
-105.7875016778707
 20
-52.83750123530626
 30
0.0
 11
-108.2875017151236
 21
-47.83750116080046
 31
0.0
  0
LINE
  5
477
330
1F
100
AcDbEntity
  8
22
  6
Continuous
 62
     4
370
    25
100
AcDbLine
 10
-130.2875020429492
 20
-47.83750116080046
 30
0.0
 11
-108.2875017151236
 21
-47.83750116080046
 31
0.0
  0
LINE
  5
478
330
1F
100
AcDbEntity
  8
22
  6
Continuous
 62
     4
370
    25
100
AcDbLine
 10
-29.61250611394644
 20
59.60000610351562
 30
0.0
 11
-34.61250618845225
 21
59.60000610351562
 31
0.0
  0
LINE
  5
479
330
1F
100
AcDbEntity
  8
22
  6
Continuous
 62
     4
370
    25
100
AcDbLine
 10
-33.61250617355109
 20
59.60000610351562
 30
0.0
 11
-34.01250617951155
 21
58.10000608116388
 31
0.0
  0
LINE
  5
47A
330
1F
100
AcDbEntity
  8
22
  6
Continuous
 62
     4
370
    25
100
AcDbLine
 10
-33.21250616759062
 20
58.10000608116388
 30
0.0
 11
-33.61250617355109
 21
59.60000610351562
 31
0.0
  0
LINE
  5
47B
330
1F
100
AcDbEntity
  8
22
  6
Continuous
 62
     4
370
    25
100
AcDbLine
 10
-33.61250617355109
 20
59.60000610351562
 30
0.0
 11
-33.61250617355109
 21
47.10000591725111
 31
0.0
  0
LINE
  5
47C
330
1F
100
AcDbEntity
  8
22
  6
Continuous
 62
     4
370
    25
100
AcDbLine
 10
-33.61250617355109
 20
47.10000591725111
 30
0.0
 11
-34.01250617951155
 21
48.60000593960285
 31
0.0
  0
LINE
  5
47D
330
1F
100
AcDbEntity
  8
22
  6
Continuous
 62
     4
370
    25
100
AcDbLine
 10
-33.21250616759062
 20
48.60000593960285
 30
0.0
 11
-33.61250617355109
 21
47.10000591725111
 31
0.0
  0
LINE
  5
47E
330
1F
100
AcDbEntity
  8
22
  6
Continuous
 62
     4
370
    25
100
AcDbLine
 10
-34.61250618845225
 20
47.10000591725111
 30
0.0
 11
-29.61250611394644
 21
47.10000591725111
 31
0.0
  0
LINE
  5
47F
330
1F
100
AcDbEntity
  8
22
  6
Continuous
 62
     4
370
    25
100
AcDbLine
 10
-33.61250617355109
 20
47.10000610351562
 30
0.0
 11
-34.01250617951155
 21
45.60000608116388
 31
0.0
  0
LINE
  5
480
330
1F
100
AcDbEntity
  8
22
  6
Continuous
 62
     4
370
    25
100
AcDbLine
 10
-33.21250616759062
 20
45.60000608116388
 30
0.0
 11
-33.61250617355109
 21
47.10000610351562
 31
0.0
  0
LINE
  5
481
330
1F
100
AcDbEntity
  8
22
  6
Continuous
 62
     4
370
    25
100
AcDbLine
 10
-33.61250617355109
 20
47.10000610351562
 30
0.0
 11
-33.61250617355109
 21
34.60000591725111
 31
0.0
  0
LINE
  5
482
330
1F
100
AcDbEntity
  8
22
  6
Continuous
 62
     4
370
    25
100
AcDbLine
 10
-33.61250617355109
 20
34.60000591725111
 30
0.0
 11
-34.01250617951155
 21
36.10000593960285
 31
0.0
  0
LINE
  5
483
330
1F
100
AcDbEntity
  8
22
  6
Continuous
 62
     4
370
    25
100
AcDbLine
 10
-33.21250616759062
 20
36.10000593960285
 30
0.0
 11
-33.61250617355109
 21
34.60000591725111
 31
0.0
  0
LINE
  5
484
330
1F
100
AcDbEntity
  8
22
  6
Continuous
 62
     4
370
    25
100
AcDbLine
 10
-34.61250618845225
 20
34.60000591725111
 30
0.0
 11
-29.61250611394644
 21
34.60000591725111
 31
0.0
  0
LINE
  5
485
330
1F
100
AcDbEntity
  8
22
  6
Continuous
 62
     4
370
    25
100
AcDbLine
 10
-29.61250611394644
 20
60.85000610351562
 30
0.0
 11
-41.61250629276038
 21
60.85000610351562
 31
0.0
  0
LINE
  5
486
330
1F
100
AcDbEntity
  8
22
  6
Continuous
 62
     4
370
    25
100
AcDbLine
 10
-40.61250627785922
 20
60.85000610351562
 30
0.0
 11
-41.01250628381968
 21
62.35000612586737
 31
0.0
  0
LINE
  5
487
330
1F
100
AcDbEntity
  8
22
  6
Continuous
 62
     4
370
    25
100
AcDbLine
 10
-40.21250627189875
 20
62.35000612586737
 30
0.0
 11
-40.61250627785922
 21
60.85000610351562
 31
0.0
  0
LINE
  5
488
330
1F
100
AcDbEntity
  8
22
  6
Continuous
 62
     4
370
    25
100
AcDbLine
 10
-40.61250627785922
 20
60.85000610351562
 30
0.0
 11
-40.61250627785922
 21
67.85000620782375
 31
0.0
  0
LINE
  5
489
330
1F
100
AcDbEntity
  8
22
  6
Continuous
 62
     4
370
    25
100
AcDbLine
 10
-40.61250627785922
 20
60.85000610351562
 30
0.0
 11
-40.61250627785922
 21
59.60000608488917
 31
0.0
  0
LINE
  5
48A
330
1F
100
AcDbEntity
  8
22
  6
Continuous
 62
     4
370
    25
100
AcDbLine
 10
-41.61250629276038
 20
59.60000608488917
 30
0.0
 11
-29.61250611394644
 21
59.60000608488917
 31
0.0
  0
LINE
  5
48B
330
1F
100
AcDbEntity
  8
22
  6
Continuous
 62
     4
370
    25
100
AcDbLine
 10
-41.01250628381968
 20
58.10000608116388
 30
0.0
 11
-40.61250627785922
 21
59.60000610351562
 31
0.0
  0
LINE
  5
48C
330
1F
100
AcDbEntity
  8
22
  6
Continuous
 62
     4
370
    25
100
AcDbLine
 10
-40.21250627189875
 20
58.10000608116388
 30
0.0
 11
-40.61250627785922
 21
59.60000610351562
 31
0.0
  0
LINE
  5
48D
330
1F
100
AcDbEntity
  8
22
  6
Continuous
 62
     4
370
    25
100
AcDbLine
 10
-40.61250627785922
 20
-27.89999520033598
 30
0.0
 11
-40.61250627785922
 21
59.60000610351562
 31
0.0
  0
LINE
  5
48E
330
1F
100
AcDbEntity
  8
22
  6
Continuous
 62
     4
370
    25
100
AcDbLine
 10
-40.61250627785922
 20
-27.89999520033598
 30
0.0
 11
-41.01250628381968
 21
-26.39999517798424
 31
0.0
  0
LINE
  5
48F
330
1F
100
AcDbEntity
  8
22
  6
Continuous
 62
     4
370
    25
100
AcDbLine
 10
-40.61250627785922
 20
-27.89999520033598
 30
0.0
 11
-40.21250627189875
 21
-26.39999517798424
 31
0.0
  0
LINE
  5
490
330
1F
100
AcDbEntity
  8
22
  6
Continuous
 62
     4
370
    25
100
AcDbLine
 10
-41.61250629276038
 20
-27.89999520033598
 30
0.0
 11
-29.61250611394644
 21
-27.89999520033598
 31
0.0
  0
LINE
  5
491
330
1F
100
AcDbEntity
  8
22
  6
Continuous
 62
     4
370
    25
100
AcDbLine
 10
-40.61250627785922
 20
-29.15000154450536
 30
0.0
 11
-40.61250627785922
 21
-27.90000152587891
 31
0.0
  0
LINE
  5
492
330
1F
100
AcDbEntity
  8
22
  6
Continuous
 62
     4
370
    25
100
AcDbLine
 10
-41.01250628381968
 20
-30.6500015668571
 30
0.0
 11
-40.61250627785922
 21
-29.15000154450536
 31
0.0
  0
LINE
  5
493
330
1F
100
AcDbEntity
  8
22
  6
Continuous
 62
     4
370
    25
100
AcDbLine
 10
-40.21250627189875
 20
-30.6500015668571
 30
0.0
 11
-40.61250627785922
 21
-29.15000154450536
 31
0.0
  0
LINE
  5
494
330
1F
100
AcDbEntity
  8
22
  6
Continuous
 62
     4
370
    25
100
AcDbLine
 10
-40.61250627785922
 20
-36.15000164881349
 30
0.0
 11
-40.61250627785922
 21
-29.15000154450536
 31
0.0
  0
LINE
  5
495
330
1F
100
AcDbEntity
  8
22
  6
Continuous
 62
     4
370
    25
100
AcDbLine
 10
-41.61250629276038
 20
-29.15000154450536
 30
0.0
 11
-29.61250611394644
 21
-29.15000154450536
 31
0.0
  0
LINE
  5
496
330
1F
100
AcDbEntity
  8
22
  6
Continuous
 62
     4
370
    25
100
AcDbLine
 10
-48.61250639706851
 20
60.85000610351562
 30
0.0
 11
-29.61250611394644
 21
60.85000610351562
 31
0.0
  0
LINE
  5
497
330
1F
100
AcDbEntity
  8
22
  6
Continuous
 62
     4
370
    25
100
AcDbLine
 10
-48.01250638812781
 20
59.35000608116388
 30
0.0
 11
-47.61250638216735
 21
60.85000610351562
 31
0.0
  0
LINE
  5
498
330
1F
100
AcDbEntity
  8
22
  6
Continuous
 62
     4
370
    25
100
AcDbLine
 10
-47.21250637620688
 20
59.35000608116388
 30
0.0
 11
-47.61250638216735
 21
60.85000610351562
 31
0.0
  0
LINE
  5
499
330
1F
100
AcDbEntity
  8
22
  6
Continuous
 62
     4
370
    25
100
AcDbLine
 10
-47.61250638216735
 20
-29.14999523758888
 30
0.0
 11
-47.61250638216735
 21
60.85000610351562
 31
0.0
  0
LINE
  5
49A
330
1F
100
AcDbEntity
  8
22
  6
Continuous
 62
     4
370
    25
100
AcDbLine
 10
-47.61250638216735
 20
-29.14999523758888
 30
0.0
 11
-48.01250638812781
 21
-27.64999521523714
 31
0.0
  0
LINE
  5
49B
330
1F
100
AcDbEntity
  8
22
  6
Continuous
 62
     4
370
    25
100
AcDbLine
 10
-47.61250638216735
 20
-29.14999523758888
 30
0.0
 11
-47.21250637620688
 21
-27.64999521523714
 31
0.0
  0
LINE
  5
49C
330
1F
100
AcDbEntity
  8
22
  6
Continuous
 62
     4
370
    25
100
AcDbLine
 10
-48.61250639706851
 20
-29.14999523758888
 30
0.0
 11
-29.61250611394644
 21
-29.14999523758888
 31
0.0
  0
LINE
  5
49D
330
1F
100
AcDbEntity
  8
22
  6
Continuous
 62
     4
370
    25
100
AcDbLine
 10
-19.86250611394644
 20
60.85000610351562
 30
0.0
 11
-1.062505833804614
 21
60.85000610351562
 31
0.0
  0
LINE
  5
49E
330
1F
100
AcDbEntity
  8
22
  6
Continuous
 62
     4
370
    25
100
AcDbLine
 10
-2.46250585466624
 20
59.35000608116388
 30
0.0
 11
-2.062505848705776
 21
60.85000610351562
 31
0.0
  0
LINE
  5
49F
330
1F
100
AcDbEntity
  8
22
  6
Continuous
 62
     4
370
    25
100
AcDbLine
 10
-1.662505842745311
 20
59.35000608116388
 30
0.0
 11
-2.062505848705776
 21
60.85000610351562
 31
0.0
  0
LINE
  5
4A0
330
1F
100
AcDbEntity
  8
22
  6
Continuous
 62
     4
370
    25
100
AcDbLine
 10
-2.062505848705776
 20
53.35000599175692
 30
0.0
 11
-2.062505848705776
 21
60.85000610351562
 31
0.0
  0
LINE
  5
4A1
330
1F
100
AcDbEntity
  8
22
  6
Continuous
 62
     4
370
    25
100
AcDbLine
 10
-2.062505848705776
 20
53.35000599175692
 30
0.0
 11
-2.46250585466624
 21
54.85000601410866
 31
0.0
  0
LINE
  5
4A2
330
1F
100
AcDbEntity
  8
22
  6
Continuous
 62
     4
370
    25
100
AcDbLine
 10
-2.062505848705776
 20
53.35000599175692
 30
0.0
 11
-1.662505842745311
 21
54.85000601410866
 31
0.0
  0
LINE
  5
4A3
330
1F
100
AcDbEntity
  8
22
  6
Continuous
 62
     4
370
    25
100
AcDbLine
 10
-19.86250611394644
 20
53.35000599175692
 30
0.0
 11
-1.062505833804614
 21
53.35000599175692
 31
0.0
  0
LINE
  5
4A4
330
1F
100
AcDbEntity
  8
22
  6
Continuous
 62
     4
370
    25
100
AcDbLine
 10
-2.46250585466624
 20
51.85000608116388
 30
0.0
 11
-2.062505848705776
 21
53.35000610351562
 31
0.0
  0
LINE
  5
4A5
330
1F
100
AcDbEntity
  8
22
  6
Continuous
 62
     4
370
    25
100
AcDbLine
 10
-1.662505842745311
 20
51.85000608116388
 30
0.0
 11
-2.062505848705776
 21
53.35000610351562
 31
0.0
  0
LINE
  5
4A6
330
1F
100
AcDbEntity
  8
22
  6
Continuous
 62
     4
370
    25
100
AcDbLine
 10
-2.062505848705776
 20
-21.64999501407146
 30
0.0
 11
-2.062505848705776
 21
53.35000610351562
 31
0.0
  0
LINE
  5
4A7
330
1F
100
AcDbEntity
  8
22
  6
Continuous
 62
     4
370
    25
100
AcDbLine
 10
-2.062505848705776
 20
-21.64999501407146
 30
0.0
 11
-2.46250585466624
 21
-20.14999499171972
 31
0.0
  0
LINE
  5
4A8
330
1F
100
AcDbEntity
  8
22
  6
Continuous
 62
     4
370
    25
100
AcDbLine
 10
-2.062505848705776
 20
-21.64999501407146
 30
0.0
 11
-1.662505842745311
 21
-20.14999499171972
 31
0.0
  0
LINE
  5
4A9
330
1F
100
AcDbEntity
  8
22
  6
Continuous
 62
     4
370
    25
100
AcDbLine
 10
-19.86250611394644
 20
-21.64999501407146
 30
0.0
 11
-1.062505833804614
 21
-21.64999501407146
 31
0.0
  0
LINE
  5
4AA
330
1F
100
AcDbEntity
  8
22
  6
Continuous
 62
     4
370
    25
100
AcDbLine
 10
-2.46250585466624
 20
-23.15000154823065
 30
0.0
 11
-2.062505848705776
 21
-21.65000152587891
 31
0.0
  0
LINE
  5
4AB
330
1F
100
AcDbEntity
  8
22
  6
Continuous
 62
     4
370
    25
100
AcDbLine
 10
-1.662505842745311
 20
-23.15000154823065
 30
0.0
 11
-2.062505848705776
 21
-21.65000152587891
 31
0.0
  0
LINE
  5
4AC
330
1F
100
AcDbEntity
  8
22
  6
Continuous
 62
     4
370
    25
100
AcDbLine
 10
-2.062505848705776
 20
-29.15000163763761
 30
0.0
 11
-2.062505848705776
 21
-21.65000152587891
 31
0.0
  0
LINE
  5
4AD
330
1F
100
AcDbEntity
  8
22
  6
Continuous
 62
     4
370
    25
100
AcDbLine
 10
-2.062505848705776
 20
-29.15000163763761
 30
0.0
 11
-2.46250585466624
 21
-27.65000161528587
 31
0.0
  0
LINE
  5
4AE
330
1F
100
AcDbEntity
  8
22
  6
Continuous
 62
     4
370
    25
100
AcDbLine
 10
-2.062505848705776
 20
-29.15000163763761
 30
0.0
 11
-1.662505842745311
 21
-27.65000161528587
 31
0.0
  0
LINE
  5
4AF
330
1F
100
AcDbEntity
  8
22
  6
Continuous
 62
     4
370
    25
100
AcDbLine
 10
-19.86250611394644
 20
-29.15000163763761
 30
0.0
 11
-1.062505833804614
 21
-29.15000163763761
 31
0.0
  0
LINE
  5
4B0
330
1F
100
AcDbEntity
  8
22
  6
Continuous
 62
     4
370
    25
100
AcDbLine
 10
-8.237506113946445
 20
68.10000610351562
 30
0.0
 11
-7.937506109476097
 21
69.5600061634183
 31
0.0
  0
LINE
  5
4B1
330
1F
100
AcDbEntity
  8
22
  6
Continuous
 62
     4
370
    25
100
AcDbLine
 10
-8.237506113946445
 20
68.10000610351562
 30
0.0
 11
-7.237506099045284
 21
69.2000061199069
 31
0.0
  0
LINE
  5
4B2
330
1F
100
AcDbEntity
  8
22
  6
Continuous
 62
     4
370
    25
100
AcDbLine
 10
-8.237506113946445
 20
68.10000610351562
 30
0.0
 11
-1.862506018951542
 21
80.85000629350543
 31
0.0
  0
LINE
  5
4B3
330
1F
100
AcDbEntity
  8
22
  6
Continuous
 62
     4
370
    25
100
AcDbLine
 10
-17.86250625737012
 20
80.85000629350543
 30
0.0
 11
-1.862506018951542
 21
80.85000629350543
 31
0.0
  0
LINE
  5
4B4
330
1F
100
AcDbEntity
  8
22
  6
Continuous
 62
     4
370
    25
100
AcDbLine
 10
-29.11250611394644
 20
-45.65000176429749
 30
0.0
 11
-29.11250611394644
 21
-29.65000152587891
 31
0.0
  0
LINE
  5
4B5
330
1F
100
AcDbEntity
  8
22
  6
Continuous
 62
     4
370
    25
100
AcDbLine
 10
-29.11250611394644
 20
-44.65000174939632
 30
0.0
 11
-27.6125060915947
 21
-44.25000174343586
 31
0.0
  0
LINE
  5
4B6
330
1F
100
AcDbEntity
  8
22
  6
Continuous
 62
     4
370
    25
100
AcDbLine
 10
-27.6125060915947
 20
-45.05000175535679
 30
0.0
 11
-29.11250611394644
 21
-44.65000174939632
 31
0.0
  0
LINE
  5
4B7
330
1F
100
AcDbEntity
  8
22
  6
Continuous
 62
     4
370
    25
100
AcDbLine
 10
-29.11250611394644
 20
-44.65000174939632
 30
0.0
 11
-21.61250600218774
 21
-44.65000174939632
 31
0.0
  0
LINE
  5
4B8
330
1F
100
AcDbEntity
  8
22
  6
Continuous
 62
     4
370
    25
100
AcDbLine
 10
-21.61250600218774
 20
-44.65000174939632
 30
0.0
 11
-23.11250602453948
 21
-44.25000174343586
 31
0.0
  0
LINE
  5
4B9
330
1F
100
AcDbEntity
  8
22
  6
Continuous
 62
     4
370
    25
100
AcDbLine
 10
-23.11250602453948
 20
-45.05000175535679
 30
0.0
 11
-21.61250600218774
 21
-44.65000174939632
 31
0.0
  0
LINE
  5
4BA
330
1F
100
AcDbEntity
  8
22
  6
Continuous
 62
     4
370
    25
100
AcDbLine
 10
-21.61250600218774
 20
-45.65000176429749
 30
0.0
 11
-21.61250600218774
 21
-31.17499855346978
 31
0.0
  0
LINE
  5
4BB
330
1F
100
AcDbEntity
  8
22
  6
Continuous
 62
     4
370
    25
100
AcDbLine
 10
-29.11250611394644
 20
-52.65000186860561
 30
0.0
 11
-29.11250611394644
 21
-29.65000152587891
 31
0.0
  0
LINE
  5
4BC
330
1F
100
AcDbEntity
  8
22
  6
Continuous
 62
     4
370
    25
100
AcDbLine
 10
-29.11250611394644
 20
-51.65000185370445
 30
0.0
 11
-27.6125060915947
 21
-51.25000184774399
 31
0.0
  0
LINE
  5
4BD
330
1F
100
AcDbEntity
  8
22
  6
Continuous
 62
     4
370
    25
100
AcDbLine
 10
-27.6125060915947
 20
-52.05000185966492
 30
0.0
 11
-29.11250611394644
 21
-51.65000185370445
 31
0.0
  0
LINE
  5
4BE
330
1F
100
AcDbEntity
  8
22
  6
Continuous
 62
     4
370
    25
100
AcDbLine
 10
-29.11250611394644
 20
-51.65000185370445
 30
0.0
 11
-20.86250599101186
 21
-51.65000185370445
 31
0.0
  0
LINE
  5
4BF
330
1F
100
AcDbEntity
  8
22
  6
Continuous
 62
     4
370
    25
100
AcDbLine
 10
-20.86250599101186
 20
-51.65000185370445
 30
0.0
 11
-22.36250601336361
 21
-51.25000184774399
 31
0.0
  0
LINE
  5
4C0
330
1F
100
AcDbEntity
  8
22
  6
Continuous
 62
     4
370
    25
100
AcDbLine
 10
-22.36250601336361
 20
-52.05000185966492
 30
0.0
 11
-20.86250599101186
 21
-51.65000185370445
 31
0.0
  0
LINE
  5
4C1
330
1F
100
AcDbEntity
  8
22
  6
Continuous
 62
     4
370
    25
100
AcDbLine
 10
-20.86250599101186
 20
-52.65000186860561
 30
0.0
 11
-20.86250599101186
 21
-31.17499855346978
 31
0.0
  0
LINE
  5
4C2
330
1F
100
AcDbEntity
  8
22
  6
Continuous
 62
     4
370
    25
100
AcDbLine
 10
-29.11250611394644
 20
61.35000610351563
 30
0.0
 11
-29.11250611394644
 21
72.3500062674284
 31
0.0
  0
LINE
  5
4C3
330
1F
100
AcDbEntity
  8
22
  6
Continuous
 62
     4
370
    25
100
AcDbLine
 10
-29.11250611394644
 20
71.35000625252724
 30
0.0
 11
-30.61250613629819
 21
71.7500062584877
 31
0.0
  0
LINE
  5
4C4
330
1F
100
AcDbEntity
  8
22
  6
Continuous
 62
     4
370
    25
100
AcDbLine
 10
-30.61250613629819
 20
70.95000624656677
 30
0.0
 11
-29.11250611394644
 21
71.35000625252724
 31
0.0
  0
LINE
  5
4C5
330
1F
100
AcDbEntity
  8
22
  6
Continuous
 62
     4
370
    25
100
AcDbLine
 10
-36.11250621825457
 20
71.35000625252724
 30
0.0
 11
-29.11250611394644
 21
71.35000625252724
 31
0.0
  0
LINE
  5
4C6
330
1F
100
AcDbEntity
  8
22
  6
Continuous
 62
     4
370
    25
100
AcDbLine
 10
-29.11250611394644
 20
71.35000625252724
 30
0.0
 11
-26.98750608228148
 21
71.35000625252724
 31
0.0
  0
LINE
  5
4C7
330
1F
100
AcDbEntity
  8
22
  6
Continuous
 62
     4
370
    25
100
AcDbLine
 10
-26.98750608228148
 20
71.35000625252724
 30
0.0
 11
-25.48750605992974
 21
71.7500062584877
 31
0.0
  0
LINE
  5
4C8
330
1F
100
AcDbEntity
  8
22
  6
Continuous
 62
     4
370
    25
100
AcDbLine
 10
-25.48750605992974
 20
70.95000624656677
 30
0.0
 11
-26.98750608228148
 21
71.35000625252724
 31
0.0
  0
LINE
  5
4C9
330
1F
100
AcDbEntity
  8
22
  6
Continuous
 62
     4
370
    25
100
AcDbLine
 10
-26.98750608228148
 20
71.35000625252724
 30
0.0
 11
-23.98750603757799
 21
71.35000625252724
 31
0.0
  0
LINE
  5
4CA
330
1F
100
AcDbEntity
  8
22
  6
Continuous
 62
     4
370
    25
100
AcDbLine
 10
-26.98750608228148
 20
65.35000288486481
 30
0.0
 11
-26.98750608228148
 21
72.3500062674284
 31
0.0
  0
LINE
  5
4CB
330
1F
100
AcDbEntity
  8
22
  6
Continuous
 62
     4
370
    25
100
AcDbLine
 10
-30.91250614076854
 20
-30.45000154525042
 30
0.0
 11
-29.61250612139703
 21
-29.65000153332949
 31
0.0
  0
LINE
  5
4CC
330
1F
100
AcDbEntity
  8
22
  6
Continuous
 62
     4
370
    25
100
AcDbLine
 10
-30.41250613331795
 20
-30.950001552701
 30
0.0
 11
-29.61250612139703
 21
-29.65000153332949
 31
0.0
  0
LINE
  5
4CD
330
1F
100
AcDbEntity
  8
22
  6
Continuous
 62
     4
370
    25
100
AcDbLine
 10
-44.61250634491444
 20
-44.6500017568469
 30
0.0
 11
-29.61250612139703
 21
-29.65000153332949
 31
0.0
  0
LINE
  5
4CE
330
1F
100
AcDbEntity
  8
22
  6
Continuous
 62
     4
370
    25
100
AcDbLine
 10
-64.61250664293766
 20
-44.6500017568469
 30
0.0
 11
-44.61250634491444
 21
-44.6500017568469
 31
0.0
  0
LINE
  5
4CF
330
1F
100
AcDbEntity
  8
22
  6
Continuous
 62
     4
370
    25
100
AcDbLine
 10
-92.7999984845519
 20
-71.8375015258789
 30
0.0
 11
-92.7999984845519
 21
-66.8375014513731
 31
0.0
  0
LINE
  5
4D0
330
1F
100
AcDbEntity
  8
22
  6
Continuous
 62
     4
370
    25
100
AcDbLine
 10
-92.7999984845519
 20
-67.83750146627426
 30
0.0
 11
-94.29999850690365
 21
-67.4375014603138
 31
0.0
  0
LINE
  5
4D1
330
1F
100
AcDbEntity
  8
22
  6
Continuous
 62
     4
370
    25
100
AcDbLine
 10
-94.29999850690365
 20
-68.23750147223473
 30
0.0
 11
-92.7999984845519
 21
-67.83750146627426
 31
0.0
  0
LINE
  5
4D2
330
1F
100
AcDbEntity
  8
22
  6
Continuous
 62
     4
370
    25
100
AcDbLine
 10
-92.7999984845519
 20
-67.83750146627426
 30
0.0
 11
-95.79999852925539
 21
-67.83750146627426
 31
0.0
  0
LINE
  5
4D3
330
1F
100
AcDbEntity
  8
22
  6
Continuous
 62
     4
370
    25
100
AcDbLine
 10
-92.7999984845519
 20
-67.83750146627426
 30
0.0
 11
-89.3124984325841
 21
-67.83750146627426
 31
0.0
  0
LINE
  5
4D4
330
1F
100
AcDbEntity
  8
22
  6
Continuous
 62
     4
370
    25
100
AcDbLine
 10
-89.3124984325841
 20
-67.83750146627426
 30
0.0
 11
-87.81249841023237
 21
-67.4375014603138
 31
0.0
  0
LINE
  5
4D5
330
1F
100
AcDbEntity
  8
22
  6
Continuous
 62
     4
370
    25
100
AcDbLine
 10
-87.81249841023237
 20
-68.23750147223473
 30
0.0
 11
-89.3124984325841
 21
-67.83750146627426
 31
0.0
  0
LINE
  5
4D6
330
1F
100
AcDbEntity
  8
22
  6
Continuous
 62
     4
370
    25
100
AcDbLine
 10
-89.3124984325841
 20
-67.83750146627426
 30
0.0
 11
-77.31249825377017
 21
-67.83750146627426
 31
0.0
  0
LINE
  5
4D7
330
1F
100
AcDbEntity
  8
22
  6
Continuous
 62
     4
370
    25
100
AcDbLine
 10
-89.3124984325841
 20
-66.8375014513731
 30
0.0
 11
-89.3124984325841
 21
-71.8375015258789
 31
0.0
  0
LINE
  5
4D8
330
1F
100
AcDbEntity
  8
22
  6
Continuous
 62
     4
370
    25
100
AcDbLine
 10
-113.6124984845519
 20
-71.8375015258789
 30
0.0
 11
-113.6124984845519
 21
-59.83750134706497
 31
0.0
  0
LINE
  5
4D9
330
1F
100
AcDbEntity
  8
22
  6
Continuous
 62
     4
370
    25
100
AcDbLine
 10
-113.6124984845519
 20
-60.83750136196613
 30
0.0
 11
-115.1124985069036
 21
-60.43750135600567
 31
0.0
  0
LINE
  5
4DA
330
1F
100
AcDbEntity
  8
22
  6
Continuous
 62
     4
370
    25
100
AcDbLine
 10
-115.1124985069036
 20
-61.2375013679266
 30
0.0
 11
-113.6124984845519
 21
-60.83750136196613
 31
0.0
  0
LINE
  5
4DB
330
1F
100
AcDbEntity
  8
22
  6
Continuous
 62
     4
370
    25
100
AcDbLine
 10
-120.61249858886
 20
-60.83750136196613
 30
0.0
 11
-113.6124984845519
 21
-60.83750136196613
 31
0.0
  0
LINE
  5
4DC
330
1F
100
AcDbEntity
  8
22
  6
Continuous
 62
     4
370
    25
100
AcDbLine
 10
-113.6124984845519
 20
-60.83750136196613
 30
0.0
 11
-111.4874984528869
 21
-60.83750136196613
 31
0.0
  0
LINE
  5
4DD
330
1F
100
AcDbEntity
  8
22
  6
Continuous
 62
     4
370
    25
100
AcDbLine
 10
-111.4874984528869
 20
-71.8375015258789
 30
0.0
 11
-111.4874984528869
 21
-59.83750134706497
 31
0.0
  0
LINE
  5
4DE
330
1F
100
AcDbEntity
  8
22
  6
Continuous
 62
     4
370
    25
100
AcDbLine
 10
-111.4874984845519
 20
-60.83750136196613
 30
0.0
 11
-109.9874984622001
 21
-60.43750135600567
 31
0.0
  0
LINE
  5
4DF
330
1F
100
AcDbEntity
  8
22
  6
Continuous
 62
     4
370
    25
100
AcDbLine
 10
-109.9874984622001
 20
-61.2375013679266
 30
0.0
 11
-111.4874984845519
 21
-60.83750136196613
 31
0.0
  0
LINE
  5
4E0
330
1F
100
AcDbEntity
  8
22
  6
Continuous
 62
     4
370
    25
100
AcDbLine
 10
-111.4874984845519
 20
-60.83750136196613
 30
0.0
 11
-74.112497927621
 21
-60.83750136196613
 31
0.0
  0
LINE
  5
4E1
330
1F
100
AcDbEntity
  8
22
  6
Continuous
 62
     4
370
    25
100
AcDbLine
 10
-74.112497927621
 20
-60.83750136196613
 30
0.0
 11
-75.61249794997275
 21
-60.43750135600567
 31
0.0
  0
LINE
  5
4E2
330
1F
100
AcDbEntity
  8
22
  6
Continuous
 62
     4
370
    25
100
AcDbLine
 10
-75.61249794997275
 20
-61.2375013679266
 30
0.0
 11
-74.112497927621
 21
-60.83750136196613
 31
0.0
  0
LINE
  5
4E3
330
1F
100
AcDbEntity
  8
22
  6
Continuous
 62
     4
370
    25
100
AcDbLine
 10
-74.112497927621
 20
-71.8375015258789
 30
0.0
 11
-74.112497927621
 21
-59.83750134706497
 31
0.0
  0
LINE
  5
4E4
330
1F
100
AcDbEntity
  8
22
  6
Continuous
 62
     4
370
    25
100
AcDbLine
 10
-74.1124984845519
 20
-60.83750136196613
 30
0.0
 11
-71.98749845288694
 21
-60.83750136196613
 31
0.0
  0
LINE
  5
4E5
330
1F
100
AcDbEntity
  8
22
  6
Continuous
 62
     4
370
    25
100
AcDbLine
 10
-71.98749845288694
 20
-60.83750136196613
 30
0.0
 11
-70.4874984305352
 21
-60.43750135600567
 31
0.0
  0
LINE
  5
4E6
330
1F
100
AcDbEntity
  8
22
  6
Continuous
 62
     4
370
    25
100
AcDbLine
 10
-70.4874984305352
 20
-61.2375013679266
 30
0.0
 11
-71.98749845288694
 21
-60.83750136196613
 31
0.0
  0
LINE
  5
4E7
330
1F
100
AcDbEntity
  8
22
  6
Continuous
 62
     4
370
    25
100
AcDbLine
 10
-71.98749845288694
 20
-60.83750136196613
 30
0.0
 11
-64.98749834857881
 21
-60.83750136196613
 31
0.0
  0
LINE
  5
4E8
330
1F
100
AcDbEntity
  8
22
  6
Continuous
 62
     4
370
    25
100
AcDbLine
 10
-71.98749845288694
 20
-71.8375015258789
 30
0.0
 11
-71.98749845288694
 21
-59.83750134706497
 31
0.0
  0
LINE
  5
4E9
330
1F
100
AcDbEntity
  8
22
  6
Continuous
 62
     4
370
    25
100
AcDbLine
 10
-113.6124984845519
 20
-71.8375015258789
 30
0.0
 11
-113.6124984845519
 21
-52.83750124275684
 31
0.0
  0
LINE
  5
4EA
330
1F
100
AcDbEntity
  8
22
  6
Continuous
 62
     4
370
    25
100
AcDbLine
 10
-71.98749786429107
 20
-71.8375015258789
 30
0.0
 11
-71.98749786429107
 21
-52.83750124275684
 31
0.0
  0
LINE
  5
4EB
330
1F
100
AcDbEntity
  8
22
  6
Continuous
 62
     4
370
    25
100
AcDbLine
 10
-71.48749847710133
 20
-71.8375015258789
 30
0.0
 11
-71.18749847263098
 21
-70.37750146597624
 31
0.0
  0
LINE
  5
4EC
330
1F
100
AcDbEntity
  8
22
  6
Continuous
 62
     4
370
    25
100
AcDbLine
 10
-71.48749847710133
 20
-71.8375015258789
 30
0.0
 11
-70.48749846220016
 21
-70.73750150948763
 31
0.0
  0
LINE
  5
4ED
330
1F
100
AcDbEntity
  8
22
  6
Continuous
 62
     4
370
    25
100
AcDbLine
 10
-71.48749847710133
 20
-71.8375015258789
 30
0.0
 11
-68.48749843239784
 21
-65.83750143647194
 31
0.0
  0
LINE
  5
4EE
330
1F
100
AcDbEntity
  8
22
  6
Continuous
 62
     4
370
    25
100
AcDbLine
 10
-68.48749843239784
 20
-65.83750143647194
 30
0.0
 11
-52.48749819397927
 21
-65.83750143647194
 31
0.0
  0
LINE
  5
4EF
330
1F
100
AcDbEntity
  8
22
  6
Continuous
 62
     4
370
    25
100
AcDbLine
 10
-96.28750153630972
 20
-71.83750151842833
 30
0.0
 11
-96.58750154078007
 21
-70.37750145852566
 31
0.0
  0
LINE
  5
4F0
330
1F
100
AcDbEntity
  8
22
  6
Continuous
 62
     4
370
    25
100
AcDbLine
 10
-96.28750153630972
 20
-71.83750151842833
 30
0.0
 11
-97.28750155121088
 21
-70.73750150203705
 31
0.0
  0
LINE
  5
4F1
330
1F
100
AcDbEntity
  8
22
  6
Continuous
 62
     4
370
    25
100
AcDbLine
 10
-96.28750153630972
 20
-71.83750151842833
 30
0.0
 11
-101.2875016108155
 21
-61.83750136941671
 31
0.0
  0
LINE
  5
4F2
330
1F
100
AcDbEntity
  8
22
  6
Continuous
 62
     4
370
    25
100
AcDbLine
 10
-102.2875016257167
 20
-59.83750133961439
 30
0.0
 11
-104.7875016629696
 21
-54.83750126510858
 31
0.0
  0
LINE
  5
4F3
330
1F
100
AcDbEntity
  8
19
  6
Continuous
 62
     6
370
    25
100
AcDbLine
 10
-113.6124984845519
 20
60.85000610351562
 30
0.0
 11
-71.9874984845519
 21
60.85000610351562
 31
0.0
  0
LINE
  5
4F4
330
1F
100
AcDbEntity
  8
19
  6
Continuous
 62
     6
370
    25
100
AcDbLine
 10
-71.9874984845519
 20
-29.14999389648437
 30
0.0
 11
-71.9874984845519
 21
60.85000610351562
 31
0.0
  0
LINE
  5
4F5
330
1F
100
AcDbEntity
  8
19
  6
Continuous
 62
     6
370
    25
100
AcDbLine
 10
-113.6124984845519
 20
-29.14999389648437
 30
0.0
 11
-71.9874984845519
 21
-29.14999389648437
 31
0.0
  0
LINE
  5
4F6
330
1F
100
AcDbEntity
  8
19
  6
Continuous
 62
     6
370
    25
100
AcDbLine
 10
-113.6124984845519
 20
-29.14999389648437
 30
0.0
 11
-113.6124984845519
 21
60.85000610351562
 31
0.0
  0
LINE
  5
4F7
330
1F
100
AcDbEntity
  8
19
  6
Continuous
 62
     6
370
    25
100
AcDbLine
 10
-112.4874984845519
 20
60.10000610351562
 30
0.0
 11
-73.1124984845519
 21
60.10000610351562
 31
0.0
  0
LINE
  5
4F8
330
1F
100
AcDbEntity
  8
19
  6
Continuous
 62
     6
370
    25
100
AcDbLine
 10
-73.1124984845519
 20
-29.14999389648437
 30
0.0
 11
-73.1124984845519
 21
60.85000610351562
 31
0.0
  0
LINE
  5
4F9
330
1F
100
AcDbEntity
  8
19
  6
Continuous
 62
     6
370
    25
100
AcDbLine
 10
-112.4874984845519
 20
-28.39999389648437
 30
0.0
 11
-73.1124984845519
 21
-28.39999389648437
 31
0.0
  0
LINE
  5
4FA
330
1F
100
AcDbEntity
  8
19
  6
Continuous
 62
     6
370
    25
100
AcDbLine
 10
-112.4874984845519
 20
-29.14999389648437
 30
0.0
 11
-112.4874984845519
 21
60.85000610351562
 31
0.0
  0
LINE
  5
4FB
330
1F
100
AcDbEntity
  8
19
  6
Continuous
 62
     6
370
    25
100
AcDbLine
 10
-112.4874984845519
 20
53.35000610351562
 30
0.0
 11
-111.4874984845519
 21
53.35000610351562
 31
0.0
  0
LINE
  5
4FC
330
1F
100
AcDbEntity
  8
19
  6
Continuous
 62
     6
370
    25
100
AcDbLine
 10
-112.4874984845519
 20
-21.65000152587891
 30
0.0
 11
-111.4874984845519
 21
-21.65000152587891
 31
0.0
  0
LINE
  5
4FD
330
1F
100
AcDbEntity
  8
19
  6
Continuous
 62
     6
370
    25
100
AcDbLine
 10
-74.1124984845519
 20
53.35000610351562
 30
0.0
 11
-73.1124984845519
 21
53.35000610351562
 31
0.0
  0
LINE
  5
4FE
330
1F
100
AcDbEntity
  8
19
  6
Continuous
 62
     6
370
    25
100
AcDbLine
 10
-74.1124984845519
 20
-21.65000152587891
 30
0.0
 11
-73.1124984845519
 21
-21.65000152587891
 31
0.0
  0
LINE
  5
4FF
330
1F
100
AcDbEntity
  8
19
  6
Continuous
 62
     6
370
    25
100
AcDbLine
 10
-108.9874984845519
 20
53.35000610351562
 30
0.0
 11
-108.0000030621886
 21
53.35000610351562
 31
0.0
  0
LINE
  5
500
330
1F
100
AcDbEntity
  8
19
  6
Continuous
 62
     6
370
    25
100
AcDbLine
 10
-105.5000030621886
 20
53.35000610351562
 30
0.0
 11
-104.5125030502677
 21
53.35000610351562
 31
0.0
  0
LINE
  5
501
330
1F
100
AcDbEntity
  8
19
  6
Continuous
 62
     6
370
    25
100
AcDbLine
 10
-102.0125000104308
 20
53.35000610351562
 30
0.0
 11
-101.0249999985099
 21
53.35000610351562
 31
0.0
  0
LINE
  5
502
330
1F
100
AcDbEntity
  8
19
  6
Continuous
 62
     6
370
    25
100
AcDbLine
 10
-98.524996958673
 20
53.35000610351562
 30
0.0
 11
-97.53749694675207
 21
53.35000610351562
 31
0.0
  0
LINE
  5
503
330
1F
100
AcDbEntity
  8
19
  6
Continuous
 62
     6
370
    25
100
AcDbLine
 10
-95.03750153630972
 20
53.35000610351562
 30
0.0
 11
-94.05000152438879
 21
53.35000610351562
 31
0.0
  0
LINE
  5
504
330
1F
100
AcDbEntity
  8
19
  6
Continuous
 62
     6
370
    25
100
AcDbLine
 10
-91.5499984845519
 20
53.35000610351562
 30
0.0
 11
-90.56249847263098
 21
53.35000610351562
 31
0.0
  0
LINE
  5
505
330
1F
100
AcDbEntity
  8
19
  6
Continuous
 62
     6
370
    25
100
AcDbLine
 10
-88.06250306218863
 20
53.35000610351562
 30
0.0
 11
-87.0750030502677
 21
53.35000610351562
 31
0.0
  0
LINE
  5
506
330
1F
100
AcDbEntity
  8
19
  6
Continuous
 62
     6
370
    25
100
AcDbLine
 10
-84.57500001043081
 20
53.35000610351562
 30
0.0
 11
-83.58749999850988
 21
53.35000610351562
 31
0.0
  0
LINE
  5
507
330
1F
100
AcDbEntity
  8
19
  6
Continuous
 62
     6
370
    25
100
AcDbLine
 10
-81.087496958673
 20
53.35000610351562
 30
0.0
 11
-80.10000153630972
 21
53.35000610351562
 31
0.0
  0
LINE
  5
508
330
1F
100
AcDbEntity
  8
19
  6
Continuous
 62
     6
370
    25
100
AcDbLine
 10
-77.60000153630972
 20
53.35000610351562
 30
0.0
 11
-76.61250152438879
 21
53.35000610351562
 31
0.0
  0
LINE
  5
509
330
1F
100
AcDbEntity
  8
19
  6
Continuous
 62
     6
370
    25
100
AcDbLine
 10
-108.9874984845519
 20
-21.65000152587891
 30
0.0
 11
-108.0000030621886
 21
-21.65000152587891
 31
0.0
  0
LINE
  5
50A
330
1F
100
AcDbEntity
  8
19
  6
Continuous
 62
     6
370
    25
100
AcDbLine
 10
-105.5000030621886
 20
-21.65000152587891
 30
0.0
 11
-104.5125030502677
 21
-21.65000152587891
 31
0.0
  0
LINE
  5
50B
330
1F
100
AcDbEntity
  8
19
  6
Continuous
 62
     6
370
    25
100
AcDbLine
 10
-102.0125000104308
 20
-21.65000152587891
 30
0.0
 11
-101.0249999985099
 21
-21.65000152587891
 31
0.0
  0
LINE
  5
50C
330
1F
100
AcDbEntity
  8
19
  6
Continuous
 62
     6
370
    25
100
AcDbLine
 10
-98.524996958673
 20
-21.65000152587891
 30
0.0
 11
-97.53749694675207
 21
-21.65000152587891
 31
0.0
  0
LINE
  5
50D
330
1F
100
AcDbEntity
  8
19
  6
Continuous
 62
     6
370
    25
100
AcDbLine
 10
-95.03750153630972
 20
-21.65000152587891
 30
0.0
 11
-94.05000152438879
 21
-21.65000152587891
 31
0.0
  0
LINE
  5
50E
330
1F
100
AcDbEntity
  8
19
  6
Continuous
 62
     6
370
    25
100
AcDbLine
 10
-91.5499984845519
 20
-21.65000152587891
 30
0.0
 11
-90.56249847263098
 21
-21.65000152587891
 31
0.0
  0
LINE
  5
50F
330
1F
100
AcDbEntity
  8
19
  6
Continuous
 62
     6
370
    25
100
AcDbLine
 10
-88.06250306218863
 20
-21.65000152587891
 30
0.0
 11
-87.0750030502677
 21
-21.65000152587891
 31
0.0
  0
LINE
  5
510
330
1F
100
AcDbEntity
  8
19
  6
Continuous
 62
     6
370
    25
100
AcDbLine
 10
-84.57500001043081
 20
-21.65000152587891
 30
0.0
 11
-83.58749999850988
 21
-21.65000152587891
 31
0.0
  0
LINE
  5
511
330
1F
100
AcDbEntity
  8
19
  6
Continuous
 62
     6
370
    25
100
AcDbLine
 10
-81.087496958673
 20
-21.65000152587891
 30
0.0
 11
-80.10000153630972
 21
-21.65000152587891
 31
0.0
  0
LINE
  5
512
330
1F
100
AcDbEntity
  8
19
  6
Continuous
 62
     6
370
    25
100
AcDbLine
 10
-77.60000153630972
 20
-21.65000152587891
 30
0.0
 11
-76.61250152438879
 21
-21.65000152587891
 31
0.0
  0
LINE
  5
513
330
1F
100
AcDbEntity
  8
19
  6
Continuous
 62
     6
370
    25
100
AcDbLine
 10
-110.3624984845519
 20
60.85000610351562
 30
0.0
 11
-110.3624984845519
 21
64.85000610351562
 31
0.0
  0
LINE
  5
514
330
1F
100
AcDbEntity
  8
19
  6
Continuous
 62
     6
370
    25
100
AcDbLine
 10
-110.3624984845519
 20
64.85000610351562
 30
0.0
 11
-107.6124984845519
 21
64.85000610351562
 31
0.0
  0
LINE
  5
515
330
1F
100
AcDbEntity
  8
19
  6
Continuous
 62
     6
370
    25
100
AcDbLine
 10
-107.6124984845519
 20
64.85000610351562
 30
0.0
 11
-107.6124984845519
 21
60.85000610351562
 31
0.0
  0
LINE
  5
516
330
1F
100
AcDbEntity
  8
19
  6
Continuous
 62
     6
370
    25
100
AcDbLine
 10
-108.2374984845519
 20
59.60000610351562
 30
0.0
 11
-108.2374984845519
 21
60.10000610351562
 31
0.0
  0
LINE
  5
517
330
1F
100
AcDbEntity
  8
19
  6
Continuous
 62
     6
370
    25
100
AcDbLine
 10
-108.2374984845519
 20
57.10000610351562
 30
0.0
 11
-108.2374984845519
 21
59.03750610351562
 31
0.0
  0
LINE
  5
518
330
1F
100
AcDbEntity
  8
19
  6
Continuous
 62
     6
370
    25
100
AcDbLine
 10
-108.9874984845519
 20
57.10000610351562
 30
0.0
 11
-108.2374984845519
 21
57.10000610351562
 31
0.0
  0
LINE
  5
519
330
1F
100
AcDbEntity
  8
19
  6
Continuous
 62
     6
370
    25
100
AcDbLine
 10
-109.7374984845519
 20
59.60000610351562
 30
0.0
 11
-109.7374984845519
 21
60.10000610351562
 31
0.0
  0
LINE
  5
51A
330
1F
100
AcDbEntity
  8
19
  6
Continuous
 62
     6
370
    25
100
AcDbLine
 10
-109.9874984845519
 20
-29.65000152587891
 30
0.0
 11
-109.9874984845519
 21
-29.15000152587891
 31
0.0
  0
LINE
  5
51B
330
1F
100
AcDbEntity
  8
19
  6
Continuous
 62
     6
370
    25
100
AcDbLine
 10
-109.9874984845519
 20
-29.65000152587891
 30
0.0
 11
-107.9874984845519
 21
-29.65000152587891
 31
0.0
  0
LINE
  5
51C
330
1F
100
AcDbEntity
  8
19
  6
Continuous
 62
     6
370
    25
100
AcDbLine
 10
-107.9874984845519
 20
-29.65000152587891
 30
0.0
 11
-107.9874984845519
 21
-29.15000152587891
 31
0.0
  0
LINE
  5
51D
330
1F
100
AcDbEntity
  8
19
  6
Continuous
 62
     6
370
    25
100
AcDbLine
 10
-108.2374984845519
 20
-28.40000152587891
 30
0.0
 11
-108.2374984845519
 21
-27.90000152587891
 31
0.0
  0
LINE
  5
51E
330
1F
100
AcDbEntity
  8
19
  6
Continuous
 62
     6
370
    25
100
AcDbLine
 10
-108.2374984845519
 20
-27.33750152587891
 30
0.0
 11
-108.2374984845519
 21
-25.40000152587891
 31
0.0
  0
LINE
  5
51F
330
1F
100
AcDbEntity
  8
19
  6
Continuous
 62
     6
370
    25
100
AcDbLine
 10
-108.9874984845519
 20
-25.40000152587891
 30
0.0
 11
-108.2374984845519
 21
-25.40000152587891
 31
0.0
  0
LINE
  5
520
330
1F
100
AcDbEntity
  8
19
  6
Continuous
 62
     6
370
    25
100
AcDbLine
 10
-109.7374984845519
 20
-28.40000152587891
 30
0.0
 11
-109.7374984845519
 21
-27.90000152587891
 31
0.0
  0
CIRCLE
  5
521
330
1F
100
AcDbEntity
  8
19
  6
Continuous
 62
     6
370
    25
100
AcDbCircle
 10
-106.1124984845519
 20
61.72500610351562
 30
0.0
 40
0.875
  0
LINE
  5
522
330
1F
100
AcDbEntity
  8
19
  6
Continuous
 62
     6
370
    25
100
AcDbLine
 10
-106.9874984845519
 20
61.72500610351562
 30
0.0
 11
-106.9874984845519
 21
67.97500610351562
 31
0.0
  0
LINE
  5
523
330
1F
100
AcDbEntity
  8
19
  6
Continuous
 62
     6
370
    25
100
AcDbLine
 10
-106.9874984845519
 20
67.97500610351562
 30
0.0
 11
-105.2374984845519
 21
67.97500610351562
 31
0.0
  0
LINE
  5
524
330
1F
100
AcDbEntity
  8
19
  6
Continuous
 62
     6
370
    25
100
AcDbLine
 10
-105.2374984845519
 20
61.72500610351562
 30
0.0
 11
-105.2374984845519
 21
67.97500610351562
 31
0.0
  0
ARC
  5
525
330
1F
100
AcDbEntity
  8
19
  6
Continuous
 62
     6
370
    25
100
AcDbCircle
 10
-106.1124984845519
 20
65.47500610351562
 30
0.0
 40
0.875
100
AcDbArc
 50
0.0
 51
180.0000000000004
  0
CIRCLE
  5
526
330
1F
100
AcDbEntity
  8
19
  6
Continuous
 62
     6
370
    25
100
AcDbCircle
 10
-79.4874984845519
 20
61.72500610351562
 30
0.0
 40
0.875
  0
LINE
  5
527
330
1F
100
AcDbEntity
  8
19
  6
Continuous
 62
     6
370
    25
100
AcDbLine
 10
-80.3624984845519
 20
61.72500610351562
 30
0.0
 11
-80.3624984845519
 21
67.97500610351562
 31
0.0
  0
LINE
  5
528
330
1F
100
AcDbEntity
  8
19
  6
Continuous
 62
     6
370
    25
100
AcDbLine
 10
-80.3624984845519
 20
67.97500610351562
 30
0.0
 11
-78.6124984845519
 21
67.97500610351562
 31
0.0
  0
LINE
  5
529
330
1F
100
AcDbEntity
  8
19
  6
Continuous
 62
     6
370
    25
100
AcDbLine
 10
-78.6124984845519
 20
61.72500610351562
 30
0.0
 11
-78.6124984845519
 21
67.97500610351562
 31
0.0
  0
ARC
  5
52A
330
1F
100
AcDbEntity
  8
19
  6
Continuous
 62
     6
370
    25
100
AcDbCircle
 10
-79.4874984845519
 20
65.47500610351562
 30
0.0
 40
0.875
100
AcDbArc
 50
0.0
 51
180.0000000000004
  0
CIRCLE
  5
52B
330
1F
100
AcDbEntity
  8
19
  6
Continuous
 62
     6
370
    25
100
AcDbCircle
 10
-106.1124984845519
 20
-30.02500152587891
 30
0.0
 40
0.875
  0
LINE
  5
52C
330
1F
100
AcDbEntity
  8
19
  6
Continuous
 62
     6
370
    25
100
AcDbLine
 10
-106.9874984845519
 20
-36.27500152587891
 30
0.0
 11
-106.9874984845519
 21
-30.02500152587891
 31
0.0
  0
LINE
  5
52D
330
1F
100
AcDbEntity
  8
19
  6
Continuous
 62
     6
370
    25
100
AcDbLine
 10
-106.9874984845519
 20
-36.27500152587891
 30
0.0
 11
-105.2374984845519
 21
-36.27500152587891
 31
0.0
  0
LINE
  5
52E
330
1F
100
AcDbEntity
  8
19
  6
Continuous
 62
     6
370
    25
100
AcDbLine
 10
-105.2374984845519
 20
-36.27500152587891
 30
0.0
 11
-105.2374984845519
 21
-30.02500152587891
 31
0.0
  0
ARC
  5
52F
330
1F
100
AcDbEntity
  8
19
  6
Continuous
 62
     6
370
    25
100
AcDbCircle
 10
-106.1124984845519
 20
-33.77500152587891
 30
0.0
 40
0.875
100
AcDbArc
 50
180.0000000000004
 51
0.0000000000008142
  0
CIRCLE
  5
530
330
1F
100
AcDbEntity
  8
19
  6
Continuous
 62
     6
370
    25
100
AcDbCircle
 10
-79.4874984845519
 20
-30.02500152587891
 30
0.0
 40
0.875
  0
LINE
  5
531
330
1F
100
AcDbEntity
  8
19
  6
Continuous
 62
     6
370
    25
100
AcDbLine
 10
-80.3624984845519
 20
-36.27500152587891
 30
0.0
 11
-80.3624984845519
 21
-30.02500152587891
 31
0.0
  0
LINE
  5
532
330
1F
100
AcDbEntity
  8
19
  6
Continuous
 62
     6
370
    25
100
AcDbLine
 10
-80.3624984845519
 20
-36.27500152587891
 30
0.0
 11
-78.6124984845519
 21
-36.27500152587891
 31
0.0
  0
LINE
  5
533
330
1F
100
AcDbEntity
  8
19
  6
Continuous
 62
     6
370
    25
100
AcDbLine
 10
-78.6124984845519
 20
-36.27500152587891
 30
0.0
 11
-78.6124984845519
 21
-30.02500152587891
 31
0.0
  0
ARC
  5
534
330
1F
100
AcDbEntity
  8
19
  6
Continuous
 62
     6
370
    25
100
AcDbCircle
 10
-79.4874984845519
 20
-33.77500152587891
 30
0.0
 40
0.875
100
AcDbArc
 50
180.0000000000004
 51
0.0000000000008142
  0
LINE
  5
535
330
1F
100
AcDbEntity
  8
19
  6
Continuous
 62
     6
370
    25
100
AcDbLine
 10
-29.11250611394644
 20
59.60000610351562
 30
0.0
 11
-29.11250611394644
 21
60.85000610351562
 31
0.0
  0
LINE
  5
536
330
1F
100
AcDbEntity
  8
19
  6
Continuous
 62
     6
370
    25
100
AcDbLine
 10
-29.11250611394644
 20
60.10000610351562
 30
0.0
 11
-29.11250611394644
 21
60.85000610351562
 31
0.0
  0
LINE
  5
537
330
1F
100
AcDbEntity
  8
19
  6
Continuous
 62
     6
370
    25
100
AcDbLine
 10
-29.11250611394644
 20
60.85000610351562
 30
0.0
 11
-20.98750611394644
 21
60.85000610351562
 31
0.0
  0
LINE
  5
538
330
1F
100
AcDbEntity
  8
19
  6
Continuous
 62
     6
370
    25
100
AcDbLine
 10
-20.98750611394644
 20
60.85000610351562
 30
0.0
 11
-20.86250611394644
 21
60.72500610351562
 31
0.0
  0
LINE
  5
539
330
1F
100
AcDbEntity
  8
19
  6
Continuous
 62
     6
370
    25
100
AcDbLine
 10
-20.86250611394644
 20
60.72500610351562
 30
0.0
 11
-20.86250611394644
 21
53.35000610351562
 31
0.0
  0
LINE
  5
53A
330
1F
100
AcDbEntity
  8
19
  6
Continuous
 62
     6
370
    25
100
AcDbLine
 10
-20.86250611394644
 20
53.35000610351562
 30
0.0
 11
-21.61250611394644
 21
53.35000610351562
 31
0.0
  0
LINE
  5
53B
330
1F
100
AcDbEntity
  8
19
  6
Continuous
 62
     6
370
    25
100
AcDbLine
 10
-21.61250611394644
 20
53.35000610351562
 30
0.0
 11
-21.61250611394644
 21
60.10000610351562
 31
0.0
  0
LINE
  5
53C
330
1F
100
AcDbEntity
  8
19
  6
Continuous
 62
     6
370
    25
100
AcDbLine
 10
-21.61250611394644
 20
60.10000610351562
 30
0.0
 11
-29.11250611394644
 21
60.10000610351562
 31
0.0
  0
LINE
  5
53D
330
1F
100
AcDbEntity
  8
19
  6
Continuous
 62
     6
370
    25
100
AcDbLine
 10
-29.11250611394644
 20
-28.40000152587891
 30
0.0
 11
-29.11250611394644
 21
-29.15000152587891
 31
0.0
  0
LINE
  5
53E
330
1F
100
AcDbEntity
  8
19
  6
Continuous
 62
     6
370
    25
100
AcDbLine
 10
-29.11250611394644
 20
-29.15000152587891
 30
0.0
 11
-20.98750611394644
 21
-29.15000152587891
 31
0.0
  0
LINE
  5
53F
330
1F
100
AcDbEntity
  8
19
  6
Continuous
 62
     6
370
    25
100
AcDbLine
 10
-20.98750611394644
 20
-29.15000152587891
 30
0.0
 11
-20.86250611394644
 21
-29.02500152587891
 31
0.0
  0
LINE
  5
540
330
1F
100
AcDbEntity
  8
19
  6
Continuous
 62
     6
370
    25
100
AcDbLine
 10
-20.86250611394644
 20
-29.02500152587891
 30
0.0
 11
-20.86250611394644
 21
-21.65000152587891
 31
0.0
  0
LINE
  5
541
330
1F
100
AcDbEntity
  8
19
  6
Continuous
 62
     6
370
    25
100
AcDbLine
 10
-20.86250611394644
 20
-21.65000152587891
 30
0.0
 11
-21.61250611394644
 21
-21.65000152587891
 31
0.0
  0
LINE
  5
542
330
1F
100
AcDbEntity
  8
19
  6
Continuous
 62
     6
370
    25
100
AcDbLine
 10
-21.61250611394644
 20
-21.65000152587891
 30
0.0
 11
-21.61250611394644
 21
-28.40000152587891
 31
0.0
  0
LINE
  5
543
330
1F
100
AcDbEntity
  8
19
  6
Continuous
 62
     6
370
    25
100
AcDbLine
 10
-21.61250611394644
 20
-28.40000152587891
 30
0.0
 11
-29.11250611394644
 21
-28.40000152587891
 31
0.0
  0
LINE
  5
544
330
1F
100
AcDbEntity
  8
19
  6
Continuous
 62
     6
370
    25
100
AcDbLine
 10
-29.11250611394644
 20
-28.40000152587891
 30
0.0
 11
-29.11250611394644
 21
-27.15000152587891
 31
0.0
  0
LINE
  5
545
330
1F
100
AcDbEntity
  8
19
  6
Continuous
 62
     6
370
    25
100
AcDbLine
 10
-23.98750611394644
 20
-29.15000152587891
 30
0.0
 11
-20.86250611394644
 21
-29.15000152587891
 31
0.0
  0
LINE
  5
546
330
1F
100
AcDbEntity
  8
19
  6
Continuous
 62
     6
370
    25
100
AcDbLine
 10
-20.86250611394644
 20
-29.15000152587891
 30
0.0
 11
-8.237506113946445
 21
-32.52500152587891
 31
0.0
  0
LINE
  5
547
330
1F
100
AcDbEntity
  8
19
  6
Continuous
 62
     6
370
    25
100
AcDbLine
 10
-8.237506113946445
 20
-36.40000152587891
 30
0.0
 11
-8.237506113946445
 21
-32.52500152587891
 31
0.0
  0
LINE
  5
548
330
1F
100
AcDbEntity
  8
19
  6
Continuous
 62
     6
370
    25
100
AcDbLine
 10
-9.987506113946445
 20
-36.40000152587891
 30
0.0
 11
-8.237506113946445
 21
-36.40000152587891
 31
0.0
  0
LINE
  5
549
330
1F
100
AcDbEntity
  8
19
  6
Continuous
 62
     6
370
    25
100
AcDbLine
 10
-9.987506113946445
 20
-36.40000152587891
 30
0.0
 11
-9.987506113946445
 21
-33.90000152587891
 31
0.0
  0
LINE
  5
54A
330
1F
100
AcDbEntity
  8
19
  6
Continuous
 62
     6
370
    25
100
AcDbLine
 10
-9.987506113946445
 20
-33.90000152587891
 30
0.0
 11
-21.11250611394644
 21
-30.90000152587891
 31
0.0
  0
LINE
  5
54B
330
1F
100
AcDbEntity
  8
19
  6
Continuous
 62
     6
370
    25
100
AcDbLine
 10
-23.98750611394644
 20
-30.90000152587891
 30
0.0
 11
-21.11250611394644
 21
-30.90000152587891
 31
0.0
  0
LINE
  5
54C
330
1F
100
AcDbEntity
  8
19
  6
Continuous
 62
     6
370
    25
100
AcDbLine
 10
-23.98750611394644
 20
-30.90000152587891
 30
0.0
 11
-23.98750611394644
 21
-29.15000152587891
 31
0.0
  0
LINE
  5
54D
330
1F
100
AcDbEntity
  8
19
  6
Continuous
 62
     6
370
    25
100
AcDbLine
 10
-23.98750611394644
 20
60.85000610351562
 30
0.0
 11
-20.86250611394644
 21
60.85000610351562
 31
0.0
  0
LINE
  5
54E
330
1F
100
AcDbEntity
  8
19
  6
Continuous
 62
     6
370
    25
100
AcDbLine
 10
-20.86250611394644
 20
60.85000610351562
 30
0.0
 11
-8.237506113946445
 21
64.22500610351562
 31
0.0
  0
LINE
  5
54F
330
1F
100
AcDbEntity
  8
19
  6
Continuous
 62
     6
370
    25
100
AcDbLine
 10
-8.237506113946445
 20
64.22500610351562
 30
0.0
 11
-8.237506113946445
 21
68.10000610351562
 31
0.0
  0
LINE
  5
550
330
1F
100
AcDbEntity
  8
19
  6
Continuous
 62
     6
370
    25
100
AcDbLine
 10
-9.987506113946445
 20
68.10000610351562
 30
0.0
 11
-8.237506113946445
 21
68.10000610351562
 31
0.0
  0
LINE
  5
551
330
1F
100
AcDbEntity
  8
19
  6
Continuous
 62
     6
370
    25
100
AcDbLine
 10
-9.987506113946445
 20
65.60000610351562
 30
0.0
 11
-9.987506113946445
 21
68.10000610351562
 31
0.0
  0
LINE
  5
552
330
1F
100
AcDbEntity
  8
19
  6
Continuous
 62
     6
370
    25
100
AcDbLine
 10
-9.987506113946445
 20
65.60000610351562
 30
0.0
 11
-21.11250611394644
 21
62.60000610351562
 31
0.0
  0
LINE
  5
553
330
1F
100
AcDbEntity
  8
19
  6
Continuous
 62
     6
370
    25
100
AcDbLine
 10
-23.98750611394644
 20
62.60000610351562
 30
0.0
 11
-21.11250611394644
 21
62.60000610351562
 31
0.0
  0
LINE
  5
554
330
1F
100
AcDbEntity
  8
19
  6
Continuous
 62
     6
370
    25
100
AcDbLine
 10
-23.98750611394644
 20
60.85000610351562
 30
0.0
 11
-23.98750611394644
 21
62.60000610351562
 31
0.0
  0
LINE
  5
555
330
1F
100
AcDbEntity
  8
19
  6
Continuous
 62
     6
370
    25
100
AcDbLine
 10
-28.36250611394644
 20
60.85000610351562
 30
0.0
 11
-28.36250611394644
 21
64.85000610351562
 31
0.0
  0
LINE
  5
556
330
1F
100
AcDbEntity
  8
19
  6
Continuous
 62
     6
370
    25
100
AcDbLine
 10
-28.36250611394644
 20
64.85000610351562
 30
0.0
 11
-25.61250611394644
 21
64.85000610351562
 31
0.0
  0
LINE
  5
557
330
1F
100
AcDbEntity
  8
19
  6
Continuous
 62
     6
370
    25
100
AcDbLine
 10
-25.61250611394644
 20
64.85000610351562
 30
0.0
 11
-25.61250611394644
 21
60.85000610351562
 31
0.0
  0
LINE
  5
558
330
1F
100
AcDbEntity
  8
19
  6
Continuous
 62
     6
370
    25
100
AcDbLine
 10
-27.73750611394644
 20
59.60000610351562
 30
0.0
 11
-27.73750611394644
 21
60.10000610351562
 31
0.0
  0
LINE
  5
559
330
1F
100
AcDbEntity
  8
19
  6
Continuous
 62
     6
370
    25
100
AcDbLine
 10
-26.23750611394644
 20
60.10000610351562
 30
0.0
 11
-26.23750611394644
 21
59.60000610351562
 31
0.0
  0
LINE
  5
55A
330
1F
100
AcDbEntity
  8
19
  6
Continuous
 62
     6
370
    25
100
AcDbLine
 10
-27.98750611394644
 20
-29.15000152587891
 30
0.0
 11
-27.98750611394644
 21
-29.65000152587891
 31
0.0
  0
LINE
  5
55B
330
1F
100
AcDbEntity
  8
19
  6
Continuous
 62
     6
370
    25
100
AcDbLine
 10
-27.98750611394644
 20
-29.65000152587891
 30
0.0
 11
-25.98750611394644
 21
-29.65000152587891
 31
0.0
  0
LINE
  5
55C
330
1F
100
AcDbEntity
  8
19
  6
Continuous
 62
     6
370
    25
100
AcDbLine
 10
-25.98750611394644
 20
-29.65000152587891
 30
0.0
 11
-25.98750611394644
 21
-29.15000152587891
 31
0.0
  0
LINE
  5
55D
330
1F
100
AcDbEntity
  8
19
  6
Continuous
 62
     6
370
    25
100
AcDbLine
 10
-27.73750611394644
 20
-27.90000152587891
 30
0.0
 11
-27.73750611394644
 21
-28.40000152587891
 31
0.0
  0
LINE
  5
55E
330
1F
100
AcDbEntity
  8
19
  6
Continuous
 62
     6
370
    25
100
AcDbLine
 10
-26.23750611394644
 20
-28.40000152587891
 30
0.0
 11
-26.23750611394644
 21
-27.90000152587891
 31
0.0
  0
LINE
  5
55F
330
1F
100
AcDbEntity
  8
19
  6
Continuous
 62
     6
370
    25
100
AcDbLine
 10
-111.4874984845519
 20
-72.3375015258789
 30
0.0
 11
-113.6124984845519
 21
-72.3375015258789
 31
0.0
  0
LINE
  5
560
330
1F
100
AcDbEntity
  8
19
  6
Continuous
 62
     6
370
    25
100
AcDbLine
 10
-113.6124984845519
 20
-72.3375015258789
 30
0.0
 11
-113.6124984845519
 21
-80.5875015258789
 31
0.0
  0
LINE
  5
561
330
1F
100
AcDbEntity
  8
19
  6
Continuous
 62
     6
370
    25
100
AcDbLine
 10
-113.6124984845519
 20
-80.5875015258789
 30
0.0
 11
-71.9874984845519
 21
-80.5875015258789
 31
0.0
  0
LINE
  5
562
330
1F
100
AcDbEntity
  8
19
  6
Continuous
 62
     6
370
    25
100
AcDbLine
 10
-71.9874984845519
 20
-80.5875015258789
 30
0.0
 11
-71.9874984845519
 21
-72.3375015258789
 31
0.0
  0
LINE
  5
563
330
1F
100
AcDbEntity
  8
19
  6
Continuous
 62
     6
370
    25
100
AcDbLine
 10
-71.9874984845519
 20
-72.3375015258789
 30
0.0
 11
-74.1124984845519
 21
-72.3375015258789
 31
0.0
  0
LINE
  5
564
330
1F
100
AcDbEntity
  8
19
  6
Continuous
 62
     6
370
    25
100
AcDbLine
 10
-73.1124984845519
 20
-72.3375015258789
 30
0.0
 11
-73.1124984845519
 21
-79.8375015258789
 31
0.0
  0
LINE
  5
565
330
1F
100
AcDbEntity
  8
19
  6
Continuous
 62
     6
370
    25
100
AcDbLine
 10
-73.1124984845519
 20
-79.8375015258789
 30
0.0
 11
-112.4874984845519
 21
-79.8375015258789
 31
0.0
  0
LINE
  5
566
330
1F
100
AcDbEntity
  8
19
  6
Continuous
 62
     6
370
    25
100
AcDbLine
 10
-112.4874984845519
 20
-79.8375015258789
 30
0.0
 11
-112.4874984845519
 21
-72.3375015258789
 31
0.0
  0
LINE
  5
567
330
1F
100
AcDbEntity
  8
19
  6
Continuous
 62
     6
370
    25
100
AcDbLine
 10
-112.4874984845519
 20
-79.8375015258789
 30
0.0
 11
-113.6124984845519
 21
-79.8375015258789
 31
0.0
  0
LINE
  5
568
330
1F
100
AcDbEntity
  8
19
  6
Continuous
 62
     6
370
    25
100
AcDbLine
 10
-73.1124984845519
 20
-79.8375015258789
 30
0.0
 11
-71.9874984845519
 21
-79.8375015258789
 31
0.0
  0
LINE
  5
569
330
1F
100
AcDbEntity
  8
19
  6
Continuous
 62
     6
370
    25
100
AcDbLine
 10
-106.9874984845519
 20
-80.5875015258789
 30
0.0
 11
-106.9874984845519
 21
-92.3375015258789
 31
0.0
  0
ARC
  5
56A
330
1F
100
AcDbEntity
  8
19
  6
Continuous
 62
     6
370
    25
100
AcDbCircle
 10
-106.1124984845521
 20
-92.33750209776997
 30
0.0
 40
0.875
100
AcDbArc
 50
180.0000000000004
 51
0.0000000000008142
  0
LINE
  5
56B
330
1F
100
AcDbEntity
  8
19
  6
Continuous
 62
     6
370
    25
100
AcDbLine
 10
-105.2374984845528
 20
-92.33750324155211
 30
0.0
 11
-105.2374984845528
 21
-80.58750324155211
 31
0.0
  0
LINE
  5
56C
330
1F
100
AcDbEntity
  8
19
  6
Continuous
 62
     6
370
    25
100
AcDbLine
 10
-80.3624984845519
 20
-80.5875015258789
 30
0.0
 11
-80.3624984845519
 21
-92.3375015258789
 31
0.0
  0
ARC
  5
56D
330
1F
100
AcDbEntity
  8
19
  6
Continuous
 62
     6
370
    25
100
AcDbCircle
 10
-79.4874984845521
 20
-92.33750209776997
 30
0.0
 40
0.875
100
AcDbArc
 50
180.0000000000004
 51
0.0000000000008142
  0
LINE
  5
56E
330
1F
100
AcDbEntity
  8
19
  6
Continuous
 62
     6
370
    25
100
AcDbLine
 10
-78.61249848455284
 20
-92.33750324155211
 30
0.0
 11
-78.61249848455284
 21
-80.58750324155211
 31
0.0
  0
LINE
  5
56F
330
1F
100
AcDbEntity
  8
19
  6
CENTERX2
 62
     6
370
    25
100
AcDbLine
 10
-108.9874984845519
 20
65.22500610351562
 30
0.0
 11
-108.9874984845519
 21
56.72500610351562
 31
0.0
  0
LINE
  5
570
330
1F
100
AcDbEntity
  8
19
  6
CENTERX2
 62
     6
370
    25
100
AcDbLine
 10
-108.9874984845519
 20
-30.02500152587891
 30
0.0
 11
-108.9874984845519
 21
-25.02500152587891
 31
0.0
  0
LINE
  5
571
330
1F
100
AcDbEntity
  8
19
  6
CENTERX2
 62
     6
370
    25
100
AcDbLine
 10
-26.98750611394644
 20
65.22500610351562
 30
0.0
 11
-26.98750611394644
 21
56.72500610351562
 31
0.0
  0
LINE
  5
572
330
1F
100
AcDbEntity
  8
19
  6
CENTERX2
 62
     6
370
    25
100
AcDbLine
 10
-26.98750611394644
 20
-30.02500152587891
 30
0.0
 11
-26.98750611394644
 21
-25.02500152587891
 31
0.0
  0
LINE
  5
573
330
1F
100
AcDbEntity
  8
0
  6
Continuous
 62
     4
370
    25
100
AcDbLine
 10
-125.6124986633658
 20
32.18330775772483
 30
0.0
 11
-126.0124986693263
 21
30.68330773537309
 31
0.0
  0
LINE
  5
574
330
1F
100
AcDbEntity
  8
0
  6
Continuous
 62
     4
370
    25
100
AcDbLine
 10
-125.2124986574053
 20
30.68330773537309
 30
0.0
 11
-125.6124986633658
 21
32.18330775772483
 31
0.0
  0
LINE
  5
575
330
1F
100
AcDbEntity
  8
0
  6
Continuous
 62
     4
370
    25
100
AcDbLine
 10
-125.6124986633658
 20
32.18330775772483
 30
0.0
 11
-125.6124986633658
 21
2.183307310689996
 31
0.0
  0
LINE
  5
576
330
1F
100
AcDbEntity
  8
0
  6
Continuous
 62
     4
370
    25
100
AcDbLine
 10
-125.6124986633658
 20
2.183307310689996
 30
0.0
 11
-126.0124986693263
 21
3.683307333041737
 31
0.0
  0
LINE
  5
577
330
1F
100
AcDbEntity
  8
0
  6
Continuous
 62
     4
370
    25
100
AcDbLine
 10
-125.2124986574053
 20
3.683307333041737
 30
0.0
 11
-125.6124986633658
 21
2.183307310689996
 31
0.0
  0
TEXT
  5
578
330
1F
100
AcDbEntity
  8
0
 62
     2
100
AcDbText
 10
-126.3124986651569
 20
8.183307401492335
 30
0.0
 40
3.0
  1
車両進行方向
 50
90.0000001836389
 41
0.8333333352623459
  7
dcStyle0
 72
     5
 11
-126.3124987228487
 21
26.18330765149234
 31
0.0
100
AcDbText
  0
VIEWPORT
  5
78
330
1B
100
AcDbEntity
 67
     1
  8
0
100
AcDbViewport
 10
-4.799997359514236
 20
-11.29999825358391
 30
0.0
 40
1063.200015842915
 41
703.2000104784966
 68
     1
 69
     1
 12
-4.799997359514236
 22
-11.29999825358391
 13
0.0
 23
0.0
 14
0.5
 24
0.5
 15
0.0
 25
0.0
 16
0.0
 26
0.0
 36
1.0
 17
0.0
 27
0.0
 37
0.0
 42
50.0
 43
0.0
 44
0.0
 45
703.2000104784966
 50
0.0
 51
0.0
 72
   100
 90
   557152
  1

281
     0
 71
     1
 74
     0
110
0.0
120
0.0
130
0.0
111
1.0
121
0.0
131
0.0
112
0.0
122
1.0
132
0.0
 79
     0
146
0.0
  0
ENDSEC
  0
SECTION
  2
OBJECTS
  0
DICTIONARY
  5
C
330
0
100
AcDbDictionary
281
     1
  3
ACAD_GROUP
350
D
  3
ACAD_LAYOUT
350
1A
  3
ACAD_MATERIAL
350
3B
  3
ACAD_MLEADERSTYLE
350
59D
  3
ACAD_MLINESTYLE
350
17
  3
ACAD_PLOTSETTINGS
350
19
  3
ACAD_PLOTSTYLENAME
350
E
  3
ACAD_SCALELIST
350
579
  3
ACAD_VISUALSTYLE
350
2A
  3
AcDbVariableDictionary
350
59B
  0
DICTIONARY
  5
D
102
{ACAD_REACTORS
330
C
102
}
330
C
100
AcDbDictionary
281
     1
  0
DICTIONARY
  5
1A
102
{ACAD_REACTORS
330
C
102
}
330
C
100
AcDbDictionary
281
     1
  3
Layout1
350
1E
  3
Layout2
350
26
  3
Model
350
22
  0
DICTIONARY
  5
3B
102
{ACAD_REACTORS
330
C
102
}
330
C
100
AcDbDictionary
281
     1
  3
ByBlock
350
3D
  3
ByLayer
350
3C
  3
Global
350
3E
  0
DICTIONARY
  5
59D
102
{ACAD_REACTORS
330
C
102
}
330
C
100
AcDbDictionary
281
     1
  0
DICTIONARY
  5
17
102
{ACAD_REACTORS
330
C
102
}
330
C
100
AcDbDictionary
281
     1
  3
Standard
350
18
  0
DICTIONARY
  5
19
102
{ACAD_REACTORS
330
C
102
}
330
C
100
AcDbDictionary
281
     1
  0
ACDBDICTIONARYWDFLT
  5
E
102
{ACAD_REACTORS
330
C
102
}
330
C
100
AcDbDictionary
281
     1
  3
Normal
350
F
100
AcDbDictionaryWithDefault
340
F
  0
DICTIONARY
  5
579
102
{ACAD_REACTORS
330
C
102
}
330
C
100
AcDbDictionary
281
     1
  3
A0
350
57A
  3
A1
350
57B
  3
A2
350
57C
  3
A3
350
57D
  3
A4
350
57E
  3
A5
350
57F
  3
A6
350
580
  3
A7
350
581
  3
A8
350
582
  3
A9
350
583
  3
B0
350
584
  3
B1
350
585
  3
B2
350
586
  3
B3
350
587
  3
B4
350
588
  3
B5
350
589
  3
B6
350
58A
  3
B7
350
58B
  3
B8
350
58C
  3
B9
350
58D
  3
C0
350
58E
  3
C1
350
58F
  3
C2
350
590
  3
C3
350
591
  3
C4
350
592
  3
C5
350
593
  3
C6
350
594
  3
C7
350
595
  3
C8
350
596
  3
C9
350
597
  3
D0
350
598
  3
D1
350
599
  3
D2
350
59A
  0
DICTIONARY
  5
2A
102
{ACAD_REACTORS
330
C
102
}
330
C
100
AcDbDictionary
281
     1
  3
2dWireframe
350
2F
  3
3D Hidden
350
31
  3
3dWireframe
350
30
  3
Basic
350
32
  3
Brighten
350
36
  3
ColorChange
350
3A
  3
Conceptual
350
34
  3
Dim
350
35
  3
Facepattern
350
39
  3
Flat
350
2B
  3
FlatWithEdges
350
2C
  3
Gouraud
350
2D
  3
GouraudWithEdges
350
2E
  3
Linepattern
350
38
  3
Realistic
350
33
  3
Thicken
350
37
  0
DICTIONARY
  5
59B
102
{ACAD_REACTORS
330
C
102
}
330
C
100
AcDbDictionary
281
     1
  3
CANNOSCALE
350
59E
  3
DIMASSOC
350
59F
  3
HIDETEXT
350
5A0
  0
LAYOUT
  5
1E
102
{ACAD_REACTORS
330
1A
102
}
330
1A
100
AcDbPlotSettings
  1

  2
none_device
  4

  6

 40
0.0
 41
0.0
 42
0.0
 43
0.0
 44
0.0
 45
0.0
 46
0.0
 47
0.0
 48
0.0
 49
0.0
140
0.0
141
0.0
142
1.0
143
1.0
 70
   688
 72
     0
 73
     0
 74
     5
  7

 75
    16
147
1.0
148
0.0
149
0.0
100
AcDbLayout
  1
Layout1
 70
     0
 71
     1
 10
0.0
 20
0.0
 11
12.0
 21
9.0
 12
0.0
 22
0.0
 32
0.0
 14
1.000000000000000E+20
 24
1.000000000000000E+20
 34
1.000000000000000E+20
 15
-1.000000000000000E+20
 25
-1.000000000000000E+20
 35
-1.000000000000000E+20
146
0.0
 13
0.0
 23
0.0
 33
0.0
 16
1.0
 26
0.0
 36
0.0
 17
0.0
 27
1.0
 37
0.0
 76
     0
330
1B
331
78
  0
LAYOUT
  5
26
102
{ACAD_REACTORS
330
1A
102
}
330
1A
100
AcDbPlotSettings
  1

  2
none_device
  4

  6

 40
0.0
 41
0.0
 42
0.0
 43
0.0
 44
0.0
 45
0.0
 46
0.0
 47
0.0
 48
0.0
 49
0.0
140
0.0
141
0.0
142
1.0
143
1.0
 70
   688
 72
     0
 73
     0
 74
     5
  7

 75
    16
147
1.0
148
0.0
149
0.0
100
AcDbLayout
  1
Layout2
 70
     1
 71
     2
 10
0.0
 20
0.0
 11
0.0
 21
0.0
 12
0.0
 22
0.0
 32
0.0
 14
0.0
 24
0.0
 34
0.0
 15
0.0
 25
0.0
 35
0.0
146
0.0
 13
0.0
 23
0.0
 33
0.0
 16
1.0
 26
0.0
 36
0.0
 17
0.0
 27
1.0
 37
0.0
 76
     0
330
23
  0
LAYOUT
  5
22
102
{ACAD_REACTORS
330
1A
102
}
330
1A
100
AcDbPlotSettings
  1

  2
none_device
  4

  6

 40
0.0
 41
0.0
 42
0.0
 43
0.0
 44
0.0
 45
0.0
 46
0.0
 47
0.0
 48
0.0
 49
0.0
140
0.0
141
0.0
142
1.0
143
1.0
 70
  1712
 72
     0
 73
     0
 74
     0
  7

 75
     0
147
1.0
148
0.0
149
0.0
100
AcDbLayout
  1
Model
 70
     1
 71
     0
 10
-182.0
 20
-128.5
 11
182.0
 21
128.5
 12
0.0
 22
0.0
 32
0.0
 14
-536.4000052809715
 24
-362.9000034928322
 34
0.0
 15
526.800010561943
 25
340.3000069856644
 35
0.0
146
0.0
 13
0.0
 23
0.0
 33
0.0
 16
1.0
 26
0.0
 36
0.0
 17
0.0
 27
1.0
 37
0.0
 76
     0
330
1F
331
29
  0
MATERIAL
  5
3D
102
{ACAD_REACTORS
330
3B
102
}
102
{ACAD_XDICTIONARY
360
5C3
102
}
330
3B
100
AcDbMaterial
  1
ByBlock
  0
MATERIAL
  5
3C
102
{ACAD_REACTORS
330
3B
102
}
102
{ACAD_XDICTIONARY
360
5C1
102
}
330
3B
100
AcDbMaterial
  1
ByLayer
  0
MATERIAL
  5
3E
102
{ACAD_REACTORS
330
3B
102
}
102
{ACAD_XDICTIONARY
360
5C5
102
}
330
3B
100
AcDbMaterial
  1
Global
  0
MLINESTYLE
  5
18
102
{ACAD_REACTORS
330
17
102
}
330
17
100
AcDbMlineStyle
  2
Standard
 70
     0
  3

 62
   256
 51
90.0
 52
90.0
 71
     2
 49
0.5
 62
   256
  6
BYLAYER
 49
-0.5
 62
   256
  6
BYLAYER
  0
ACDBPLACEHOLDER
  5
F
102
{ACAD_REACTORS
330
E
102
}
330
E
  0
SCALE
  5
57A
102
{ACAD_REACTORS
330
579
102
}
330
579
100
AcDbScale
 70
     0
300
1:1
140
1.0
141
1.0
290
     1
  0
SCALE
  5
57B
102
{ACAD_REACTORS
330
579
102
}
330
579
100
AcDbScale
 70
     0
300
1:2
140
1.0
141
2.0
290
     0
  0
SCALE
  5
57C
102
{ACAD_REACTORS
330
579
102
}
330
579
100
AcDbScale
 70
     0
300
1:4
140
1.0
141
4.0
290
     0
  0
SCALE
  5
57D
102
{ACAD_REACTORS
330
579
102
}
330
579
100
AcDbScale
 70
     0
300
1:5
140
1.0
141
5.0
290
     0
  0
SCALE
  5
57E
102
{ACAD_REACTORS
330
579
102
}
330
579
100
AcDbScale
 70
     0
300
1:8
140
1.0
141
8.0
290
     0
  0
SCALE
  5
57F
102
{ACAD_REACTORS
330
579
102
}
330
579
100
AcDbScale
 70
     0
300
1:10
140
1.0
141
10.0
290
     0
  0
SCALE
  5
580
102
{ACAD_REACTORS
330
579
102
}
330
579
100
AcDbScale
 70
     0
300
1:16
140
1.0
141
16.0
290
     0
  0
SCALE
  5
581
102
{ACAD_REACTORS
330
579
102
}
330
579
100
AcDbScale
 70
     0
300
1:20
140
1.0
141
20.0
290
     0
  0
SCALE
  5
582
102
{ACAD_REACTORS
330
579
102
}
330
579
100
AcDbScale
 70
     0
300
1:30
140
1.0
141
30.0
290
     0
  0
SCALE
  5
583
102
{ACAD_REACTORS
330
579
102
}
330
579
100
AcDbScale
 70
     0
300
1:40
140
1.0
141
40.0
290
     0
  0
SCALE
  5
584
102
{ACAD_REACTORS
330
579
102
}
330
579
100
AcDbScale
 70
     0
300
1:50
140
1.0
141
50.0
290
     0
  0
SCALE
  5
585
102
{ACAD_REACTORS
330
579
102
}
330
579
100
AcDbScale
 70
     0
300
1:100
140
1.0
141
100.0
290
     0
  0
SCALE
  5
586
102
{ACAD_REACTORS
330
579
102
}
330
579
100
AcDbScale
 70
     0
300
2:1
140
2.0
141
1.0
290
     0
  0
SCALE
  5
587
102
{ACAD_REACTORS
330
579
102
}
330
579
100
AcDbScale
 70
     0
300
4:1
140
4.0
141
1.0
290
     0
  0
SCALE
  5
588
102
{ACAD_REACTORS
330
579
102
}
330
579
100
AcDbScale
 70
     0
300
8:1
140
8.0
141
1.0
290
     0
  0
SCALE
  5
589
102
{ACAD_REACTORS
330
579
102
}
330
579
100
AcDbScale
 70
     0
300
10:1
140
10.0
141
1.0
290
     0
  0
SCALE
  5
58A
102
{ACAD_REACTORS
330
579
102
}
330
579
100
AcDbScale
 70
     0
300
100:1
140
100.0
141
1.0
290
     0
  0
SCALE
  5
58B
102
{ACAD_REACTORS
330
579
102
}
330
579
100
AcDbScale
 70
     0
300
1/128" = 1'-0"
140
0.0078125
141
12.0
290
     0
  0
SCALE
  5
58C
102
{ACAD_REACTORS
330
579
102
}
330
579
100
AcDbScale
 70
     0
300
1/64" = 1'-0"
140
0.015625
141
12.0
290
     0
  0
SCALE
  5
58D
102
{ACAD_REACTORS
330
579
102
}
330
579
100
AcDbScale
 70
     0
300
1/32" = 1'-0"
140
0.03125
141
12.0
290
     0
  0
SCALE
  5
58E
102
{ACAD_REACTORS
330
579
102
}
330
579
100
AcDbScale
 70
     0
300
1/16" = 1'-0"
140
0.0625
141
12.0
290
     0
  0
SCALE
  5
58F
102
{ACAD_REACTORS
330
579
102
}
330
579
100
AcDbScale
 70
     0
300
3/32" = 1'-0"
140
0.09375
141
12.0
290
     0
  0
SCALE
  5
590
102
{ACAD_REACTORS
330
579
102
}
330
579
100
AcDbScale
 70
     0
300
1/8" = 1'-0"
140
0.125
141
12.0
290
     0
  0
SCALE
  5
591
102
{ACAD_REACTORS
330
579
102
}
330
579
100
AcDbScale
 70
     0
300
3/16" = 1'-0"
140
0.1875
141
12.0
290
     0
  0
SCALE
  5
592
102
{ACAD_REACTORS
330
579
102
}
330
579
100
AcDbScale
 70
     0
300
1/4" = 1'-0"
140
0.25
141
12.0
290
     0
  0
SCALE
  5
593
102
{ACAD_REACTORS
330
579
102
}
330
579
100
AcDbScale
 70
     0
300
3/8" = 1'-0"
140
0.375
141
12.0
290
     0
  0
SCALE
  5
594
102
{ACAD_REACTORS
330
579
102
}
330
579
100
AcDbScale
 70
     0
300
1/2" = 1'-0"
140
0.5
141
12.0
290
     0
  0
SCALE
  5
595
102
{ACAD_REACTORS
330
579
102
}
330
579
100
AcDbScale
 70
     0
300
3/4" = 1'-0"
140
0.75
141
12.0
290
     0
  0
SCALE
  5
596
102
{ACAD_REACTORS
330
579
102
}
330
579
100
AcDbScale
 70
     0
300
1" = 1'-0"
140
1.0
141
12.0
290
     0
  0
SCALE
  5
597
102
{ACAD_REACTORS
330
579
102
}
330
579
100
AcDbScale
 70
     0
300
1-1/2" = 1'-0"
140
1.5
141
12.0
290
     0
  0
SCALE
  5
598
102
{ACAD_REACTORS
330
579
102
}
330
579
100
AcDbScale
 70
     0
300
3" = 1'-0"
140
3.0
141
12.0
290
     0
  0
SCALE
  5
599
102
{ACAD_REACTORS
330
579
102
}
330
579
100
AcDbScale
 70
     0
300
6" = 1'-0"
140
6.0
141
12.0
290
     0
  0
SCALE
  5
59A
102
{ACAD_REACTORS
330
579
102
}
330
579
100
AcDbScale
 70
     0
300
1'-0" = 1'-0"
140
12.0
141
12.0
290
     0
  0
VISUALSTYLE
  5
2F
102
{ACAD_REACTORS
330
2A
102
}
102
{ACAD_XDICTIONARY
360
5A9
102
}
330
2A
100
AcDbVisualStyle
  2
2dWireframe
 70
     4
 71
     0
 72
     2
 73
     0
 90
        0
 40
-0.6
 41
-30.0
 62
     5
 63
     7
 74
     1
 91
        4
 64
     7
 65
   257
 75
     1
175
     1
 42
1.0
 92
        0
 66
   257
 43
1.0
 76
     1
 77
     6
 78
     2
 67
     7
 79
     5
170
     0
171
     0
290
     0
174
     0
 93
        1
 44
0.0
173
     0
291
     0
 45
0.0
1001
ACAD
1000
AcDbSavedByObjectVersion
1070
     0
  0
VISUALSTYLE
  5
31
102
{ACAD_REACTORS
330
2A
102
}
102
{ACAD_XDICTIONARY
360
5AD
102
}
330
2A
100
AcDbVisualStyle
  2
3D Hidden
 70
     6
 71
     1
 72
     2
 73
     2
 90
        0
 40
-0.6
 41
-30.0
 62
     5
 63
     7
 74
     2
 91
        2
 64
     7
 65
   257
 75
     2
175
     1
 42
40.0
 92
        0
 66
   257
 43
1.0
 76
     1
 77
     6
 78
     2
 67
     7
 79
     3
170
     0
171
     0
290
     0
174
     0
 93
        1
 44
0.0
173
     0
291
     0
 45
0.0
1001
ACAD
1000
AcDbSavedByObjectVersion
1070
     0
  0
VISUALSTYLE
  5
30
102
{ACAD_REACTORS
330
2A
102
}
102
{ACAD_XDICTIONARY
360
5AB
102
}
330
2A
100
AcDbVisualStyle
  2
3dWireframe
 70
     5
 71
     0
 72
     2
 73
     0
 90
        0
 40
-0.6
 41
-30.0
 62
     5
 63
     7
 74
     1
 91
        4
 64
     7
 65
   257
 75
     1
175
     1
 42
1.0
 92
        0
 66
   257
 43
1.0
 76
     1
 77
     6
 78
     2
 67
     7
 79
     5
170
     0
171
     0
290
     0
174
     0
 93
        1
 44
0.0
173
     0
291
     0
 45
0.0
1001
ACAD
1000
AcDbSavedByObjectVersion
1070
     0
  0
VISUALSTYLE
  5
32
102
{ACAD_REACTORS
330
2A
102
}
102
{ACAD_XDICTIONARY
360
5AF
102
}
330
2A
100
AcDbVisualStyle
  2
Basic
 70
     7
 71
     1
 72
     0
 73
     1
 90
        0
 40
-0.6
 41
-30.0
 62
     5
 63
     7
 74
     0
 91
        4
 64
     7
 65
   257
 75
     1
175
     1
 42
1.0
 92
        8
 66
     7
 43
1.0
 76
     1
 77
     6
 78
     2
 67
     7
 79
     5
170
     0
171
     0
290
     0
174
     0
 93
        1
 44
0.0
173
     0
291
     1
 45
0.0
1001
ACAD
1000
AcDbSavedByObjectVersion
1070
     0
  0
VISUALSTYLE
  5
36
102
{ACAD_REACTORS
330
2A
102
}
102
{ACAD_XDICTIONARY
360
5B7
102
}
330
2A
100
AcDbVisualStyle
  2
Brighten
 70
    12
 71
     2
 72
     2
 73
     0
 90
        0
 40
-0.6
 41
-30.0
 62
     5
 63
     7
 74
     1
 91
        4
 64
     7
 65
   257
 75
     1
175
     1
 42
1.0
 92
        8
 66
     7
 43
1.0
 76
     1
 77
     6
 78
     2
 67
     7
 79
     5
170
     0
171
     0
290
     0
174
     0
 93
        1
 44
50.0
173
     0
291
     1
 45
0.0
1001
ACAD
1000
AcDbSavedByObjectVersion
1070
     0
  0
VISUALSTYLE
  5
3A
102
{ACAD_REACTORS
330
2A
102
}
102
{ACAD_XDICTIONARY
360
5BF
102
}
330
2A
100
AcDbVisualStyle
  2
ColorChange
 70
    16
 71
     2
 72
     2
 73
     3
 90
        0
 40
-0.6
 41
-30.0
 62
     5
 63
     8
 74
     1
 91
        4
 64
     7
 65
   257
 75
     1
175
     1
 42
1.0
 92
        8
 66
     8
 43
1.0
 76
     1
 77
     6
 78
     2
 67
     7
 79
     5
170
     0
171
     0
290
     0
174
     0
 93
        1
 44
0.0
173
     0
291
     1
 45
0.0
1001
ACAD
1000
AcDbSavedByObjectVersion
1070
     0
  0
VISUALSTYLE
  5
34
102
{ACAD_REACTORS
330
2A
102
}
102
{ACAD_XDICTIONARY
360
5B3
102
}
330
2A
100
AcDbVisualStyle
  2
Conceptual
 70
     9
 71
     3
 72
     2
 73
     0
 90
        0
 40
-0.6
 41
-30.0
 62
     5
 63
     7
 74
     2
 91
        2
 64
     7
 65
   257
 75
     1
175
     1
 42
40.0
 92
        8
 66
     7
 43
1.0
 76
     1
 77
     6
 78
     2
 67
     7
 79
     3
170
     0
171
     0
290
     0
174
     0
 93
        1
 44
0.0
173
     0
291
     0
 45
0.0
1001
ACAD
1000
AcDbSavedByObjectVersion
1070
     0
  0
VISUALSTYLE
  5
35
102
{ACAD_REACTORS
330
2A
102
}
102
{ACAD_XDICTIONARY
360
5B5
102
}
330
2A
100
AcDbVisualStyle
  2
Dim
 70
    11
 71
     2
 72
     2
 73
     0
 90
        0
 40
-0.6
 41
-30.0
 62
     5
 63
     7
 74
     1
 91
        4
 64
     7
 65
   257
 75
     1
175
     1
 42
1.0
 92
        8
 66
     7
 43
1.0
 76
     1
 77
     6
 78
     2
 67
     7
 79
     5
170
     0
171
     0
290
     0
174
     0
 93
        1
 44
-50.0
173
     0
291
     1
 45
0.0
1001
ACAD
1000
AcDbSavedByObjectVersion
1070
     0
  0
VISUALSTYLE
  5
39
102
{ACAD_REACTORS
330
2A
102
}
102
{ACAD_XDICTIONARY
360
5BD
102
}
330
2A
100
AcDbVisualStyle
  2
Facepattern
 70
    15
 71
     2
 72
     2
 73
     0
 90
        0
 40
-0.6
 41
-30.0
 62
     5
 63
     7
 74
     1
 91
        4
 64
     7
 65
   257
 75
     1
175
     1
 42
1.0
 92
        8
 66
     7
 43
1.0
 76
     1
 77
     6
 78
     2
 67
     7
 79
     5
170
     0
171
     0
290
     0
174
     0
 93
        1
 44
0.0
173
     0
291
     1
 45
0.0
1001
ACAD
1000
AcDbSavedByObjectVersion
1070
     0
  0
VISUALSTYLE
  5
2B
102
{ACAD_REACTORS
330
2A
102
}
102
{ACAD_XDICTIONARY
360
5A1
102
}
330
2A
100
AcDbVisualStyle
  2
Flat
 70
     0
 71
     2
 72
     1
 73
     1
 90
        2
 40
-0.6
 41
30.0
 62
     5
 63
     7
 74
     0
 91
        4
 64
     7
 65
   257
 75
     1
175
     1
 42
1.0
 92
        8
 66
     7
 43
1.0
 76
     1
 77
     6
 78
     2
 67
     7
 79
     5
170
     0
171
     0
290
     0
174
     0
 93
       13
 44
0.0
173
     0
291
     1
 45
0.0
1001
ACAD
1000
AcDbSavedByObjectVersion
1070
     0
  0
VISUALSTYLE
  5
2C
102
{ACAD_REACTORS
330
2A
102
}
102
{ACAD_XDICTIONARY
360
5A3
102
}
330
2A
100
AcDbVisualStyle
  2
FlatWithEdges
 70
     1
 71
     2
 72
     1
 73
     1
 90
        2
 40
-0.6
 41
30.0
 62
     5
 63
     7
 74
     1
 91
        4
 64
     7
 65
   257
 75
     1
175
     1
 42
1.0
 92
        0
 66
   257
 43
1.0
 76
     1
 77
     6
 78
     2
 67
     7
 79
     5
170
     0
171
     0
290
     0
174
     0
 93
       13
 44
0.0
173
     0
291
     1
 45
0.0
1001
ACAD
1000
AcDbSavedByObjectVersion
1070
     0
  0
VISUALSTYLE
  5
2D
102
{ACAD_REACTORS
330
2A
102
}
102
{ACAD_XDICTIONARY
360
5A5
102
}
330
2A
100
AcDbVisualStyle
  2
Gouraud
 70
     2
 71
     2
 72
     2
 73
     1
 90
        2
 40
-0.6
 41
30.0
 62
     5
 63
     7
 74
     0
 91
        4
 64
     7
 65
   257
 75
     1
175
     1
 42
1.0
 92
        0
 66
     7
 43
1.0
 76
     1
 77
     6
 78
     2
 67
     7
 79
     5
170
     0
171
     0
290
     0
174
     0
 93
       13
 44
0.0
173
     0
291
     1
 45
0.0
1001
ACAD
1000
AcDbSavedByObjectVersion
1070
     0
  0
VISUALSTYLE
  5
2E
102
{ACAD_REACTORS
330
2A
102
}
102
{ACAD_XDICTIONARY
360
5A7
102
}
330
2A
100
AcDbVisualStyle
  2
GouraudWithEdges
 70
     3
 71
     2
 72
     2
 73
     1
 90
        2
 40
-0.6
 41
30.0
 62
     5
 63
     7
 74
     1
 91
        4
 64
     7
 65
   257
 75
     1
175
     1
 42
1.0
 92
        0
 66
   257
 43
1.0
 76
     1
 77
     6
 78
     2
 67
     7
 79
     5
170
     0
171
     0
290
     0
174
     0
 93
       13
 44
0.0
173
     0
291
     1
 45
0.0
1001
ACAD
1000
AcDbSavedByObjectVersion
1070
     0
  0
VISUALSTYLE
  5
38
102
{ACAD_REACTORS
330
2A
102
}
102
{ACAD_XDICTIONARY
360
5BB
102
}
330
2A
100
AcDbVisualStyle
  2
Linepattern
 70
    14
 71
     2
 72
     2
 73
     0
 90
        0
 40
-0.6
 41
-30.0
 62
     5
 63
     7
 74
     1
 91
        4
 64
     7
 65
   257
 75
     7
175
     7
 42
1.0
 92
        8
 66
     7
 43
1.0
 76
     1
 77
     6
 78
     2
 67
     7
 79
     5
170
     0
171
     0
290
     0
174
     0
 93
        1
 44
0.0
173
     0
291
     1
 45
0.0
1001
ACAD
1000
AcDbSavedByObjectVersion
1070
     0
  0
VISUALSTYLE
  5
33
102
{ACAD_REACTORS
330
2A
102
}
102
{ACAD_XDICTIONARY
360
5B1
102
}
330
2A
100
AcDbVisualStyle
  2
Realistic
 70
     8
 71
     2
 72
     2
 73
     0
 90
        0
 40
-0.6
 41
-30.0
 62
     5
 63
     7
 74
     1
 91
        0
 64
     7
 65
   257
 75
     1
175
     1
 42
1.0
 92
        8
 66
     8
 43
1.0
 76
     1
 77
     6
 78
     2
 67
     7
 79
     5
170
     0
171
     0
290
     0
174
     0
 93
       13
 44
0.0
173
     0
291
     0
 45
0.0
1001
ACAD
1000
AcDbSavedByObjectVersion
1070
     0
  0
VISUALSTYLE
  5
37
102
{ACAD_REACTORS
330
2A
102
}
102
{ACAD_XDICTIONARY
360
5B9
102
}
330
2A
100
AcDbVisualStyle
  2
Thicken
 70
    13
 71
     2
 72
     2
 73
     0
 90
        0
 40
-0.6
 41
-30.0
 62
     5
 63
     7
 74
     1
 91
        4
 64
     7
 65
   257
 75
     1
175
     1
 42
1.0
 92
       12
 66
     7
 43
1.0
 76
     1
 77
     6
 78
     2
 67
     7
 79
     5
170
     0
171
     0
290
     0
174
     0
 93
        1
 44
0.0
173
     0
291
     1
 45
0.0
1001
ACAD
1000
AcDbSavedByObjectVersion
1070
     0
  0
DICTIONARYVAR
  5
59E
102
{ACAD_REACTORS
330
59B
102
}
330
59B
100
DictionaryVariables
280
     0
  1
1:1
  0
DICTIONARYVAR
  5
59F
102
{ACAD_REACTORS
330
59B
102
}
330
59B
100
DictionaryVariables
280
     0
  1
2
  0
DICTIONARYVAR
  5
5A0
102
{ACAD_REACTORS
330
59B
102
}
330
59B
100
DictionaryVariables
280
     0
  1
1
  0
DICTIONARY
  5
5C3
330
3D
100
AcDbDictionary
280
     1
281
     1
  3
ACAD_XREC_ROUNDTRIP
360
5C4
  0
DICTIONARY
  5
5C1
330
3C
100
AcDbDictionary
280
     1
281
     1
  3
ACAD_XREC_ROUNDTRIP
360
5C2
  0
DICTIONARY
  5
5C5
330
3E
100
AcDbDictionary
280
     1
281
     1
  3
ACAD_XREC_ROUNDTRIP
360
5C6
  0
DICTIONARY
  5
5A9
330
2F
100
AcDbDictionary
280
     1
281
     1
  3
ACAD_XREC_ROUNDTRIP
360
5AA
  0
DICTIONARY
  5
5AD
330
31
100
AcDbDictionary
280
     1
281
     1
  3
ACAD_XREC_ROUNDTRIP
360
5AE
  0
DICTIONARY
  5
5AB
330
30
100
AcDbDictionary
280
     1
281
     1
  3
ACAD_XREC_ROUNDTRIP
360
5AC
  0
DICTIONARY
  5
5AF
330
32
100
AcDbDictionary
280
     1
281
     1
  3
ACAD_XREC_ROUNDTRIP
360
5B0
  0
DICTIONARY
  5
5B7
330
36
100
AcDbDictionary
280
     1
281
     1
  3
ACAD_XREC_ROUNDTRIP
360
5B8
  0
DICTIONARY
  5
5BF
330
3A
100
AcDbDictionary
280
     1
281
     1
  3
ACAD_XREC_ROUNDTRIP
360
5C0
  0
DICTIONARY
  5
5B3
330
34
100
AcDbDictionary
280
     1
281
     1
  3
ACAD_XREC_ROUNDTRIP
360
5B4
  0
DICTIONARY
  5
5B5
330
35
100
AcDbDictionary
280
     1
281
     1
  3
ACAD_XREC_ROUNDTRIP
360
5B6
  0
DICTIONARY
  5
5BD
330
39
100
AcDbDictionary
280
     1
281
     1
  3
ACAD_XREC_ROUNDTRIP
360
5BE
  0
DICTIONARY
  5
5A1
330
2B
100
AcDbDictionary
280
     1
281
     1
  3
ACAD_XREC_ROUNDTRIP
360
5A2
  0
DICTIONARY
  5
5A3
330
2C
100
AcDbDictionary
280
     1
281
     1
  3
ACAD_XREC_ROUNDTRIP
360
5A4
  0
DICTIONARY
  5
5A5
330
2D
100
AcDbDictionary
280
     1
281
     1
  3
ACAD_XREC_ROUNDTRIP
360
5A6
  0
DICTIONARY
  5
5A7
330
2E
100
AcDbDictionary
280
     1
281
     1
  3
ACAD_XREC_ROUNDTRIP
360
5A8
  0
DICTIONARY
  5
5BB
330
38
100
AcDbDictionary
280
     1
281
     1
  3
ACAD_XREC_ROUNDTRIP
360
5BC
  0
DICTIONARY
  5
5B1
330
33
100
AcDbDictionary
280
     1
281
     1
  3
ACAD_XREC_ROUNDTRIP
360
5B2
  0
DICTIONARY
  5
5B9
330
37
100
AcDbDictionary
280
     1
281
     1
  3
ACAD_XREC_ROUNDTRIP
360
5BA
  0
XRECORD
  5
5C4
102
{ACAD_REACTORS
330
5C3
102
}
330
5C3
100
AcDbXrecord
280
     1
102
MATERIAL
148
0.0
149
0.0
149
0.0
 93
        0
 94
      127
282
     0
 72
     1
 77
     1
171
     1
175
     1
179
     1
273
     0
  0
XRECORD
  5
5C2
102
{ACAD_REACTORS
330
5C1
102
}
330
5C1
100
AcDbXrecord
280
     1
102
MATERIAL
148
0.0
149
0.0
149
0.0
 93
        0
 94
      127
282
     0
 72
     1
 77
     1
171
     1
175
     1
179
     1
273
     0
  0
XRECORD
  5
5C6
102
{ACAD_REACTORS
330
5C5
102
}
330
5C5
100
AcDbXrecord
280
     1
102
MATERIAL
148
0.0
149
0.0
149
0.0
 93
        0
 94
      127
282
     0
 72
     1
 77
     1
171
     1
175
     1
179
     1
273
     0
  0
XRECORD
  5
5AA
102
{ACAD_REACTORS
330
5A9
102
}
330
5A9
100
AcDbXrecord
280
     1
102
RTVSPropertyOp0
 70
     1
102
RTVSPropertyOp1
 70
     1
102
RTVSPropertyOp2
 70
     1
102
RTVSPropertyOp3
 70
     1
102
RTVSPropertyOp4
 70
     1
102
RTVSPropertyOp5
 70
     1
102
RTVSPropertyOp6
 70
     1
102
RTVSPropertyOp7
 70
     1
102
RTVSPropertyOp8
 70
     1
102
RTVSPropertyOp9
 70
     1
102
RTVSPropertyOp10
 70
     1
102
RTVSPropertyOp11
 70
     1
102
RTVSPropertyOp12
 70
     1
102
RTVSPropertyOp13
 70
     1
102
RTVSPropertyOp14
 70
     1
102
RTVSPropertyOp15
 70
     1
102
RTVSPropertyOp16
 70
     1
102
RTVSPropertyOp17
 70
     1
102
RTVSPropertyOp18
 70
     1
102
RTVSPropertyOp19
 70
     1
102
RTVSPropertyOp20
 70
     1
102
RTVSPropertyOp21
 70
     1
102
RTVSPropertyOp22
 70
     1
102
RTVSPropertyOp23
 70
     1
102
RTVSPropertyOp24
 70
     1
102
RTVSPropertyOp25
 70
     1
102
RTVSPropertyOp26
 70
     1
102
RTVSPropertyOp27
 70
     1
  0
XRECORD
  5
5AE
102
{ACAD_REACTORS
330
5AD
102
}
330
5AD
100
AcDbXrecord
280
     1
102
RTVSPropertyOp0
 70
     1
102
RTVSPropertyOp1
 70
     1
102
RTVSPropertyOp2
 70
     1
102
RTVSPropertyOp3
 70
     1
102
RTVSPropertyOp4
 70
     1
102
RTVSPropertyOp5
 70
     1
102
RTVSPropertyOp6
 70
     1
102
RTVSPropertyOp7
 70
     1
102
RTVSPropertyOp8
 70
     1
102
RTVSPropertyOp9
 70
     1
102
RTVSPropertyOp10
 70
     1
102
RTVSPropertyOp11
 70
     1
102
RTVSPropertyOp12
 70
     1
102
RTVSPropertyOp13
 70
     1
102
RTVSPropertyOp14
 70
     1
102
RTVSPropertyOp15
 70
     1
102
RTVSPropertyOp16
 70
     1
102
RTVSPropertyOp17
 70
     1
102
RTVSPropertyOp18
 70
     1
102
RTVSPropertyOp19
 70
     1
102
RTVSPropertyOp20
 70
     1
102
RTVSPropertyOp21
 70
     1
102
RTVSPropertyOp22
 70
     1
102
RTVSPropertyOp23
 70
     1
102
RTVSPropertyOp24
 70
     1
102
RTVSPropertyOp25
 70
     1
102
RTVSPropertyOp26
 70
     1
102
RTVSPropertyOp27
 70
     1
  0
XRECORD
  5
5AC
102
{ACAD_REACTORS
330
5AB
102
}
330
5AB
100
AcDbXrecord
280
     1
102
RTVSPropertyOp0
 70
     1
102
RTVSPropertyOp1
 70
     1
102
RTVSPropertyOp2
 70
     1
102
RTVSPropertyOp3
 70
     1
102
RTVSPropertyOp4
 70
     1
102
RTVSPropertyOp5
 70
     1
102
RTVSPropertyOp6
 70
     1
102
RTVSPropertyOp7
 70
     1
102
RTVSPropertyOp8
 70
     1
102
RTVSPropertyOp9
 70
     1
102
RTVSPropertyOp10
 70
     1
102
RTVSPropertyOp11
 70
     1
102
RTVSPropertyOp12
 70
     1
102
RTVSPropertyOp13
 70
     1
102
RTVSPropertyOp14
 70
     1
102
RTVSPropertyOp15
 70
     1
102
RTVSPropertyOp16
 70
     1
102
RTVSPropertyOp17
 70
     1
102
RTVSPropertyOp18
 70
     1
102
RTVSPropertyOp19
 70
     1
102
RTVSPropertyOp20
 70
     1
102
RTVSPropertyOp21
 70
     1
102
RTVSPropertyOp22
 70
     1
102
RTVSPropertyOp23
 70
     1
102
RTVSPropertyOp24
 70
     1
102
RTVSPropertyOp25
 70
     1
102
RTVSPropertyOp26
 70
     1
102
RTVSPropertyOp27
 70
     1
  0
XRECORD
  5
5B0
102
{ACAD_REACTORS
330
5AF
102
}
330
5AF
100
AcDbXrecord
280
     1
102
RTVSPropertyOp0
 70
     1
102
RTVSPropertyOp1
 70
     1
102
RTVSPropertyOp2
 70
     1
102
RTVSPropertyOp3
 70
     1
102
RTVSPropertyOp4
 70
     1
102
RTVSPropertyOp5
 70
     1
102
RTVSPropertyOp6
 70
     1
102
RTVSPropertyOp7
 70
     1
102
RTVSPropertyOp8
 70
     1
102
RTVSPropertyOp9
 70
     1
102
RTVSPropertyOp10
 70
     1
102
RTVSPropertyOp11
 70
     1
102
RTVSPropertyOp12
 70
     1
102
RTVSPropertyOp13
 70
     1
102
RTVSPropertyOp14
 70
     1
102
RTVSPropertyOp15
 70
     1
102
RTVSPropertyOp16
 70
     1
102
RTVSPropertyOp17
 70
     1
102
RTVSPropertyOp18
 70
     1
102
RTVSPropertyOp19
 70
     1
102
RTVSPropertyOp20
 70
     1
102
RTVSPropertyOp21
 70
     1
102
RTVSPropertyOp22
 70
     1
102
RTVSPropertyOp23
 70
     1
102
RTVSPropertyOp24
 70
     1
102
RTVSPropertyOp25
 70
     1
102
RTVSPropertyOp26
 70
     1
102
RTVSPropertyOp27
 70
     1
  0
XRECORD
  5
5B8
102
{ACAD_REACTORS
330
5B7
102
}
330
5B7
100
AcDbXrecord
280
     1
102
RTVSPropertyOp0
 70
     1
102
RTVSPropertyOp1
 70
     1
102
RTVSPropertyOp2
 70
     1
102
RTVSPropertyOp3
 70
     1
102
RTVSPropertyOp4
 70
     1
102
RTVSPropertyOp5
 70
     1
102
RTVSPropertyOp6
 70
     1
102
RTVSPropertyOp7
 70
     1
102
RTVSPropertyOp8
 70
     1
102
RTVSPropertyOp9
 70
     1
102
RTVSPropertyOp10
 70
     1
102
RTVSPropertyOp11
 70
     1
102
RTVSPropertyOp12
 70
     1
102
RTVSPropertyOp13
 70
     1
102
RTVSPropertyOp14
 70
     1
102
RTVSPropertyOp15
 70
     1
102
RTVSPropertyOp16
 70
     1
102
RTVSPropertyOp17
 70
     1
102
RTVSPropertyOp18
 70
     1
102
RTVSPropertyOp19
 70
     1
102
RTVSPropertyOp20
 70
     1
102
RTVSPropertyOp21
 70
     1
102
RTVSPropertyOp22
 70
     1
102
RTVSPropertyOp23
 70
     1
102
RTVSPropertyOp24
 70
     1
102
RTVSPropertyOp25
 70
     1
102
RTVSPropertyOp26
 70
     1
102
RTVSPropertyOp27
 70
     1
  0
XRECORD
  5
5C0
102
{ACAD_REACTORS
330
5BF
102
}
330
5BF
100
AcDbXrecord
280
     1
102
RTVSPropertyOp0
 70
     1
102
RTVSPropertyOp1
 70
     1
102
RTVSPropertyOp2
 70
     1
102
RTVSPropertyOp3
 70
     1
102
RTVSPropertyOp4
 70
     1
102
RTVSPropertyOp5
 70
     1
102
RTVSPropertyOp6
 70
     1
102
RTVSPropertyOp7
 70
     1
102
RTVSPropertyOp8
 70
     1
102
RTVSPropertyOp9
 70
     1
102
RTVSPropertyOp10
 70
     1
102
RTVSPropertyOp11
 70
     1
102
RTVSPropertyOp12
 70
     1
102
RTVSPropertyOp13
 70
     1
102
RTVSPropertyOp14
 70
     1
102
RTVSPropertyOp15
 70
     1
102
RTVSPropertyOp16
 70
     1
102
RTVSPropertyOp17
 70
     1
102
RTVSPropertyOp18
 70
     1
102
RTVSPropertyOp19
 70
     1
102
RTVSPropertyOp20
 70
     1
102
RTVSPropertyOp21
 70
     1
102
RTVSPropertyOp22
 70
     1
102
RTVSPropertyOp23
 70
     1
102
RTVSPropertyOp24
 70
     1
102
RTVSPropertyOp25
 70
     1
102
RTVSPropertyOp26
 70
     1
102
RTVSPropertyOp27
 70
     1
  0
XRECORD
  5
5B4
102
{ACAD_REACTORS
330
5B3
102
}
330
5B3
100
AcDbXrecord
280
     1
102
RTVSPropertyOp0
 70
     1
102
RTVSPropertyOp1
 70
     1
102
RTVSPropertyOp2
 70
     1
102
RTVSPropertyOp3
 70
     1
102
RTVSPropertyOp4
 70
     1
102
RTVSPropertyOp5
 70
     1
102
RTVSPropertyOp6
 70
     1
102
RTVSPropertyOp7
 70
     1
102
RTVSPropertyOp8
 70
     1
102
RTVSPropertyOp9
 70
     1
102
RTVSPropertyOp10
 70
     1
102
RTVSPropertyOp11
 70
     1
102
RTVSPropertyOp12
 70
     1
102
RTVSPropertyOp13
 70
     1
102
RTVSPropertyOp14
 70
     1
102
RTVSPropertyOp15
 70
     1
102
RTVSPropertyOp16
 70
     1
102
RTVSPropertyOp17
 70
     1
102
RTVSPropertyOp18
 70
     1
102
RTVSPropertyOp19
 70
     1
102
RTVSPropertyOp20
 70
     1
102
RTVSPropertyOp21
 70
     1
102
RTVSPropertyOp22
 70
     1
102
RTVSPropertyOp23
 70
     1
102
RTVSPropertyOp24
 70
     1
102
RTVSPropertyOp25
 70
     1
102
RTVSPropertyOp26
 70
     1
102
RTVSPropertyOp27
 70
     1
  0
XRECORD
  5
5B6
102
{ACAD_REACTORS
330
5B5
102
}
330
5B5
100
AcDbXrecord
280
     1
102
RTVSPropertyOp0
 70
     1
102
RTVSPropertyOp1
 70
     1
102
RTVSPropertyOp2
 70
     1
102
RTVSPropertyOp3
 70
     1
102
RTVSPropertyOp4
 70
     1
102
RTVSPropertyOp5
 70
     1
102
RTVSPropertyOp6
 70
     1
102
RTVSPropertyOp7
 70
     1
102
RTVSPropertyOp8
 70
     1
102
RTVSPropertyOp9
 70
     1
102
RTVSPropertyOp10
 70
     1
102
RTVSPropertyOp11
 70
     1
102
RTVSPropertyOp12
 70
     1
102
RTVSPropertyOp13
 70
     1
102
RTVSPropertyOp14
 70
     1
102
RTVSPropertyOp15
 70
     1
102
RTVSPropertyOp16
 70
     1
102
RTVSPropertyOp17
 70
     1
102
RTVSPropertyOp18
 70
     1
102
RTVSPropertyOp19
 70
     1
102
RTVSPropertyOp20
 70
     1
102
RTVSPropertyOp21
 70
     1
102
RTVSPropertyOp22
 70
     1
102
RTVSPropertyOp23
 70
     1
102
RTVSPropertyOp24
 70
     1
102
RTVSPropertyOp25
 70
     1
102
RTVSPropertyOp26
 70
     1
102
RTVSPropertyOp27
 70
     1
  0
XRECORD
  5
5BE
102
{ACAD_REACTORS
330
5BD
102
}
330
5BD
100
AcDbXrecord
280
     1
102
RTVSPropertyOp0
 70
     1
102
RTVSPropertyOp1
 70
     1
102
RTVSPropertyOp2
 70
     1
102
RTVSPropertyOp3
 70
     1
102
RTVSPropertyOp4
 70
     1
102
RTVSPropertyOp5
 70
     1
102
RTVSPropertyOp6
 70
     1
102
RTVSPropertyOp7
 70
     1
102
RTVSPropertyOp8
 70
     1
102
RTVSPropertyOp9
 70
     1
102
RTVSPropertyOp10
 70
     1
102
RTVSPropertyOp11
 70
     1
102
RTVSPropertyOp12
 70
     1
102
RTVSPropertyOp13
 70
     1
102
RTVSPropertyOp14
 70
     1
102
RTVSPropertyOp15
 70
     1
102
RTVSPropertyOp16
 70
     1
102
RTVSPropertyOp17
 70
     1
102
RTVSPropertyOp18
 70
     1
102
RTVSPropertyOp19
 70
     1
102
RTVSPropertyOp20
 70
     1
102
RTVSPropertyOp21
 70
     1
102
RTVSPropertyOp22
 70
     1
102
RTVSPropertyOp23
 70
     1
102
RTVSPropertyOp24
 70
     1
102
RTVSPropertyOp25
 70
     1
102
RTVSPropertyOp26
 70
     1
102
RTVSPropertyOp27
 70
     1
  0
XRECORD
  5
5A2
102
{ACAD_REACTORS
330
5A1
102
}
330
5A1
100
AcDbXrecord
280
     1
102
RTVSPropertyOp0
 70
     1
102
RTVSPropertyOp1
 70
     1
102
RTVSPropertyOp2
 70
     1
102
RTVSPropertyOp3
 70
     1
102
RTVSPropertyOp4
 70
     1
102
RTVSPropertyOp5
 70
     1
102
RTVSPropertyOp6
 70
     1
102
RTVSPropertyOp7
 70
     1
102
RTVSPropertyOp8
 70
     1
102
RTVSPropertyOp9
 70
     1
102
RTVSPropertyOp10
 70
     1
102
RTVSPropertyOp11
 70
     1
102
RTVSPropertyOp12
 70
     1
102
RTVSPropertyOp13
 70
     1
102
RTVSPropertyOp14
 70
     1
102
RTVSPropertyOp15
 70
     1
102
RTVSPropertyOp16
 70
     1
102
RTVSPropertyOp17
 70
     1
102
RTVSPropertyOp18
 70
     1
102
RTVSPropertyOp19
 70
     1
102
RTVSPropertyOp20
 70
     1
102
RTVSPropertyOp21
 70
     1
102
RTVSPropertyOp22
 70
     1
102
RTVSPropertyOp23
 70
     1
102
RTVSPropertyOp24
 70
     1
102
RTVSPropertyOp25
 70
     1
102
RTVSPropertyOp26
 70
     1
102
RTVSPropertyOp27
 70
     1
  0
XRECORD
  5
5A4
102
{ACAD_REACTORS
330
5A3
102
}
330
5A3
100
AcDbXrecord
280
     1
102
RTVSPropertyOp0
 70
     1
102
RTVSPropertyOp1
 70
     1
102
RTVSPropertyOp2
 70
     1
102
RTVSPropertyOp3
 70
     1
102
RTVSPropertyOp4
 70
     1
102
RTVSPropertyOp5
 70
     1
102
RTVSPropertyOp6
 70
     1
102
RTVSPropertyOp7
 70
     1
102
RTVSPropertyOp8
 70
     1
102
RTVSPropertyOp9
 70
     1
102
RTVSPropertyOp10
 70
     1
102
RTVSPropertyOp11
 70
     1
102
RTVSPropertyOp12
 70
     1
102
RTVSPropertyOp13
 70
     1
102
RTVSPropertyOp14
 70
     1
102
RTVSPropertyOp15
 70
     1
102
RTVSPropertyOp16
 70
     1
102
RTVSPropertyOp17
 70
     1
102
RTVSPropertyOp18
 70
     1
102
RTVSPropertyOp19
 70
     1
102
RTVSPropertyOp20
 70
     1
102
RTVSPropertyOp21
 70
     1
102
RTVSPropertyOp22
 70
     1
102
RTVSPropertyOp23
 70
     1
102
RTVSPropertyOp24
 70
     1
102
RTVSPropertyOp25
 70
     1
102
RTVSPropertyOp26
 70
     1
102
RTVSPropertyOp27
 70
     1
  0
XRECORD
  5
5A6
102
{ACAD_REACTORS
330
5A5
102
}
330
5A5
100
AcDbXrecord
280
     1
102
RTVSPropertyOp0
 70
     1
102
RTVSPropertyOp1
 70
     1
102
RTVSPropertyOp2
 70
     1
102
RTVSPropertyOp3
 70
     1
102
RTVSPropertyOp4
 70
     1
102
RTVSPropertyOp5
 70
     1
102
RTVSPropertyOp6
 70
     1
102
RTVSPropertyOp7
 70
     1
102
RTVSPropertyOp8
 70
     1
102
RTVSPropertyOp9
 70
     1
102
RTVSPropertyOp10
 70
     1
102
RTVSPropertyOp11
 70
     1
102
RTVSPropertyOp12
 70
     1
102
RTVSPropertyOp13
 70
     1
102
RTVSPropertyOp14
 70
     1
102
RTVSPropertyOp15
 70
     1
102
RTVSPropertyOp16
 70
     1
102
RTVSPropertyOp17
 70
     1
102
RTVSPropertyOp18
 70
     1
102
RTVSPropertyOp19
 70
     1
102
RTVSPropertyOp20
 70
     1
102
RTVSPropertyOp21
 70
     1
102
RTVSPropertyOp22
 70
     1
102
RTVSPropertyOp23
 70
     1
102
RTVSPropertyOp24
 70
     1
102
RTVSPropertyOp25
 70
     1
102
RTVSPropertyOp26
 70
     1
102
RTVSPropertyOp27
 70
     1
  0
XRECORD
  5
5A8
102
{ACAD_REACTORS
330
5A7
102
}
330
5A7
100
AcDbXrecord
280
     1
102
RTVSPropertyOp0
 70
     1
102
RTVSPropertyOp1
 70
     1
102
RTVSPropertyOp2
 70
     1
102
RTVSPropertyOp3
 70
     1
102
RTVSPropertyOp4
 70
     1
102
RTVSPropertyOp5
 70
     1
102
RTVSPropertyOp6
 70
     1
102
RTVSPropertyOp7
 70
     1
102
RTVSPropertyOp8
 70
     1
102
RTVSPropertyOp9
 70
     1
102
RTVSPropertyOp10
 70
     1
102
RTVSPropertyOp11
 70
     1
102
RTVSPropertyOp12
 70
     1
102
RTVSPropertyOp13
 70
     1
102
RTVSPropertyOp14
 70
     1
102
RTVSPropertyOp15
 70
     1
102
RTVSPropertyOp16
 70
     1
102
RTVSPropertyOp17
 70
     1
102
RTVSPropertyOp18
 70
     1
102
RTVSPropertyOp19
 70
     1
102
RTVSPropertyOp20
 70
     1
102
RTVSPropertyOp21
 70
     1
102
RTVSPropertyOp22
 70
     1
102
RTVSPropertyOp23
 70
     1
102
RTVSPropertyOp24
 70
     1
102
RTVSPropertyOp25
 70
     1
102
RTVSPropertyOp26
 70
     1
102
RTVSPropertyOp27
 70
     1
  0
XRECORD
  5
5BC
102
{ACAD_REACTORS
330
5BB
102
}
330
5BB
100
AcDbXrecord
280
     1
102
RTVSPropertyOp0
 70
     1
102
RTVSPropertyOp1
 70
     1
102
RTVSPropertyOp2
 70
     1
102
RTVSPropertyOp3
 70
     1
102
RTVSPropertyOp4
 70
     1
102
RTVSPropertyOp5
 70
     1
102
RTVSPropertyOp6
 70
     1
102
RTVSPropertyOp7
 70
     1
102
RTVSPropertyOp8
 70
     1
102
RTVSPropertyOp9
 70
     1
102
RTVSPropertyOp10
 70
     1
102
RTVSPropertyOp11
 70
     1
102
RTVSPropertyOp12
 70
     1
102
RTVSPropertyOp13
 70
     1
102
RTVSPropertyOp14
 70
     1
102
RTVSPropertyOp15
 70
     1
102
RTVSPropertyOp16
 70
     1
102
RTVSPropertyOp17
 70
     1
102
RTVSPropertyOp18
 70
     1
102
RTVSPropertyOp19
 70
     1
102
RTVSPropertyOp20
 70
     1
102
RTVSPropertyOp21
 70
     1
102
RTVSPropertyOp22
 70
     1
102
RTVSPropertyOp23
 70
     1
102
RTVSPropertyOp24
 70
     1
102
RTVSPropertyOp25
 70
     1
102
RTVSPropertyOp26
 70
     1
102
RTVSPropertyOp27
 70
     1
  0
XRECORD
  5
5B2
102
{ACAD_REACTORS
330
5B1
102
}
330
5B1
100
AcDbXrecord
280
     1
102
RTVSPropertyOp0
 70
     1
102
RTVSPropertyOp1
 70
     1
102
RTVSPropertyOp2
 70
     1
102
RTVSPropertyOp3
 70
     1
102
RTVSPropertyOp4
 70
     1
102
RTVSPropertyOp5
 70
     1
102
RTVSPropertyOp6
 70
     1
102
RTVSPropertyOp7
 70
     1
102
RTVSPropertyOp8
 70
     1
102
RTVSPropertyOp9
 70
     1
102
RTVSPropertyOp10
 70
     1
102
RTVSPropertyOp11
 70
     1
102
RTVSPropertyOp12
 70
     1
102
RTVSPropertyOp13
 70
     1
102
RTVSPropertyOp14
 70
     1
102
RTVSPropertyOp15
 70
     1
102
RTVSPropertyOp16
 70
     1
102
RTVSPropertyOp17
 70
     1
102
RTVSPropertyOp18
 70
     1
102
RTVSPropertyOp19
 70
     1
102
RTVSPropertyOp20
 70
     1
102
RTVSPropertyOp21
 70
     1
102
RTVSPropertyOp22
 70
     1
102
RTVSPropertyOp23
 70
     1
102
RTVSPropertyOp24
 70
     1
102
RTVSPropertyOp25
 70
     1
102
RTVSPropertyOp26
 70
     1
102
RTVSPropertyOp27
 70
     1
  0
XRECORD
  5
5BA
102
{ACAD_REACTORS
330
5B9
102
}
330
5B9
100
AcDbXrecord
280
     1
102
RTVSPropertyOp0
 70
     1
102
RTVSPropertyOp1
 70
     1
102
RTVSPropertyOp2
 70
     1
102
RTVSPropertyOp3
 70
     1
102
RTVSPropertyOp4
 70
     1
102
RTVSPropertyOp5
 70
     1
102
RTVSPropertyOp6
 70
     1
102
RTVSPropertyOp7
 70
     1
102
RTVSPropertyOp8
 70
     1
102
RTVSPropertyOp9
 70
     1
102
RTVSPropertyOp10
 70
     1
102
RTVSPropertyOp11
 70
     1
102
RTVSPropertyOp12
 70
     1
102
RTVSPropertyOp13
 70
     1
102
RTVSPropertyOp14
 70
     1
102
RTVSPropertyOp15
 70
     1
102
RTVSPropertyOp16
 70
     1
102
RTVSPropertyOp17
 70
     1
102
RTVSPropertyOp18
 70
     1
102
RTVSPropertyOp19
 70
     1
102
RTVSPropertyOp20
 70
     1
102
RTVSPropertyOp21
 70
     1
102
RTVSPropertyOp22
 70
     1
102
RTVSPropertyOp23
 70
     1
102
RTVSPropertyOp24
 70
     1
102
RTVSPropertyOp25
 70
     1
102
RTVSPropertyOp26
 70
     1
102
RTVSPropertyOp27
 70
     1
  0
ENDSEC
  0
EOF
