  0
SECTION
  2
HEADER
  9
$ACADVER
  1
AC1015
  9
$ACADMAINTVER
 70
     6
  9
$DWGCODEPAGE
  3
ANSI_932
  9
$INSBASE
 10
0.0
 20
0.0
 30
0.0
  9
$EXTMIN
 10
-536.4000052809715
 20
-362.9000034928322
 30
0.0
  9
$EXTMAX
 10
526.800010561943
 20
340.3000069856644
 30
0.0
  9
$LIMMIN
 10
-182.0
 20
-128.5
  9
$LIMMAX
 10
182.0
 20
128.5
  9
$ORTHOMODE
 70
     0
  9
$REGENMODE
 70
     1
  9
$FILLMODE
 70
     1
  9
$QTEXTMODE
 70
     0
  9
$MIRRTEXT
 70
     1
  9
$LTSCALE
 40
0.25
  9
$ATTMODE
 70
     1
  9
$TEXTSIZE
 40
0.2
  9
$TRACEWID
 40
0.05
  9
$TEXTSTYLE
  7
Standard
  9
$CLAYER
  8
0
  9
$CELTYPE
  6
ByLayer
  9
$CECOLOR
 62
   256
  9
$CELTSCALE
 40
1.0
  9
$DISPSILH
 70
     0
  9
$DIMSCALE
 40
1.0
  9
$DIMASZ
 40
3.000001882570243
  9
$DIMEXO
 40
1.0
  9
$DIMDLI
 40
10.0
  9
$DIMRND
 40
0.0
  9
$DIMDLE
 40
0.0
  9
$DIMEXE
 40
1.0
  9
$DIMTP
 40
0.0
  9
$DIMTM
 40
0.0
  9
$DIMTXT
 40
3.0
  9
$DIMCEN
 40
0.0
  9
$DIMTSZ
 40
0.0
  9
$DIMTOL
 70
     0
  9
$DIMLIM
 70
     0
  9
$DIMTIH
 70
     0
  9
$DIMTOH
 70
     0
  9
$DIMSE1
 70
     0
  9
$DIMSE2
 70
     0
  9
$DIMTAD
 70
     1
  9
$DIMZIN
 70
     8
  9
$DIMBLK
  1

  9
$DIMASO
 70
     1
  9
$DIMSHO
 70
     1
  9
$DIMPOST
  1

  9
$DIMAPOST
  1

  9
$DIMALT
 70
     0
  9
$DIMALTD
 70
     2
  9
$DIMALTF
 40
25.4
  9
$DIMLFAC
 40
1.0
  9
$DIMTOFL
 70
     0
  9
$DIMTVP
 40
0.0
  9
$DIMTIX
 70
     0
  9
$DIMSOXD
 70
     0
  9
$DIMSAH
 70
     0
  9
$DIMBLK1
  1

  9
$DIMBLK2
  1

  9
$DIMSTYLE
  2
Standard
  9
$DIMCLRD
 70
     0
  9
$DIMCLRE
 70
     0
  9
$DIMCLRT
 70
     0
  9
$DIMTFAC
 40
0.65
  9
$DIMGAP
 40
0.09
  9
$DIMJUST
 70
     0
  9
$DIMSD1
 70
     0
  9
$DIMSD2
 70
     0
  9
$DIMTOLJ
 70
     0
  9
$DIMTZIN
 70
     0
  9
$DIMALTZ
 70
     0
  9
$DIMALTTZ
 70
     0
  9
$DIMUPT
 70
     0
  9
$DIMDEC
 70
     2
  9
$DIMTDEC
 70
     2
  9
$DIMALTU
 70
     2
  9
$DIMALTTD
 70
     2
  9
$DIMTXSTY
  7
Standard
  9
$DIMAUNIT
 70
     0
  9
$DIMADEC
 70
     2
  9
$DIMALTRND
 40
0.0
  9
$DIMAZIN
 70
     2
  9
$DIMDSEP
 70
    46
  9
$DIMATFIT
 70
     3
  9
$DIMFRAC
 70
     0
  9
$DIMLDRBLK
  1

  9
$DIMLUNIT
 70
     2
  9
$DIMLWD
 70
    -2
  9
$DIMLWE
 70
    -2
  9
$DIMTMOVE
 70
     0
  9
$LUNITS
 70
     2
  9
$LUPREC
 70
     4
  9
$SKETCHINC
 40
0.1
  9
$FILLETRAD
 40
0.5
  9
$AUNITS
 70
     0
  9
$AUPREC
 70
     0
  9
$MENU
  1
.
  9
$ELEVATION
 40
0.0
  9
$PELEVATION
 40
0.0
  9
$THICKNESS
 40
0.0
  9
$LIMCHECK
 70
     0
  9
$CHAMFERA
 40
0.5
  9
$CHAMFERB
 40
0.5
  9
$CHAMFERC
 40
1.0
  9
$CHAMFERD
 40
0.0
  9
$SKPOLY
 70
     0
  9
$TDCREATE
 40
2459607.017452674
  9
$TDUCREATE
 40
2459606.642452674
  9
$TDUPDATE
 40
2459607.017452685
  9
$TDUUPDATE
 40
2459606.642452685
  9
$TDINDWG
 40
0.0000000116
  9
$TDUSRTIMER
 40
0.0000000116
  9
$USRTIMER
 70
     1
  9
$ANGBASE
 50
0.0
  9
$ANGDIR
 70
     0
  9
$PDMODE
 70
     0
  9
$PDSIZE
 40
1.0
  9
$PLINEWID
 40
0.0
  9
$SPLFRAME
 70
     0
  9
$SPLINETYPE
 70
     6
  9
$SPLINESEGS
 70
     8
  9
$HANDSEED
  5
5C4
  9
$SURFTAB1
 70
     6
  9
$SURFTAB2
 70
     6
  9
$SURFTYPE
 70
     6
  9
$SURFU
 70
     6
  9
$SURFV
 70
     6
  9
$UCSBASE
  2

  9
$UCSNAME
  2

  9
$UCSORG
 10
0.0
 20
0.0
 30
0.0
  9
$UCSXDIR
 10
1.0
 20
0.0
 30
0.0
  9
$UCSYDIR
 10
0.0
 20
1.0
 30
0.0
  9
$UCSORTHOREF
  2

  9
$UCSORTHOVIEW
 70
     0
  9
$UCSORGTOP
 10
0.0
 20
0.0
 30
0.0
  9
$UCSORGBOTTOM
 10
0.0
 20
0.0
 30
0.0
  9
$UCSORGLEFT
 10
0.0
 20
0.0
 30
0.0
  9
$UCSORGRIGHT
 10
0.0
 20
0.0
 30
0.0
  9
$UCSORGFRONT
 10
0.0
 20
0.0
 30
0.0
  9
$UCSORGBACK
 10
0.0
 20
0.0
 30
0.0
  9
$PUCSBASE
  2

  9
$PUCSNAME
  2

  9
$PUCSORG
 10
0.0
 20
0.0
 30
0.0
  9
$PUCSXDIR
 10
1.0
 20
0.0
 30
0.0
  9
$PUCSYDIR
 10
0.0
 20
1.0
 30
0.0
  9
$PUCSORTHOREF
  2

  9
$PUCSORTHOVIEW
 70
     0
  9
$PUCSORGTOP
 10
0.0
 20
0.0
 30
0.0
  9
$PUCSORGBOTTOM
 10
0.0
 20
0.0
 30
0.0
  9
$PUCSORGLEFT
 10
0.0
 20
0.0
 30
0.0
  9
$PUCSORGRIGHT
 10
0.0
 20
0.0
 30
0.0
  9
$PUCSORGFRONT
 10
0.0
 20
0.0
 30
0.0
  9
$PUCSORGBACK
 10
0.0
 20
0.0
 30
0.0
  9
$USERI1
 70
     0
  9
$USERI2
 70
     0
  9
$USERI3
 70
     0
  9
$USERI4
 70
     0
  9
$USERI5
 70
     0
  9
$USERR1
 40
0.0
  9
$USERR2
 40
0.0
  9
$USERR3
 40
0.0
  9
$USERR4
 40
0.0
  9
$USERR5
 40
0.0
  9
$WORLDVIEW
 70
     1
  9
$SHADEDGE
 70
     3
  9
$SHADEDIF
 70
    70
  9
$TILEMODE
 70
     1
  9
$MAXACTVP
 70
    64
  9
$PINSBASE
 10
0.0
 20
0.0
 30
0.0
  9
$PLIMCHECK
 70
     0
  9
$PEXTMIN
 10
1.000000000000000E+20
 20
1.000000000000000E+20
 30
1.000000000000000E+20
  9
$PEXTMAX
 10
-1.000000000000000E+20
 20
-1.000000000000000E+20
 30
-1.000000000000000E+20
  9
$PLIMMIN
 10
0.0
 20
0.0
  9
$PLIMMAX
 10
12.0
 20
9.0
  9
$UNITMODE
 70
     0
  9
$VISRETAIN
 70
     0
  9
$PLINEGEN
 70
     1
  9
$PSLTSCALE
 70
     0
  9
$TREEDEPTH
 70
  3020
  9
$CMLSTYLE
  2
Standard
  9
$CMLJUST
 70
     0
  9
$CMLSCALE
 40
1.0
  9
$PROXYGRAPHICS
 70
     0
  9
$MEASUREMENT
 70
     1
  9
$CELWEIGHT
370
    -1
  9
$ENDCAPS
280
     0
  9
$JOINSTYLE
280
     0
  9
$LWDISPLAY
290
     1
  9
$INSUNITS
 70
     4
  9
$HYPERLINKBASE
  1

  9
$STYLESHEET
  1

  9
$XEDIT
290
     1
  9
$CEPSNTYPE
380
     0
  9
$PSTYLEMODE
290
     1
  9
$FINGERPRINTGUID
  2
{11F9CB35-49E2-4748-8934-432EEA374D74}
  9
$VERSIONGUID
  2
{FAEB1C32-E019-11D5-929B-00C0DF256EC4}
  9
$EXTNAMES
290
     1
  9
$PSVPSCALE
 40
0.0
  9
$OLESTARTUP
290
     0
  0
ENDSEC
  0
SECTION
  2
CLASSES
  0
CLASS
  1
ACDBDICTIONARYWDFLT
  2
AcDbDictionaryWithDefault
  3
ObjectDBX Classes
 90
        0
280
     0
281
     0
  0
CLASS
  1
VISUALSTYLE
  2
AcDbVisualStyle
  3
ObjectDBX Classes
 90
     4095
280
     0
281
     0
  0
CLASS
  1
MATERIAL
  2
AcDbMaterial
  3
ObjectDBX Classes
 90
     1153
280
     0
281
     0
  0
CLASS
  1
DICTIONARYVAR
  2
AcDbDictionaryVar
  3
ObjectDBX Classes
 90
        0
280
     0
281
     0
  0
CLASS
  1
ACDBPLACEHOLDER
  2
AcDbPlaceHolder
  3
ObjectDBX Classes
 90
        0
280
     0
281
     0
  0
CLASS
  1
LAYOUT
  2
AcDbLayout
  3
ObjectDBX Classes
 90
        0
280
     0
281
     0
  0
ENDSEC
  0
SECTION
  2
TABLES
  0
TABLE
  2
VPORT
  5
8
330
0
100
AcDbSymbolTable
 70
     1
  0
VPORT
  5
29
330
8
100
AcDbSymbolTableRecord
100
AcDbViewportTableRecord
  2
*Active
 70
     0
 10
0.0
 20
0.0
 11
1.0
 21
1.0
 12
-4.79999735951424
 22
-11.29999825358391
 13
0.0
 23
0.0
 14
0.5
 24
0.5
 15
0.5
 25
0.5
 16
0.0
 26
0.0
 36
1.0
 17
0.0
 27
0.0
 37
0.0
 40
239.0880035626888
 41
1.511945392491467
 42
50.0
 43
0.0
 44
0.0
 50
0.0
 51
0.0
 71
     0
 72
  1000
 73
     1
 74
     1
 75
     0
 76
     0
 77
     0
 78
     0
281
     0
 65
     1
110
0.0
120
0.0
130
0.0
111
1.0
121
0.0
131
0.0
112
0.0
122
1.0
132
0.0
 79
     0
146
0.0
  0
ENDTAB
  0
TABLE
  2
LTYPE
  5
5
330
0
100
AcDbSymbolTable
 70
    53
  0
LTYPE
  5
14
330
5
100
AcDbSymbolTableRecord
100
AcDbLinetypeTableRecord
  2
ByBlock
 70
     0
  3

 72
    65
 73
     0
 40
0.0
  0
LTYPE
  5
15
330
5
100
AcDbSymbolTableRecord
100
AcDbLinetypeTableRecord
  2
ByLayer
 70
     0
  3

 72
    65
 73
     0
 40
0.0
  0
LTYPE
  5
16
330
5
100
AcDbSymbolTableRecord
100
AcDbLinetypeTableRecord
  2
Continuous
 70
     0
  3
Solid line
 72
    65
 73
     0
 40
0.0
  0
LTYPE
  5
40
330
5
100
AcDbSymbolTableRecord
100
AcDbLinetypeTableRecord
  2
HIDDENX2
 70
     0
  3
Hidden (2x) ____ ____ ____ ____ ____ ____ ____ 
 72
    65
 73
     2
 40
19.05
 49
12.7
 74
     0
 49
-6.35
 74
     0
  0
LTYPE
  5
41
330
5
100
AcDbSymbolTableRecord
100
AcDbLinetypeTableRecord
  2
HIDDEN
 70
     0
  3
Hidden __ __ __ __ __ __ __ __ __ __ __ __ __ __
 72
    65
 73
     2
 40
9.524999999999999
 49
6.35
 74
     0
 49
-3.175
 74
     0
  0
LTYPE
  5
42
330
5
100
AcDbSymbolTableRecord
100
AcDbLinetypeTableRecord
  2
HIDDEN2
 70
     0
  3
Hidden (.5x) _ _ _ _ _ _ _ _ _ _ _ _ _ _ _ _ _ 
 72
    65
 73
     2
 40
4.762499999999999
 49
3.175
 74
     0
 49
-1.5875
 74
     0
  0
LTYPE
  5
43
330
5
100
AcDbSymbolTableRecord
100
AcDbLinetypeTableRecord
  2
DASHED
 70
     0
  3
Dashed __ __ __ __ __ __ __ __ __ __ __ __ __ _
 72
    65
 73
     2
 40
19.05
 49
12.7
 74
     0
 49
-6.35
 74
     0
  0
LTYPE
  5
44
330
5
100
AcDbSymbolTableRecord
100
AcDbLinetypeTableRecord
  2
DASHED2
 70
     0
  3
Dashed (.5x) _ _ _ _ _ _ _ _ _ _ _ _ _ _ _ _ _ 
 72
    65
 73
     2
 40
9.524999999999999
 49
6.35
 74
     0
 49
-3.175
 74
     0
  0
LTYPE
  5
45
330
5
100
AcDbSymbolTableRecord
100
AcDbLinetypeTableRecord
  2
DASHEDX2
 70
     0
  3
Dashed (2x) ____  ____  ____  ____  ____  ___
 72
    65
 73
     2
 40
38.09999999999999
 49
25.4
 74
     0
 49
-12.7
 74
     0
  0
LTYPE
  5
46
330
5
100
AcDbSymbolTableRecord
100
AcDbLinetypeTableRecord
  2
DOTX2
 70
     0
  3
Dot (2x) .  .  .  .  .  .  .  .  .  .  .  .  .  .
 72
    65
 73
     2
 40
12.7
 49
0.0
 74
     0
 49
-12.7
 74
     0
  0
LTYPE
  5
47
330
5
100
AcDbSymbolTableRecord
100
AcDbLinetypeTableRecord
  2
DOT
 70
     0
  3
Dot . . . . . . . . . . . . . . . . . . . . . . . .
 72
    65
 73
     2
 40
6.35
 49
0.0
 74
     0
 49
-6.35
 74
     0
  0
LTYPE
  5
48
330
5
100
AcDbSymbolTableRecord
100
AcDbLinetypeTableRecord
  2
DOT2
 70
     0
  3
Dot (.5x) ........................................
 72
    65
 73
     2
 40
3.175
 49
0.0
 74
     0
 49
-3.175
 74
     0
  0
LTYPE
  5
49
330
5
100
AcDbSymbolTableRecord
100
AcDbLinetypeTableRecord
  2
CENTERX2
 70
     0
  3
Center (2x) ________  __  ________  __  _____
 72
    65
 73
     4
 40
101.6
 49
63.5
 74
     0
 49
-12.7
 74
     0
 49
12.7
 74
     0
 49
-12.7
 74
     0
  0
LTYPE
  5
4A
330
5
100
AcDbSymbolTableRecord
100
AcDbLinetypeTableRecord
  2
CENTER
 70
     0
  3
Center ____ _ ____ _ ____ _ ____ _ ____ _ ____
 72
    65
 73
     4
 40
50.8
 49
31.75
 74
     0
 49
-6.35
 74
     0
 49
6.35
 74
     0
 49
-6.35
 74
     0
  0
LTYPE
  5
4B
330
5
100
AcDbSymbolTableRecord
100
AcDbLinetypeTableRecord
  2
CENTER2
 70
     0
  3
Center (.5x) ___ _ ___ _ ___ _ ___ _ ___ _ ___
 72
    65
 73
     4
 40
28.575
 49
19.05
 74
     0
 49
-3.175
 74
     0
 49
3.175
 74
     0
 49
-3.175
 74
     0
  0
LTYPE
  5
4C
330
5
100
AcDbSymbolTableRecord
100
AcDbLinetypeTableRecord
  2
DASHDOTX2
 70
     0
  3
Dash dot (2x) ____  .  ____  .  ____  .  ___
 72
    65
 73
     4
 40
50.8
 49
25.4
 74
     0
 49
-12.7
 74
     0
 49
0.0
 74
     0
 49
-12.7
 74
     0
  0
LTYPE
  5
4D
330
5
100
AcDbSymbolTableRecord
100
AcDbLinetypeTableRecord
  2
DASHDOT
 70
     0
  3
Dash dot __ . __ . __ . __ . __ . __ . __ . __
 72
    65
 73
     4
 40
25.4
 49
12.7
 74
     0
 49
-6.35
 74
     0
 49
0.0
 74
     0
 49
-6.35
 74
     0
  0
LTYPE
  5
4E
330
5
100
AcDbSymbolTableRecord
100
AcDbLinetypeTableRecord
  2
DASHDOT2
 70
     0
  3
Dash dot (.5x) _._._._._._._._._._._._._._._.
 72
    65
 73
     4
 40
12.7
 49
6.35
 74
     0
 49
-3.175
 74
     0
 49
0.0
 74
     0
 49
-3.175
 74
     0
  0
LTYPE
  5
4F
330
5
100
AcDbSymbolTableRecord
100
AcDbLinetypeTableRecord
  2
DIVIDEX2
 70
     0
  3
Divide (2x) ________  .  .  ________  .  .  _
 72
    65
 73
     6
 40
63.5
 49
25.4
 74
     0
 49
-12.7
 74
     0
 49
0.0
 74
     0
 49
-12.7
 74
     0
 49
0.0
 74
     0
 49
-12.7
 74
     0
  0
LTYPE
  5
50
330
5
100
AcDbSymbolTableRecord
100
AcDbLinetypeTableRecord
  2
DIVIDE
 70
     0
  3
Divide ____ . . ____ . . ____ . . ____ . . ____
 72
    65
 73
     6
 40
31.75
 49
12.7
 74
     0
 49
-6.35
 74
     0
 49
0.0
 74
     0
 49
-6.35
 74
     0
 49
0.0
 74
     0
 49
-6.35
 74
     0
  0
LTYPE
  5
51
330
5
100
AcDbSymbolTableRecord
100
AcDbLinetypeTableRecord
  2
DIVIDE2
 70
     0
  3
Divide (.5x) __..__..__..__..__..__..__..__.._
 72
    65
 73
     6
 40
15.875
 49
6.35
 74
     0
 49
-3.175
 74
     0
 49
0.0
 74
     0
 49
-3.175
 74
     0
 49
0.0
 74
     0
 49
-3.175
 74
     0
  0
LTYPE
  5
52
330
5
100
AcDbSymbolTableRecord
100
AcDbLinetypeTableRecord
  2
BORDERX2
 70
     0
  3
Border (2x) ____  ____  .  ____  ____  .  ___
 72
    65
 73
     6
 40
88.89999999999999
 49
25.4
 74
     0
 49
-12.7
 74
     0
 49
25.4
 74
     0
 49
-12.7
 74
     0
 49
0.0
 74
     0
 49
-12.7
 74
     0
  0
LTYPE
  5
53
330
5
100
AcDbSymbolTableRecord
100
AcDbLinetypeTableRecord
  2
BORDER
 70
     0
  3
Border __ __ . __ __ . __ __ . __ __ . __ __ .
 72
    65
 73
     6
 40
44.45
 49
12.7
 74
     0
 49
-6.35
 74
     0
 49
12.7
 74
     0
 49
-6.35
 74
     0
 49
0.0
 74
     0
 49
-6.35
 74
     0
  0
LTYPE
  5
54
330
5
100
AcDbSymbolTableRecord
100
AcDbLinetypeTableRecord
  2
BORDER2
 70
     0
  3
Border (.5x) __.__.__.__.__.__.__.__.__.__.__.
 72
    65
 73
     6
 40
22.225
 49
6.35
 74
     0
 49
-3.175
 74
     0
 49
6.35
 74
     0
 49
-3.175
 74
     0
 49
0.0
 74
     0
 49
-3.175
 74
     0
  0
LTYPE
  5
55
330
5
100
AcDbSymbolTableRecord
100
AcDbLinetypeTableRecord
  2
PHANTOMX2
 70
     0
  3
Phantom (2x) ____________    ____    ____   _
 72
    65
 73
     6
 40
127.0
 49
63.5
 74
     0
 49
-12.7
 74
     0
 49
12.7
 74
     0
 49
-12.7
 74
     0
 49
12.7
 74
     0
 49
-12.7
 74
     0
  0
LTYPE
  5
56
330
5
100
AcDbSymbolTableRecord
100
AcDbLinetypeTableRecord
  2
PHANTOM
 70
     0
  3
Phantom ______  __  __  ______  __  __  ______ 
 72
    65
 73
     6
 40
63.5
 49
31.75
 74
     0
 49
-6.35
 74
     0
 49
6.35
 74
     0
 49
-6.35
 74
     0
 49
6.35
 74
     0
 49
-6.35
 74
     0
  0
LTYPE
  5
57
330
5
100
AcDbSymbolTableRecord
100
AcDbLinetypeTableRecord
  2
PHANTOM2
 70
     0
  3
Phantom (.5x) ___ _ _ ___ _ _ ___ _ _ ___ _ _
 72
    65
 73
     6
 40
31.75
 49
15.875
 74
     0
 49
-3.175
 74
     0
 49
3.175
 74
     0
 49
-3.175
 74
     0
 49
3.175
 74
     0
 49
-3.175
 74
     0
  0
LTYPE
  5
58
330
5
100
AcDbSymbolTableRecord
100
AcDbLinetypeTableRecord
  2
ACAD_ISO06W100
 70
     0
  3
ISO long-dash triple-dot ____ ... ____ ... ____
 72
    65
 73
     8
 40
36.0
 49
24.0
 74
     0
 49
-3.0
 74
     0
 49
0.0
 74
     0
 49
-3.0
 74
     0
 49
0.0
 74
     0
 49
-3.0
 74
     0
 49
0.0
 74
     0
 49
-3.0
 74
     0
  0
LTYPE
  5
59
330
5
100
AcDbSymbolTableRecord
100
AcDbLinetypeTableRecord
  2
ACAD_ISO13W100
 70
     0
  3
ISO double-dash double-dot __ __ . . __ __ . . _
 72
    65
 73
     8
 40
36.0
 49
12.0
 74
     0
 49
-3.0
 74
     0
 49
12.0
 74
     0
 49
-3.0
 74
     0
 49
0.0
 74
     0
 49
-3.0
 74
     0
 49
0.0
 74
     0
 49
-3.0
 74
     0
  0
LTYPE
  5
5A
330
5
100
AcDbSymbolTableRecord
100
AcDbLinetypeTableRecord
  2
ACAD_ISO14W100
 70
     0
  3
ISO dash triple-dot __ . . . __ . . . __ . . . _
 72
    65
 73
     8
 40
24.0
 49
12.0
 74
     0
 49
-3.0
 74
     0
 49
0.0
 74
     0
 49
-3.0
 74
     0
 49
0.0
 74
     0
 49
-3.0
 74
     0
 49
0.0
 74
     0
 49
-3.0
 74
     0
  0
LTYPE
  5
5B
330
5
100
AcDbSymbolTableRecord
100
AcDbLinetypeTableRecord
  2
ACAD_ISO02W100
 70
     0
  3
ISO dash __ __ __ __ __ __ __ __ __ __ __ __ __
 72
    65
 73
     2
 40
15.0
 49
12.0
 74
     0
 49
-3.0
 74
     0
  0
LTYPE
  5
5C
330
5
100
AcDbSymbolTableRecord
100
AcDbLinetypeTableRecord
  2
ACAD_ISO03W100
 70
     0
  3
ISO dash space __    __    __    __    __    __
 72
    65
 73
     2
 40
30.0
 49
12.0
 74
     0
 49
-18.0
 74
     0
  0
LTYPE
  5
5D
330
5
100
AcDbSymbolTableRecord
100
AcDbLinetypeTableRecord
  2
ACAD_ISO04W100
 70
     0
  3
ISO long-dash dot ____ . ____ . ____ . ____ . _
 72
    65
 73
     4
 40
30.0
 49
24.0
 74
     0
 49
-3.0
 74
     0
 49
0.0
 74
     0
 49
-3.0
 74
     0
  0
LTYPE
  5
5E
330
5
100
AcDbSymbolTableRecord
100
AcDbLinetypeTableRecord
  2
ACAD_ISO05W100
 70
     0
  3
ISO long-dash double-dot ____ .. ____ .. ____ . 
 72
    65
 73
     6
 40
33.0
 49
24.0
 74
     0
 49
-3.0
 74
     0
 49
0.0
 74
     0
 49
-3.0
 74
     0
 49
0.0
 74
     0
 49
-3.0
 74
     0
  0
LTYPE
  5
5F
330
5
100
AcDbSymbolTableRecord
100
AcDbLinetypeTableRecord
  2
ACAD_ISO07W100
 70
     0
  3
ISO dot . . . . . . . . . . . . . . . . . . . . 
 72
    65
 73
     2
 40
3.0
 49
0.0
 74
     0
 49
-3.0
 74
     0
  0
LTYPE
  5
60
330
5
100
AcDbSymbolTableRecord
100
AcDbLinetypeTableRecord
  2
ACAD_ISO08W100
 70
     0
  3
ISO long-dash short-dash ____ __ ____ __ ____ _
 72
    65
 73
     4
 40
36.0
 49
24.0
 74
     0
 49
-3.0
 74
     0
 49
6.0
 74
     0
 49
-3.0
 74
     0
  0
LTYPE
  5
61
330
5
100
AcDbSymbolTableRecord
100
AcDbLinetypeTableRecord
  2
ACAD_ISO09W100
 70
     0
  3
ISO long-dash double-short-dash ____ __ __ ____
 72
    65
 73
     6
 40
45.0
 49
24.0
 74
     0
 49
-3.0
 74
     0
 49
6.0
 74
     0
 49
-3.0
 74
     0
 49
6.0
 74
     0
 49
-3.0
 74
     0
  0
LTYPE
  5
62
330
5
100
AcDbSymbolTableRecord
100
AcDbLinetypeTableRecord
  2
ACAD_ISO10W100
 70
     0
  3
ISO dash dot __ . __ . __ . __ . __ . __ . __ . 
 72
    65
 73
     4
 40
18.0
 49
12.0
 74
     0
 49
-3.0
 74
     0
 49
0.0
 74
     0
 49
-3.0
 74
     0
  0
LTYPE
  5
63
330
5
100
AcDbSymbolTableRecord
100
AcDbLinetypeTableRecord
  2
ACAD_ISO11W100
 70
     0
  3
ISO double-dash dot __ __ . __ __ . __ __ . __ _
 72
    65
 73
     6
 40
33.0
 49
12.0
 74
     0
 49
-3.0
 74
     0
 49
12.0
 74
     0
 49
-3.0
 74
     0
 49
0.0
 74
     0
 49
-3.0
 74
     0
  0
LTYPE
  5
64
330
5
100
AcDbSymbolTableRecord
100
AcDbLinetypeTableRecord
  2
ACAD_ISO12W100
 70
     0
  3
ISO dash double-dot __ . . __ . . __ . . __ . . 
 72
    65
 73
     6
 40
21.0
 49
12.0
 74
     0
 49
-3.0
 74
     0
 49
0.0
 74
     0
 49
-3.0
 74
     0
 49
0.0
 74
     0
 49
-3.0
 74
     0
  0
LTYPE
  5
65
330
5
100
AcDbSymbolTableRecord
100
AcDbLinetypeTableRecord
  2
ACAD_ISO15W100
 70
     0
  3
ISO double-dash triple-dot __ __ . . . __ __ . .
 72
    65
 73
    10
 40
39.0
 49
12.0
 74
     0
 49
-3.0
 74
     0
 49
12.0
 74
     0
 49
-3.0
 74
     0
 49
0.0
 74
     0
 49
-3.0
 74
     0
 49
0.0
 74
     0
 49
-3.0
 74
     0
 49
0.0
 74
     0
 49
-3.0
 74
     0
  0
LTYPE
  5
66
330
5
100
AcDbSymbolTableRecord
100
AcDbLinetypeTableRecord
  2
JIS_02_0.7
 70
     0
  3
HIDDEN0.75 _ _ _ _ _ _ _ _ _ _ _ _ _ _ _ _ _ 
 72
    65
 73
     2
 40
1.35
 49
0.75
 74
     0
 49
-0.6
 74
     0
  0
LTYPE
  5
67
330
5
100
AcDbSymbolTableRecord
100
AcDbLinetypeTableRecord
  2
JIS_02_1.0
 70
     0
  3
HIDDEN01 _ _ _ _ _ _ _ _ _ _ _ _ _ _ _ _ _ 
 72
    65
 73
     2
 40
2.0
 49
1.0
 74
     0
 49
-1.0
 74
     0
  0
LTYPE
  5
68
330
5
100
AcDbSymbolTableRecord
100
AcDbLinetypeTableRecord
  2
JIS_02_1.2
 70
     0
  3
HIDDEN01.25  _ _ _ _ _ _ _ _ _ _ _ _ _ _ _ _ _ 
 72
    65
 73
     2
 40
2.5
 49
1.25
 74
     0
 49
-1.25
 74
     0
  0
LTYPE
  5
69
330
5
100
AcDbSymbolTableRecord
100
AcDbLinetypeTableRecord
  2
JIS_02_2.0
 70
     0
  3
HIDDEN02 __ __ __ __ __ __ __ __ __ __ __ 
 72
    65
 73
     2
 40
3.0
 49
2.0
 74
     0
 49
-1.0
 74
     0
  0
LTYPE
  5
6A
330
5
100
AcDbSymbolTableRecord
100
AcDbLinetypeTableRecord
  2
JIS_02_4.0
 70
     0
  3
HIDDEN04 ____ ____ ____ ____ ____ ____ ____ 
 72
    65
 73
     2
 40
5.5
 49
4.0
 74
     0
 49
-1.5
 74
     0
  0
LTYPE
  5
6B
330
5
100
AcDbSymbolTableRecord
100
AcDbLinetypeTableRecord
  2
JIS_08_11
 70
     0
  3
1SASEN11 ___ _ ___ _ ___ _ ___ _ ___ _ ___
 72
    65
 73
     4
 40
12.8
 49
11.0
 74
     0
 49
-0.6
 74
     0
 49
0.6
 74
     0
 49
-0.6
 74
     0
  0
LTYPE
  5
6C
330
5
100
AcDbSymbolTableRecord
100
AcDbLinetypeTableRecord
  2
JIS_08_15
 70
     0
  3
1SASEN15 ____ _ ____ _ ____ _ ____ _ ____ 
 72
    65
 73
     4
 40
17.25
 49
15.0
 74
     0
 49
-0.75
 74
     0
 49
0.75
 74
     0
 49
-0.75
 74
     0
  0
LTYPE
  5
6D
330
5
100
AcDbSymbolTableRecord
100
AcDbLinetypeTableRecord
  2
JIS_08_25
 70
     0
  3
1SASEN25 ________  __  ________  __  _____
 72
    65
 73
     4
 40
28.0
 49
25.0
 74
     0
 49
-1.125
 74
     0
 49
0.75
 74
     0
 49
-1.125
 74
     0
  0
LTYPE
  5
6E
330
5
100
AcDbSymbolTableRecord
100
AcDbLinetypeTableRecord
  2
JIS_08_37
 70
     0
  3
1SASEN37 ________  __  ________  __  _____
 72
    65
 73
     4
 40
40.5
 49
37.5
 74
     0
 49
-1.125
 74
     0
 49
0.75
 74
     0
 49
-1.125
 74
     0
  0
LTYPE
  5
6F
330
5
100
AcDbSymbolTableRecord
100
AcDbLinetypeTableRecord
  2
JIS_08_50
 70
     0
  3
1SASEN50 _______________  __  ____________
 72
    65
 73
     4
 40
53.0
 49
50.0
 74
     0
 49
-1.125
 74
     0
 49
0.75
 74
     0
 49
-1.125
 74
     0
  0
LTYPE
  5
70
330
5
100
AcDbSymbolTableRecord
100
AcDbLinetypeTableRecord
  2
JIS_09_08
 70
     0
  3
2SASEN8 __ _ _ __ _ _ __ _ _ __ _ _ __ _ _ 
 72
    65
 73
     6
 40
10.75
 49
8.0
 74
     0
 49
-0.55
 74
     0
 49
0.55
 74
     0
 49
-0.55
 74
     0
 49
0.55
 74
     0
 49
-0.55
 74
     0
  0
LTYPE
  5
71
330
5
100
AcDbSymbolTableRecord
100
AcDbLinetypeTableRecord
  2
JIS_09_15
 70
     0
  3
2SASEN15 ___ _ _ ___ _ _ ___ _ _ ___ _ _ ___ 
 72
    65
 73
     6
 40
18.9
 49
15.0
 74
     0
 49
-0.9
 74
     0
 49
0.6
 74
     0
 49
-0.9
 74
     0
 49
0.6
 74
     0
 49
-0.9
 74
     0
  0
LTYPE
  5
72
330
5
100
AcDbSymbolTableRecord
100
AcDbLinetypeTableRecord
  2
JIS_09_29
 70
     0
  3
2SASEN29 ______　__  __  ______　__  __  ___
 72
    65
 73
     6
 40
34.0
 49
29.0
 74
     0
 49
-1.2
 74
     0
 49
0.7
 74
     0
 49
-1.2
 74
     0
 49
0.7
 74
     0
 49
-1.2
 74
     0
  0
LTYPE
  5
73
330
5
100
AcDbSymbolTableRecord
100
AcDbLinetypeTableRecord
  2
JIS_09_50
 70
     0
  3
2SASEN50 ____________　__  __  _____________
 72
    65
 73
     6
 40
55.0
 49
50.0
 74
     0
 49
-1.2
 74
     0
 49
0.7
 74
     0
 49
-1.2
 74
     0
 49
0.7
 74
     0
 49
-1.2
 74
     0
  0
ENDTAB
  0
TABLE
  2
LAYER
  5
2
330
0
100
AcDbSymbolTable
 70
     5
  0
LAYER
  5
10
330
2
100
AcDbSymbolTableRecord
100
AcDbLayerTableRecord
  2
0
 70
     0
 62
     7
  6
Continuous
370
    -3
390
F
  0
LAYER
  5
74
330
2
100
AcDbSymbolTableRecord
100
AcDbLayerTableRecord
  2
16
 70
     0
 62
     7
  6
Continuous
370
    -3
390
F
  0
LAYER
  5
75
330
2
100
AcDbSymbolTableRecord
100
AcDbLayerTableRecord
  2
19
 70
     0
 62
     7
  6
Continuous
370
    -3
390
F
  0
LAYER
  5
76
330
2
100
AcDbSymbolTableRecord
100
AcDbLayerTableRecord
  2
22
 70
     0
 62
     7
  6
Continuous
370
    -3
390
F
  0
LAYER
  5
77
330
2
100
AcDbSymbolTableRecord
100
AcDbLayerTableRecord
  2
32
 70
     0
 62
     7
  6
Continuous
370
    -3
390
F
  0
ENDTAB
  0
TABLE
  2
STYLE
  5
3
330
0
100
AcDbSymbolTable
 70
     2
  0
STYLE
  5
11
330
3
100
AcDbSymbolTableRecord
100
AcDbTextStyleTableRecord
  2
Standard
 70
     0
 40
0.0
 41
1.0
 50
0.0
 71
     0
 42
0.2
  3
txt.shx
  4
bigfont.shx
  0
STYLE
  5
9B
330
3
100
AcDbSymbolTableRecord
100
AcDbTextStyleTableRecord
  2
dcStyle0
 70
     0
 40
0.0
 41
0.8333333354938274
 50
0.0
 71
     0
 42
0.2
  3
txt.shx
  4
bigfont
  0
ENDTAB
  0
TABLE
  2
VIEW
  5
6
330
0
100
AcDbSymbolTable
 70
     0
  0
ENDTAB
  0
TABLE
  2
UCS
  5
7
330
0
100
AcDbSymbolTable
 70
     0
  0
ENDTAB
  0
TABLE
  2
APPID
  5
9
330
0
100
AcDbSymbolTable
 70
     2
  0
APPID
  5
12
330
9
100
AcDbSymbolTableRecord
100
AcDbRegAppTableRecord
  2
ACAD
 70
     0
  0
APPID
  5
3F
330
9
100
AcDbSymbolTableRecord
100
AcDbRegAppTableRecord
  2
DaFusionOut
 70
     0
  0
ENDTAB
  0
TABLE
  2
DIMSTYLE
  5
A
330
0
100
AcDbSymbolTable
 70
     1
100
AcDbDimStyleTable
  0
DIMSTYLE
105
27
330
A
100
AcDbSymbolTableRecord
100
AcDbDimStyleTableRecord
  2
Standard
 70
     0
178
     0
340
11
  0
ENDTAB
  0
TABLE
  2
BLOCK_RECORD
  5
1
330
0
100
AcDbSymbolTable
 70
     1
  0
BLOCK_RECORD
  5
1F
330
1
100
AcDbSymbolTableRecord
100
AcDbBlockTableRecord
  2
*Model_Space
340
22
  0
BLOCK_RECORD
  5
1B
330
1
100
AcDbSymbolTableRecord
100
AcDbBlockTableRecord
  2
*Paper_Space
340
1E
  0
BLOCK_RECORD
  5
23
330
1
100
AcDbSymbolTableRecord
100
AcDbBlockTableRecord
  2
*Paper_Space0
340
26
  0
ENDTAB
  0
ENDSEC
  0
SECTION
  2
BLOCKS
  0
BLOCK
  5
20
330
1F
100
AcDbEntity
  8
0
100
AcDbBlockBegin
  2
*Model_Space
 70
     0
 10
0.0
 20
0.0
 30
0.0
  3
*Model_Space
  1

  0
ENDBLK
  5
21
330
1F
100
AcDbEntity
  8
0
100
AcDbBlockEnd
  0
BLOCK
  5
1C
330
1B
100
AcDbEntity
 67
     1
  8
0
100
AcDbBlockBegin
  2
*Paper_Space
 70
     0
 10
0.0
 20
0.0
 30
0.0
  3
*Paper_Space
  1

  0
ENDBLK
  5
1D
330
1B
100
AcDbEntity
 67
     1
  8
0
100
AcDbBlockEnd
  0
BLOCK
  5
24
330
23
100
AcDbEntity
  8
0
100
AcDbBlockBegin
  2
*Paper_Space0
 70
     0
 10
0.0
 20
0.0
 30
0.0
  3
*Paper_Space0
  1

  0
ENDBLK
  5
25
330
23
100
AcDbEntity
  8
0
100
AcDbBlockEnd
  0
ENDSEC
  0
SECTION
  2
ENTITIES
  0
LINE
  5
79
330
1F
100
AcDbEntity
  8
0
  6
Continuous
 62
   150
370
    25
100
AcDbLine
 10
-173.5999998748302
 20
-114.0999997854233
 30
0.0
 11
-173.5999998748302
 21
105.9000034928322
 31
0.0
  0
LINE
  5
7A
330
1F
100
AcDbEntity
  8
0
  6
Continuous
 62
   150
370
    25
100
AcDbLine
 10
-173.5999998748302
 20
105.9000034928322
 30
0.0
 11
172.4000052809715
 21
105.9000034928322
 31
0.0
  0
LINE
  5
7B
330
1F
100
AcDbEntity
  8
0
  6
Continuous
 62
   150
370
    25
100
AcDbLine
 10
172.4000052809715
 20
105.9000034928322
 30
0.0
 11
172.4000052809715
 21
-114.0999997854233
 31
0.0
  0
LINE
  5
7C
330
1F
100
AcDbEntity
  8
0
  6
Continuous
 62
   150
370
    25
100
AcDbLine
 10
172.4000052809715
 20
-114.0999997854233
 30
0.0
 11
-173.5999998748302
 21
-114.0999997854233
 31
0.0
  0
LINE
  5
7D
330
1F
100
AcDbEntity
  8
0
  6
Continuous
 62
   150
370
    25
100
AcDbLine
 10
172.4000052809715
 20
-84.09999933838844
 30
0.0
 11
10.40000286698341
 21
-84.09999933838844
 31
0.0
  0
LINE
  5
7E
330
1F
100
AcDbEntity
  8
0
  6
Continuous
 62
   150
370
    25
100
AcDbLine
 10
10.40000286698341
 20
-84.09999933838844
 30
0.0
 11
10.40000286698341
 21
-114.0999997854233
 31
0.0
  0
LINE
  5
7F
330
1F
100
AcDbEntity
  8
0
  6
Continuous
 62
   150
370
    25
100
AcDbLine
 10
10.40000286698341
 20
-97.09999953210354
 30
0.0
 11
96.40000414848328
 21
-97.09999953210354
 31
0.0
  0
LINE
  5
80
330
1F
100
AcDbEntity
  8
0
  6
Continuous
 62
   150
370
    25
100
AcDbLine
 10
96.40000414848328
 20
-88.59999940544367
 30
0.0
 11
10.40000286698341
 21
-88.59999940544367
 31
0.0
  0
LINE
  5
81
330
1F
100
AcDbEntity
  8
0
  6
Continuous
 62
   150
370
    25
100
AcDbLine
 10
23.40000306069851
 20
-84.09999933838844
 30
0.0
 11
23.40000306069851
 21
-97.09999953210354
 31
0.0
  0
LINE
  5
82
330
1F
100
AcDbEntity
  8
0
  6
Continuous
 62
   150
370
    25
100
AcDbLine
 10
36.4000032544136
 20
-97.09999953210354
 30
0.0
 11
36.4000032544136
 21
-84.09999933838844
 31
0.0
  0
LINE
  5
83
330
1F
100
AcDbEntity
  8
0
  6
Continuous
 62
   150
370
    25
100
AcDbLine
 10
49.4000034481287
 20
-84.09999933838844
 30
0.0
 11
49.4000034481287
 21
-97.09999953210354
 31
0.0
  0
LINE
  5
84
330
1F
100
AcDbEntity
  8
0
  6
Continuous
 62
   150
370
    25
100
AcDbLine
 10
75.40000383555889
 20
-97.09999953210354
 30
0.0
 11
75.40000383555889
 21
-84.09999933838844
 31
0.0
  0
LINE
  5
85
330
1F
100
AcDbEntity
  8
0
  6
Continuous
 62
   150
370
    25
100
AcDbLine
 10
96.40000414848328
 20
-84.09999933838844
 30
0.0
 11
96.40000414848328
 21
-114.0999997854233
 31
0.0
  0
LINE
  5
86
330
1F
100
AcDbEntity
  8
0
  6
Continuous
 62
   150
370
    25
100
AcDbLine
 10
101.4000042229891
 20
-114.0999997854233
 30
0.0
 11
101.4000042229891
 21
-100.5999995842576
 31
0.0
  0
LINE
  5
87
330
1F
100
AcDbEntity
  8
0
  6
Continuous
 62
   150
370
    25
100
AcDbLine
 10
96.40000414848328
 20
-100.5999995842576
 30
0.0
 11
172.4000052809715
 21
-100.5999995842576
 31
0.0
  0
LINE
  5
88
330
1F
100
AcDbEntity
  8
0
  6
Continuous
 62
   150
370
    25
100
AcDbLine
 10
168.4000052213669
 20
-94.59999949485064
 30
0.0
 11
100.4000042080879
 21
-94.59999949485064
 31
0.0
  0
LINE
  5
89
330
1F
100
AcDbEntity
  8
0
  6
Continuous
 62
   150
370
    25
100
AcDbLine
 10
19.40000300109386
 20
-109.1999997124076
 30
0.0
 11
23.90000306814909
 21
-106.6999996751547
 31
0.0
  0
LINE
  5
8A
330
1F
100
AcDbEntity
  8
0
  6
Continuous
 62
   150
370
    25
100
AcDbLine
 10
23.90000306814909
 20
-106.6999996751547
 30
0.0
 11
28.40000313520432
 21
-109.1999997124076
 31
0.0
  0
LINE
  5
8B
330
1F
100
AcDbEntity
  8
0
  6
Continuous
 62
   150
370
    25
100
AcDbLine
 10
28.40000313520432
 20
-109.1999997124076
 30
0.0
 11
23.90000306814909
 21
-111.6999997496605
 31
0.0
  0
LINE
  5
8C
330
1F
100
AcDbEntity
  8
0
  6
Continuous
 62
   150
370
    25
100
AcDbLine
 10
23.90000306814909
 20
-111.6999997496605
 30
0.0
 11
19.40000300109386
 21
-109.1999997124076
 31
0.0
  0
LINE
  5
8D
330
1F
100
AcDbEntity
  8
0
  6
Continuous
 62
   150
370
    25
100
AcDbLine
 10
23.40000306069851
 20
-107.6999996900558
 30
0.0
 11
24.40000307559967
 21
-107.6999996900558
 31
0.0
  0
LINE
  5
8E
330
1F
100
AcDbEntity
  8
0
  6
Continuous
 62
   150
370
    25
100
AcDbLine
 10
24.40000307559967
 20
-107.6999996900558
 30
0.0
 11
24.40000307559967
 21
-110.6999997347593
 31
0.0
  0
LINE
  5
8F
330
1F
100
AcDbEntity
  8
0
  6
Continuous
 62
   150
370
    25
100
AcDbLine
 10
24.40000307559967
 20
-110.6999997347593
 30
0.0
 11
23.40000306069851
 21
-110.6999997347593
 31
0.0
  0
LINE
  5
90
330
1F
100
AcDbEntity
  8
0
  6
Continuous
 62
   150
370
    25
100
AcDbLine
 10
23.40000306069851
 20
-110.6999997347593
 30
0.0
 11
23.40000306069851
 21
-107.6999996900558
 31
0.0
  0
LINE
  5
91
330
1F
100
AcDbEntity
  8
0
  6
Continuous
 62
   150
370
    25
100
AcDbLine
 10
23.40000306069851
 20
-107.6999996900558
 30
0.0
 11
23.60000306367874
 21
-107.6999996900558
 31
0.0
  0
LINE
  5
92
330
1F
100
AcDbEntity
  8
0
  6
Continuous
 62
   150
370
    25
100
AcDbLine
 10
23.60000306367874
 20
-107.6999996900558
 30
0.0
 11
23.60000306367874
 21
-110.6999997347593
 31
0.0
  0
LINE
  5
93
330
1F
100
AcDbEntity
  8
0
  6
Continuous
 62
   150
370
    25
100
AcDbLine
 10
23.60000306367874
 20
-110.6999997347593
 30
0.0
 11
23.80000306665897
 21
-110.6999997347593
 31
0.0
  0
LINE
  5
94
330
1F
100
AcDbEntity
  8
0
  6
Continuous
 62
   150
370
    25
100
AcDbLine
 10
23.80000306665897
 20
-110.6999997347593
 30
0.0
 11
23.80000306665897
 21
-107.6999996900558
 31
0.0
  0
LINE
  5
95
330
1F
100
AcDbEntity
  8
0
  6
Continuous
 62
   150
370
    25
100
AcDbLine
 10
23.80000306665897
 20
-107.6999996900558
 30
0.0
 11
24.00000306963921
 21
-107.6999996900558
 31
0.0
  0
LINE
  5
96
330
1F
100
AcDbEntity
  8
0
  6
Continuous
 62
   150
370
    25
100
AcDbLine
 10
24.00000306963921
 20
-107.6999996900558
 30
0.0
 11
24.00000306963921
 21
-110.6999997347593
 31
0.0
  0
LINE
  5
97
330
1F
100
AcDbEntity
  8
0
  6
Continuous
 62
   150
370
    25
100
AcDbLine
 10
24.00000306963921
 20
-110.6999997347593
 30
0.0
 11
24.20000307261944
 21
-110.6999997347593
 31
0.0
  0
LINE
  5
98
330
1F
100
AcDbEntity
  8
0
  6
Continuous
 62
   150
370
    25
100
AcDbLine
 10
24.20000307261944
 20
-110.6999997347593
 30
0.0
 11
24.20000307261944
 21
-107.6999996900558
 31
0.0
  0
LINE
  5
99
330
1F
100
AcDbEntity
  8
0
  6
Continuous
 62
   150
370
    25
100
AcDbLine
 10
24.20000307261944
 20
-107.6999996900558
 30
0.0
 11
24.40000307559967
 21
-107.6999996900558
 31
0.0
  0
LINE
  5
9A
330
1F
100
AcDbEntity
  8
0
  6
Continuous
 62
   150
370
    25
100
AcDbLine
 10
24.40000307559967
 20
-107.6999996900558
 30
0.0
 11
24.40000307559967
 21
-110.6999997347593
 31
0.0
  0
TEXT
  5
9C
330
1F
100
AcDbEntity
  8
0
 62
   150
100
AcDbText
 10
12.4000029
 20
-87.8999994
 30
0.0
 40
3.0
  1
担　当
 41
0.8333333354938274
  7
dcStyle0
 72
     5
 11
21.40000304
 21
-87.8999994
 31
0.0
100
AcDbText
  0
TEXT
  5
9D
330
1F
100
AcDbEntity
  8
0
 62
   150
100
AcDbText
 10
25.40000309
 20
-87.8999994
 30
0.0
 40
3.0
  1
製　図
 41
0.833333335493827
  7
dcStyle0
 72
     5
 11
34.40000323
 21
-87.8999994
 31
0.0
100
AcDbText
  0
TEXT
  5
9E
330
1F
100
AcDbEntity
  8
0
 62
   150
100
AcDbText
 10
38.40000328
 20
-87.8999994
 30
0.0
 40
3.0
  1
検　図
 41
0.833333335493827
  7
dcStyle0
 72
     5
 11
47.40000342
 21
-87.8999994
 31
0.0
100
AcDbText
  0
TEXT
  5
9F
330
1F
100
AcDbEntity
  8
0
 62
   150
100
AcDbText
 10
56.40000355
 20
-87.8999994
 30
0.0
 40
3.0
  1
尺　　度
 41
0.8333333354166672
  7
dcStyle0
 72
     5
 11
68.40000373000001
 21
-87.8999994
 31
0.0
100
AcDbText
  0
TEXT
  5
A0
330
1F
100
AcDbEntity
  8
0
 62
   150
100
AcDbText
 10
79.9000039
 20
-87.8999994
 30
0.0
 40
3.0
  1
作　　図
 41
0.8333333354166668
  7
dcStyle0
 72
     5
 11
91.90000408
 21
-87.8999994
 31
0.0
100
AcDbText
  0
TEXT
  5
A1
330
1F
100
AcDbEntity
  8
0
 62
   150
100
AcDbText
 10
97.40000416
 20
-87.8999994
 30
0.0
 40
3.0
  1
工事名
 41
0.833333335493827
  7
dcStyle0
 72
     5
 11
106.4000043
 21
-87.8999994
 31
0.0
100
AcDbText
  0
TEXT
  5
A2
330
1F
100
AcDbEntity
  8
0
 62
   150
100
AcDbText
 10
97.40000416
 20
-99.39999957
 30
0.0
 40
2.5
  1
図面番号
 41
0.8333333354166671
  7
dcStyle0
 72
     5
 11
107.40000431
 21
-99.39999957
 31
0.0
100
AcDbText
  0
TEXT
  5
A3
330
1F
100
AcDbEntity
  8
0
 62
   150
100
AcDbText
 10
97.40000416
 20
-104.09999964
 30
0.0
 40
2.5
  1
図
 41
0.8333333333333334
  7
dcStyle0
 72
     5
 11
99.90000416
 21
-104.09999964
 31
0.0
100
AcDbText
  0
TEXT
  5
A4
330
1F
100
AcDbEntity
  8
0
 62
   150
100
AcDbText
 10
97.40000416
 20
-107.09999968
 30
0.0
 40
2.5
  1
面
 41
0.8333333333333334
  7
dcStyle0
 72
     5
 11
99.90000416
 21
-107.09999968
 31
0.0
100
AcDbText
  0
TEXT
  5
A5
330
1F
100
AcDbEntity
  8
0
 62
   150
100
AcDbText
 10
97.40000416
 20
-110.09999973
 30
0.0
 40
2.5
  1
名
 41
0.8333333333333334
  7
dcStyle0
 72
     5
 11
99.90000416
 21
-110.09999973
 31
0.0
100
AcDbText
  0
TEXT
  5
A6
330
1F
100
AcDbEntity
  8
0
 62
   150
100
AcDbText
 10
97.40000416
 20
-113.09999977
 30
0.0
 40
2.5
  1
称
 41
0.8333333333333334
  7
dcStyle0
 72
     5
 11
99.90000416
 21
-113.09999977
 31
0.0
100
AcDbText
  0
TEXT
  5
A7
330
1F
100
AcDbEntity
  8
0
 62
   150
100
AcDbText
 10
80.60000391
 20
-94.09999949
 30
0.0
 40
2.5
  1
年
 41
0.8333333333333334
  7
dcStyle0
 72
     5
 11
83.10000391
 21
-94.09999949
 31
0.0
100
AcDbText
  0
TEXT
  5
A8
330
1F
100
AcDbEntity
  8
0
 62
   150
100
AcDbText
 10
87.10000401
 20
-94.09999949
 30
0.0
 40
2.5
  1
月
 41
0.8333333333333334
  7
dcStyle0
 72
     5
 11
89.60000401
 21
-94.09999949
 31
0.0
100
AcDbText
  0
TEXT
  5
A9
330
1F
100
AcDbEntity
  8
0
 62
   150
100
AcDbText
 10
93.60000411
 20
-94.09999949
 30
0.0
 40
2.5
  1
日
 41
0.8333333333333334
  7
dcStyle0
 72
     5
 11
96.10000411
 21
-94.09999949
 31
0.0
100
AcDbText
  0
TEXT
  5
AA
330
1F
100
AcDbEntity
  8
0
 62
   222
100
AcDbText
 10
24.90000308
 20
-103.89999963
 30
0.0
 40
4.0
  1
タイヘイグレーチング
 41
1.041666666041667
  7
dcStyle0
 72
     5
 11
74.90000380000001
 21
-103.89999963
 31
0.0
100
AcDbText
  0
TEXT
  5
AB
330
1F
100
AcDbEntity
  8
0
 62
   222
100
AcDbText
 10
30.15000316
 20
-111.39999975
 30
0.0
 40
5.0
  1
石田鉄工株式会社
 41
0.8461538481952661
  7
dcStyle0
 72
     5
 11
74.15000384999999
 21
-111.39999975
 31
0.0
100
AcDbText
  0
LINE
  5
AC
330
1F
100
AcDbEntity
  8
22
  6
Continuous
 62
     2
370
    25
100
AcDbLine
 10
-182.0
 20
-128.5
 30
0.0
 11
-178.9999999552965
 21
-128.5
 31
0.0
  0
LINE
  5
AD
330
1F
100
AcDbEntity
  8
22
  6
Continuous
 62
     2
370
    25
100
AcDbLine
 10
-178.9999999552965
 20
-128.5
 30
0.0
 11
-178.9999999552965
 21
-125.4999999552965
 31
0.0
  0
LINE
  5
AE
330
1F
100
AcDbEntity
  8
22
  6
Continuous
 62
     2
370
    25
100
AcDbLine
 10
-178.9999999552965
 20
-125.4999999552965
 30
0.0
 11
-182.0
 21
-125.4999999552965
 31
0.0
  0
LINE
  5
AF
330
1F
100
AcDbEntity
  8
22
  6
Continuous
 62
     2
370
    25
100
AcDbLine
 10
-182.0
 20
-125.4999999552965
 30
0.0
 11
-182.0
 21
-128.5
 31
0.0
  0
LINE
  5
B0
330
1F
100
AcDbEntity
  8
22
  6
Continuous
 62
     2
370
    25
100
AcDbLine
 10
-182.0
 20
-128.5
 30
0.0
 11
-178.9999999552965
 21
-128.5
 31
0.0
  0
LINE
  5
B1
330
1F
100
AcDbEntity
  8
22
  6
Continuous
 62
     2
370
    25
100
AcDbLine
 10
-178.9999999552965
 20
-128.5
 30
0.0
 11
-178.9999999552965
 21
-125.4999999552965
 31
0.0
  0
LINE
  5
B2
330
1F
100
AcDbEntity
  8
22
  6
Continuous
 62
     2
370
    25
100
AcDbLine
 10
-178.9999999552965
 20
-125.4999999552965
 30
0.0
 11
-182.0
 21
-125.4999999552965
 31
0.0
  0
LINE
  5
B3
330
1F
100
AcDbEntity
  8
22
  6
Continuous
 62
     2
370
    25
100
AcDbLine
 10
-182.0
 20
-125.4999999552965
 30
0.0
 11
-182.0
 21
-128.5
 31
0.0
  0
LINE
  5
B4
330
1F
100
AcDbEntity
  8
22
  6
Continuous
 62
     2
370
    25
100
AcDbLine
 10
-182.0
 20
-128.5
 30
0.0
 11
-178.9999999552965
 21
-128.5
 31
0.0
  0
LINE
  5
B5
330
1F
100
AcDbEntity
  8
22
  6
Continuous
 62
     2
370
    25
100
AcDbLine
 10
-178.9999999552965
 20
-128.5
 30
0.0
 11
-178.9999999552965
 21
-125.4999999552965
 31
0.0
  0
LINE
  5
B6
330
1F
100
AcDbEntity
  8
22
  6
Continuous
 62
     2
370
    25
100
AcDbLine
 10
-178.9999999552965
 20
-125.4999999552965
 30
0.0
 11
-182.0
 21
-125.4999999552965
 31
0.0
  0
LINE
  5
B7
330
1F
100
AcDbEntity
  8
22
  6
Continuous
 62
     2
370
    25
100
AcDbLine
 10
-182.0
 20
-125.4999999552965
 30
0.0
 11
-182.0
 21
-128.5
 31
0.0
  0
TEXT
  5
B8
330
1F
100
AcDbEntity
  8
22
 62
     2
100
AcDbText
 10
102.40000424
 20
-104.49999966
 30
0.0
 40
3.2
  1
TYLOHC
 41
0.9375000008138019
  7
dcStyle0
 72
     5
 11
120.40000449
 21
-104.49999966
 31
0.0
100
AcDbText
  0
TEXT
  5
B9
330
1F
100
AcDbEntity
  8
22
 62
     2
100
AcDbText
 10
120.40000451
 20
-104.49999966
 30
0.0
 40
3.2
  1
 400 
 41
0.7812500027343752
  7
dcStyle0
 72
     5
 11
132.90000471
 21
-104.49999966
 31
0.0
100
AcDbText
  0
TEXT
  5
BA
330
1F
100
AcDbEntity
  8
22
 62
     2
100
AcDbText
 10
130.40000466
 20
-104.49999966
 30
0.0
 40
3.0
  1
×
 41
0.6944444444444445
  7
dcStyle0
 72
     5
 11
132.90000466
 21
-104.49999966
 31
0.0
100
AcDbText
  0
TEXT
  5
BB
330
1F
100
AcDbEntity
  8
22
 62
     2
100
AcDbText
 10
131.90000468
 20
-104.49999966
 30
0.0
 40
3.0
  1
 395 
 41
0.8333333355555547
  7
dcStyle0
 72
     5
 11
144.40000488
 21
-104.49999966
 31
0.0
100
AcDbText
  0
TEXT
  5
BC
330
1F
100
AcDbEntity
  8
22
 62
     2
100
AcDbText
 10
141.90000483
 20
-104.49999966
 30
0.0
 40
3.0
  1
×
 41
0.6944444444444445
  7
dcStyle0
 72
     5
 11
144.40000483
 21
-104.49999966
 31
0.0
100
AcDbText
  0
TEXT
  5
BD
330
1F
100
AcDbEntity
  8
22
 62
     2
100
AcDbText
 10
143.40000485
 20
-104.49999966
 30
0.0
 40
3.0
  1
 25 
 41
0.8333333354166671
  7
dcStyle0
 72
     5
 11
153.400005
 21
-104.49999966
 31
0.0
100
AcDbText
  0
TEXT
  5
BE
330
1F
100
AcDbEntity
  8
22
 62
     2
100
AcDbText
 10
102.30000424
 20
-112.99999978
 30
0.0
 40
3.0
  1
4L
  7
dcStyle0
 72
     5
 11
108.70000434
 21
-112.99999978
 31
0.0
100
AcDbText
  0
TEXT
  5
BF
330
1F
100
AcDbEntity
  8
22
 62
     2
100
AcDbText
 10
108.60000433
 20
-112.99999978
 30
0.0
 40
3.0
  1
枠
 41
0.8333333333333334
  7
dcStyle0
 72
     5
 11
111.60000433
 21
-112.99999978
 31
0.0
100
AcDbText
  0
TEXT
  5
C0
330
1F
100
AcDbEntity
  8
22
 62
     2
100
AcDbText
 10
25.65000309
 20
-94.59999949000002
 30
0.0
 40
3.0
  1
岡本　
 41
0.8536585384889945
  7
dcStyle0
 72
     5
 11
36.15000325
 21
-94.59999949000002
 31
0.0
100
AcDbText
  0
TEXT
  5
C1
330
1F
100
AcDbEntity
  8
22
 62
     2
100
AcDbText
 10
56.70000356000001
 20
-94.09999949000002
 30
0.0
 40
3.0
  1
1/
 41
1.000000000000001
  7
dcStyle0
 72
     5
 11
62.70000365000001
 21
-94.09999949000002
 31
0.0
100
AcDbText
  0
TEXT
  5
C2
330
1F
100
AcDbEntity
  8
22
 62
     2
100
AcDbText
 10
59.7000036
 20
-94.09999949000002
 30
0.0
 40
3.0
  1
 5 
 41
0.9999999999999998
  7
dcStyle0
 72
     5
 11
68.70000374
 21
-94.09999949000002
 31
0.0
100
AcDbText
  0
TEXT
  5
C3
330
1F
100
AcDbEntity
  8
22
 62
     2
100
AcDbText
 10
112.00000438
 20
-99.59999958000003
 30
0.0
 40
3.0
  1
TYLOHC25-33 T-2
 41
0.8333333354074075
  7
dcStyle0
 72
     5
 11
149.50000494
 21
-99.59999958000003
 31
0.0
100
AcDbText
  0
TEXT
  5
C4
330
1F
100
AcDbEntity
  8
22
 62
     2
100
AcDbText
 10
73.95000381
 20
-70.2999992
 30
0.0
 40
3.5
  1
＜表面処理＞
 41
0.7446808537799908
  7
dcStyle0
 72
     5
 11
94.95000411
 21
-70.2999992
 31
0.0
100
AcDbText
  0
TEXT
  5
C5
330
1F
100
AcDbEntity
  8
22
 62
     2
100
AcDbText
 10
78.95000389
 20
-75.29999928000001
 30
0.0
 40
3.5
  1
本体：溶融亜鉛メッキ
 41
0.7446808537256675
  7
dcStyle0
 72
     5
 11
113.95000438
 21
-75.29999928000001
 31
0.0
100
AcDbText
  0
TEXT
  5
C6
330
1F
100
AcDbEntity
  8
22
 62
     2
100
AcDbText
 10
115.20000467
 20
-75.29999928000001
 30
0.0
 40
3.5
  1
（セラミック充填）
 41
0.7446808539610686
  7
dcStyle0
 72
     5
 11
146.70000515
 21
-75.29999928000001
 31
0.0
100
AcDbText
  0
TEXT
  5
C7
330
1F
100
AcDbEntity
  8
22
 62
     2
100
AcDbText
 10
78.95000389
 20
-79.29999934
 30
0.0
 40
3.5
  1
受枠：黒ペイント塗装
 41
0.7446808537256675
  7
dcStyle0
 72
     5
 11
113.95000438
 21
-79.29999934
 31
0.0
100
AcDbText
  0
TEXT
  5
C8
330
1F
100
AcDbEntity
  8
22
 62
     2
100
AcDbText
 10
38.85000329
 20
-94.09999948807909
 30
0.0
 40
3.0
  1
戸田　
 41
0.8536585384889945
  7
dcStyle0
 72
     5
 11
49.35000345
 21
-94.09999948807909
 31
0.0
100
AcDbText
  0
TEXT
  5
C9
330
1F
100
AcDbEntity
  8
22
 62
     2
100
AcDbText
 10
93.20000409956918
 20
93.90000331192094
 30
0.0
 40
4.0
  1
◇　荷　重　計　算　◇
 41
0.833333335542929
  7
dcStyle0
 72
     5
 11
137.2000047995692
 21
93.90000331192094
 31
0.0
100
AcDbText
  0
TEXT
  5
CA
330
1F
100
AcDbEntity
  8
22
 62
     2
100
AcDbText
 10
63.85000365956918
 20
83.90000316192092
 30
0.0
 40
3.3
  1
設計条件
 41
0.8583691004600374
  7
dcStyle0
 72
     5
 11
79.85000388956917
 21
83.90000316192092
 31
0.0
100
AcDbText
  0
TEXT
  5
CB
330
1F
100
AcDbEntity
  8
22
 62
     2
100
AcDbText
 10
69.10000373956917
 20
77.90000307192092
 30
0.0
 40
3.3
  1
荷重基準：　
 41
0.8413461557530508
  7
dcStyle0
 72
     5
 11
90.10000403956917
 21
77.90000307192092
 31
0.0
100
AcDbText
  0
TEXT
  5
CC
330
1F
100
AcDbEntity
  8
22
 62
     2
100
AcDbText
 10
90.00000404956918
 20
77.90000307192092
 30
0.0
 40
3.3
  1
鋼道路橋等設計示方書による
 41
0.8413461557237141
  7
dcStyle0
 72
     5
 11
135.5000046895692
 21
77.90000307192092
 31
0.0
100
AcDbText
  0
TEXT
  5
CD
330
1F
100
AcDbEntity
  8
22
 62
     2
100
AcDbText
 10
69.10000373956917
 20
72.90000300192092
 30
0.0
 40
3.3
  1
荷　　重：　
 41
0.8413461557530508
  7
dcStyle0
 72
     5
 11
90.10000403956917
 21
72.90000300192092
 31
0.0
100
AcDbText
  0
TEXT
  5
CE
330
1F
100
AcDbEntity
  8
22
 62
     2
100
AcDbText
 10
90.10000405956919
 20
72.90000300192092
 30
0.0
 40
3.0
  1
T-
  7
dcStyle0
 72
     5
 11
96.10000414956919
 21
72.90000300192092
 31
0.0
100
AcDbText
  0
TEXT
  5
CF
330
1F
100
AcDbEntity
  8
22
 62
     2
100
AcDbText
 10
94.10000410956917
 20
72.90000300192092
 30
0.0
 40
3.0
  1
 2 
 41
0.8333333355555551
  7
dcStyle0
 72
     5
 11
101.6000042295692
 21
72.90000300192092
 31
0.0
100
AcDbText
  0
TEXT
  5
D0
330
1F
100
AcDbEntity
  8
22
 62
     2
100
AcDbText
 10
101.5000042195692
 20
72.90000300192092
 30
0.0
 40
3.3
  1
（後輪一輪荷重：
 41
0.8413461558960683
  7
dcStyle0
 72
     5
 11
129.5000046495692
 21
72.90000300192092
 31
0.0
100
AcDbText
  0
TEXT
  5
D1
330
1F
100
AcDbEntity
  8
22
 62
     2
100
AcDbText
 10
129.5000046395692
 20
72.90000300192092
 30
0.0
 40
3.0
  1
  800
 41
0.8333333355555547
  7
dcStyle0
 72
     5
 11
142.0000048395692
 21
72.90000300192092
 31
0.0
100
AcDbText
  0
TEXT
  5
D2
330
1F
100
AcDbEntity
  8
22
 62
     2
100
AcDbText
 10
142.0000048295692
 20
72.90000300192092
 30
0.0
 40
3.0
  1
Kg
 41
0.5000000033333338
  7
dcStyle0
 72
     5
 11
145.0000048695692
 21
72.90000300192092
 31
0.0
100
AcDbText
  0
TEXT
  5
D3
330
1F
100
AcDbEntity
  8
22
 62
     2
100
AcDbText
 10
145.0000048695692
 20
72.90000300192092
 30
0.0
 40
3.3
  1
）
 41
0.8333333333333363
  7
dcStyle0
 72
     5
 11
148.3000048695692
 21
72.90000300192092
 31
0.0
100
AcDbText
  0
TEXT
  5
D4
330
1F
100
AcDbEntity
  8
22
 62
     2
100
AcDbText
 10
69.10000373956917
 20
67.90000292192094
 30
0.0
 40
3.3
  1
載荷寸法：　
 41
0.8413461557530508
  7
dcStyle0
 72
     5
 11
90.10000403956917
 21
67.90000292192094
 31
0.0
100
AcDbText
  0
TEXT
  5
D5
330
1F
100
AcDbEntity
  8
22
 62
     2
100
AcDbText
 10
90.10000405956919
 20
67.90000292192093
 30
0.0
 40
3.0
  1
160
 41
0.8333333355555551
  7
dcStyle0
 72
     5
 11
97.60000417956918
 21
67.90000292192093
 31
0.0
100
AcDbText
  0
TEXT
  5
D6
330
1F
100
AcDbEntity
  8
22
 62
     2
100
AcDbText
 10
97.60000416956917
 20
67.90000292192093
 30
0.0
 40
3.0
  1
mm
 41
0.6666666700000008
  7
dcStyle0
 72
     5
 11
101.6000042295692
 21
67.90000292192093
 31
0.0
100
AcDbText
  0
TEXT
  5
D7
330
1F
100
AcDbEntity
  8
22
 62
     2
100
AcDbText
 10
101.5000042195692
 20
67.90000292192094
 30
0.0
 40
3.3
  1
×
 41
0.8333333333333326
  7
dcStyle0
 72
     5
 11
104.8000042195692
 21
67.90000292192094
 31
0.0
100
AcDbText
  0
TEXT
  5
D8
330
1F
100
AcDbEntity
  8
22
 62
     2
100
AcDbText
 10
105.0000042795692
 20
67.90000292192093
 30
0.0
 40
3.0
  1
200
 41
0.8333333355555551
  7
dcStyle0
 72
     5
 11
112.5000043995692
 21
67.90000292192093
 31
0.0
100
AcDbText
  0
TEXT
  5
D9
330
1F
100
AcDbEntity
  8
22
 62
     2
100
AcDbText
 10
112.5000043895692
 20
67.90000292192093
 30
0.0
 40
3.0
  1
mm
 41
0.6666666700000008
  7
dcStyle0
 72
     5
 11
116.5000044495692
 21
67.90000292192093
 31
0.0
100
AcDbText
  0
TEXT
  5
DA
330
1F
100
AcDbEntity
  8
22
 62
     2
100
AcDbText
 10
116.4000044495692
 20
67.90000292192094
 30
0.0
 40
3.3
  1
　（等分布負載）
 41
0.8413461558960686
  7
dcStyle0
 72
     5
 11
144.4000048795692
 21
67.90000292192094
 31
0.0
100
AcDbText
  0
TEXT
  5
DB
330
1F
100
AcDbEntity
  8
22
 62
     2
100
AcDbText
 10
69.10000373956917
 20
62.90000285192094
 30
0.0
 40
3.3
  1
許容応力：　
 41
0.8413461557530508
  7
dcStyle0
 72
     5
 11
90.10000403956917
 21
62.90000285192094
 31
0.0
100
AcDbText
  0
TEXT
  5
DC
330
1F
100
AcDbEntity
  8
22
 62
     2
100
AcDbText
 10
90.10000405956919
 20
62.90000285192094
 30
0.0
 40
3.3
  1
σｂ＝
 41
0.6313131350372407
  7
dcStyle0
 72
     5
 11
97.60000417956918
 21
62.90000285192094
 31
0.0
100
AcDbText
  0
TEXT
  5
DD
330
1F
100
AcDbEntity
  8
22
 62
     2
100
AcDbText
 10
97.60000416956917
 20
62.90000285192093
 30
0.0
 40
3.0
  1
 12.0
 41
0.8333333355555557
  7
dcStyle0
 72
     5
 11
110.1000043695692
 21
62.90000285192093
 31
0.0
100
AcDbText
  0
TEXT
  5
DE
330
1F
100
AcDbEntity
  8
22
 62
     2
100
AcDbText
 10
110.7000043595692
 20
62.90000285192093
 30
0.0
 40
3.0
  1
Kg
 41
0.5000000033333338
  7
dcStyle0
 72
     5
 11
113.7000043995692
 21
62.90000285192093
 31
0.0
100
AcDbText
  0
TEXT
  5
DF
330
1F
100
AcDbEntity
  8
22
 62
     2
100
AcDbText
 10
113.4500043995692
 20
62.90000285192093
 30
0.0
 40
3.0
  1
／
 41
0.8333333333333334
  7
dcStyle0
 72
     5
 11
116.4500043995692
 21
62.90000285192093
 31
0.0
100
AcDbText
  0
TEXT
  5
E0
330
1F
100
AcDbEntity
  8
22
 62
     2
100
AcDbText
 10
116.9500044595692
 20
62.90000285192093
 30
0.0
 40
3.0
  1
mm
 41
0.6666666700000008
  7
dcStyle0
 72
     5
 11
120.9500045195692
 21
62.90000285192093
 31
0.0
100
AcDbText
  0
TEXT
  5
E1
330
1F
100
AcDbEntity
  8
22
 62
     2
100
AcDbText
 10
120.9500045095692
 20
64.90000288192093
 30
0.0
 40
1.8
  1
2
 41
0.8333333333333333
  7
dcStyle0
 72
     5
 11
122.4500045095692
 21
64.90000288192093
 31
0.0
100
AcDbText
  0
TEXT
  5
E2
330
1F
100
AcDbEntity
  8
22
 62
     2
100
AcDbText
 10
123.4500045495692
 20
62.90000285192094
 30
0.0
 40
3.3
  1
（ＳＰＨＣ使用）
 41
0.7575757602540559
  7
dcStyle0
 72
     5
 11
147.4500048995692
 21
62.90000285192094
 31
0.0
100
AcDbText
  0
TEXT
  5
E3
330
1F
100
AcDbEntity
  8
22
 62
     2
100
AcDbText
 10
69.10000373956917
 20
57.90000278192094
 30
0.0
 40
3.3
  1
衝撃係数：　
 41
0.8413461557530508
  7
dcStyle0
 72
     5
 11
90.10000403956917
 21
57.90000278192094
 31
0.0
100
AcDbText
  0
TEXT
  5
E4
330
1F
100
AcDbEntity
  8
22
 62
     2
100
AcDbText
 10
90.10000405956919
 20
57.90000278192094
 30
0.0
 40
3.3
  1
ｉ　＝
 41
0.6313131350372407
  7
dcStyle0
 72
     5
 11
97.60000417956918
 21
57.90000278192094
 31
0.0
100
AcDbText
  0
TEXT
  5
E5
330
1F
100
AcDbEntity
  8
22
 62
     2
100
AcDbText
 10
97.60000416956917
 20
57.90000278192093
 30
0.0
 40
3.0
  1
 0.0
 41
0.8333333354166671
  7
dcStyle0
 72
     5
 11
107.6000043195692
 21
57.90000278192093
 31
0.0
100
AcDbText
  0
TEXT
  5
E6
330
1F
100
AcDbEntity
  8
22
 62
     2
100
AcDbText
 10
69.10000373956917
 20
52.90000270192093
 30
0.0
 40
3.3
  1
スパン　：　
 41
0.8413461557530508
  7
dcStyle0
 72
     5
 11
90.10000403956917
 21
52.90000270192093
 31
0.0
100
AcDbText
  0
TEXT
  5
E7
330
1F
100
AcDbEntity
  8
22
 62
     2
100
AcDbText
 10
90.10000405956919
 20
52.90000270192093
 30
0.0
 40
3.0
  1
L =
 41
0.8333333355555551
  7
dcStyle0
 72
     5
 11
97.60000417956918
 21
52.90000270192093
 31
0.0
100
AcDbText
  0
TEXT
  5
E8
330
1F
100
AcDbEntity
  8
22
 62
     2
100
AcDbText
 10
97.60000416956917
 20
52.90000270192093
 30
0.0
 40
3.0
  1
 300 
 41
0.8333333355555557
  7
dcStyle0
 72
     5
 11
110.1000043695692
 21
52.90000270192093
 31
0.0
100
AcDbText
  0
TEXT
  5
E9
330
1F
100
AcDbEntity
  8
22
 62
     2
100
AcDbText
 10
110.1000043495692
 20
52.90000270192093
 30
0.0
 40
3.0
  1
mm
 41
0.6666666700000008
  7
dcStyle0
 72
     5
 11
114.1000044095692
 21
52.90000270192093
 31
0.0
100
AcDbText
  0
TEXT
  5
EA
330
1F
100
AcDbEntity
  8
22
 62
     2
100
AcDbText
 10
79.10000388956918
 20
44.90000258192093
 30
0.0
 40
3.3
  1
　Ｗ　：主部材が支える最大後輪一輪荷重
 41
0.8413461559738498
  7
dcStyle0
 72
     5
 11
145.6000049495692
 21
44.90000258192093
 31
0.0
100
AcDbText
  0
TEXT
  5
EB
330
1F
100
AcDbEntity
  8
22
 62
     2
100
AcDbText
 10
145.6000048795692
 20
44.90000258192094
 30
0.0
 40
3.0
  1
（Kg）
 41
1.000000000000001
  7
dcStyle0
 72
     5
 11
153.6000049995692
 21
44.90000258192094
 31
0.0
100
AcDbText
  0
TEXT
  5
EC
330
1F
100
AcDbEntity
  8
22
 62
     2
100
AcDbText
 10
79.10000388956918
 20
40.90000252192093
 30
0.0
 40
3.3
  1
　Ｎ　：荷重を受ける主部材本数
 41
0.8413461558293269
  7
dcStyle0
 72
     5
 11
131.6000046695692
 21
40.90000252192093
 31
0.0
100
AcDbText
  0
TEXT
  5
ED
330
1F
100
AcDbEntity
  8
22
 62
     2
100
AcDbText
 10
79.10000388956918
 20
36.90000246192093
 30
0.0
 40
3.3
  1
〔Ｚ〕：主部材断面係数（㎜
 41
0.8413461557237143
  7
dcStyle0
 72
     5
 11
124.6000045295692
 21
36.90000246192093
 31
0.0
100
AcDbText
  0
TEXT
  5
EE
330
1F
100
AcDbEntity
  8
22
 62
     2
100
AcDbText
 10
124.6000045695692
 20
38.40000249192093
 30
0.0
 40
1.5
  1
3
  7
dcStyle0
 72
     5
 11
126.1000045695692
 21
38.40000249192093
 31
0.0
100
AcDbText
  0
TEXT
  5
EF
330
1F
100
AcDbEntity
  8
22
 62
     2
100
AcDbText
 10
126.1000045895692
 20
36.90000246192093
 30
0.0
 40
3.3
  1
）
 41
0.8333333333333326
  7
dcStyle0
 72
     5
 11
129.4000045895692
 21
36.90000246192093
 31
0.0
100
AcDbText
  0
TEXT
  5
F0
330
1F
100
AcDbEntity
  8
22
 62
     2
100
AcDbText
 10
79.10000388956918
 20
32.90000240192093
 30
0.0
 40
3.3
  1
　Ｓ　：溝幅方向載荷寸法（㎜）
 41
0.8413461558293269
  7
dcStyle0
 72
     5
 11
131.6000046695692
 21
32.90000240192093
 31
0.0
100
AcDbText
  0
TEXT
  5
F1
330
1F
100
AcDbEntity
  8
22
 62
     2
100
AcDbText
 10
63.85000365956918
 20
27.90000233192093
 30
0.0
 40
3.3
  1
荷重計算
 41
0.8583691004600374
  7
dcStyle0
 72
     5
 11
79.85000388956917
 21
27.90000233192093
 31
0.0
100
AcDbText
  0
TEXT
  5
F2
330
1F
100
AcDbEntity
  8
22
 62
     2
100
AcDbText
 10
69.10000373956917
 20
20.90000222192094
 30
0.0
 40
3.3
  1
横断溝
 41
0.8413461558801774
  7
dcStyle0
 72
     5
 11
79.60000389956917
 21
20.90000222192094
 31
0.0
100
AcDbText
  0
TEXT
  5
F3
330
1F
100
AcDbEntity
  8
22
 62
     2
100
AcDbText
 10
79.50000389956918
 20
20.90000222192094
 30
0.0
 40
3.3
  1
　（溝幅＞載荷寸法Ｓの場合）
 41
0.8413461557802923
  7
dcStyle0
 72
     5
 11
128.5000046095692
 21
20.90000222192094
 31
0.0
100
AcDbText
  0
TEXT
  5
F4
330
1F
100
AcDbEntity
  8
22
 62
     2
100
AcDbText
 10
69.20000373956917
 20
10.90000208192093
 30
0.0
 40
3.3
  1
Ｗ　＝
 41
0.6313131350372407
  7
dcStyle0
 72
     5
 11
76.70000385956916
 21
10.90000208192093
 31
0.0
100
AcDbText
  0
TEXT
  5
F5
330
1F
100
AcDbEntity
  8
22
 62
     2
100
AcDbText
 10
80.20000390956919
 20
13.40000211192093
 30
0.0
 40
3.0
  1
8
  7
dcStyle0
 72
     5
 11
83.20000390956919
 21
13.40000211192093
 31
0.0
100
AcDbText
  0
TEXT
  5
F6
330
1F
100
AcDbEntity
  8
22
 62
     2
100
AcDbText
 10
83.20000394956918
 20
13.40000211192093
 30
0.0
 40
0.8
  1
 
 41
0.9999999999999964
  7
dcStyle0
 72
     5
 11
84.00000394956918
 21
13.40000211192093
 31
0.0
100
AcDbText
  0
TEXT
  5
F7
330
1F
100
AcDbEntity
  8
22
 62
     2
100
AcDbText
 10
84.00000395956918
 20
13.40000211192093
 30
0.0
 40
3.3
  1
σｂ
 41
0.6313131345717272
  7
dcStyle0
 72
     5
 11
89.00000402956918
 21
13.40000211192093
 31
0.0
100
AcDbText
  0
TEXT
  5
F8
330
1F
100
AcDbEntity
  8
22
 62
     2
100
AcDbText
 10
89.00000403956918
 20
13.40000211192093
 30
0.0
 40
0.8
  1
 
 41
0.9999999999999964
  7
dcStyle0
 72
     5
 11
89.80000403956917
 21
13.40000211192093
 31
0.0
100
AcDbText
  0
TEXT
  5
F9
330
1F
100
AcDbEntity
  8
22
 62
     2
100
AcDbText
 10
89.80000404956917
 20
13.40000211192093
 30
0.0
 40
3.3
  1
Ｚ
 41
0.7575757575757576
  7
dcStyle0
 72
     5
 11
92.80000404956917
 21
13.40000211192093
 31
0.0
100
AcDbText
  0
TEXT
  5
FA
330
1F
100
AcDbEntity
  8
22
 62
     2
100
AcDbText
 10
80.20000390956919
 20
8.40000204192093
 30
0.0
 40
3.0
  1
2
 41
0.8333333333333334
  7
dcStyle0
 72
     5
 11
82.70000390956919
 21
8.40000204192093
 31
0.0
100
AcDbText
  0
TEXT
  5
FB
330
1F
100
AcDbEntity
  8
22
 62
     2
100
AcDbText
 10
82.70000393956919
 20
8.400002041920928
 30
0.0
 40
3.3
  1
Ｌ－Ｓ
 41
0.8333333352974188
  7
dcStyle0
 72
     5
 11
92.60000407956919
 21
8.400002041920928
 31
0.0
100
AcDbText
  0
TEXT
  5
FC
330
1F
100
AcDbEntity
  8
22
 62
     2
100
AcDbText
 10
94.20000411956919
 20
10.90000208192093
 30
0.0
 40
3.3
  1
＝
 41
0.7575757575757576
  7
dcStyle0
 72
     5
 11
97.20000411956919
 21
10.90000208192093
 31
0.0
100
AcDbText
  0
TEXT
  5
FD
330
1F
100
AcDbEntity
  8
22
 62
     2
100
AcDbText
 10
99.7000041995692
 20
13.40000211192093
 30
0.0
 40
3.0
  1
8
 41
0.8333333333333334
  7
dcStyle0
 72
     5
 11
102.2000041995692
 21
13.40000211192093
 31
0.0
100
AcDbText
  0
TEXT
  5
FE
330
1F
100
AcDbEntity
  8
22
 62
     2
100
AcDbText
 10
102.1000042295692
 20
13.40000211192093
 30
0.0
 40
3.3
  1
×
 41
0.8333333333333326
  7
dcStyle0
 72
     5
 11
105.4000042295692
 21
13.40000211192093
 31
0.0
100
AcDbText
  0
TEXT
  5
FF
330
1F
100
AcDbEntity
  8
22
 62
     2
100
AcDbText
 10
103.6000042595692
 20
13.40000211192093
 30
0.0
 40
3.0
  1
 12 
 41
0.8333333354166671
  7
dcStyle0
 72
     5
 11
113.6000044095692
 21
13.40000211192093
 31
0.0
100
AcDbText
  0
TEXT
  5
100
330
1F
100
AcDbEntity
  8
22
 62
     2
100
AcDbText
 10
112.2500043895692
 20
13.40000211192093
 30
0.0
 40
3.3
  1
×Ｚ
 41
0.8583691005360198
  7
dcStyle0
 72
     5
 11
120.2500045095692
 21
13.40000211192093
 31
0.0
100
AcDbText
  0
TEXT
  5
101
330
1F
100
AcDbEntity
  8
22
 62
     2
100
AcDbText
 10
99.7000041995692
 20
8.40000204192093
 30
0.0
 40
3.0
  1
2
 41
0.8333333333333334
  7
dcStyle0
 72
     5
 11
102.2000041995692
 21
8.40000204192093
 31
0.0
100
AcDbText
  0
TEXT
  5
102
330
1F
100
AcDbEntity
  8
22
 62
     2
100
AcDbText
 10
102.1000042295692
 20
8.400002041920928
 30
0.0
 40
3.3
  1
×
 41
0.8333333333333326
  7
dcStyle0
 72
     5
 11
105.4000042295692
 21
8.400002041920928
 31
0.0
100
AcDbText
  0
TEXT
  5
103
330
1F
100
AcDbEntity
  8
22
 62
     2
100
AcDbText
 10
103.6000042595692
 20
8.40000204192093
 30
0.0
 40
3.0
  1
 300 
 41
0.8333333355555557
  7
dcStyle0
 72
     5
 11
116.1000044595692
 21
8.40000204192093
 31
0.0
100
AcDbText
  0
TEXT
  5
104
330
1F
100
AcDbEntity
  8
22
 62
     2
100
AcDbText
 10
114.1000044095692
 20
8.400002041920928
 30
0.0
 40
3.3
  1
－
 41
0.6313131313131313
  7
dcStyle0
 72
     5
 11
116.6000044095692
 21
8.400002041920928
 31
0.0
100
AcDbText
  0
TEXT
  5
105
330
1F
100
AcDbEntity
  8
22
 62
     2
100
AcDbText
 10
115.6000044395692
 20
8.40000204192093
 30
0.0
 40
3.0
  1
 200 
 41
0.8333333355555547
  7
dcStyle0
 72
     5
 11
128.1000046395692
 21
8.40000204192093
 31
0.0
100
AcDbText
  0
TEXT
  5
106
330
1F
100
AcDbEntity
  8
22
 62
     2
100
AcDbText
 10
130.2000046495692
 20
10.90000208192093
 30
0.0
 40
3.3
  1
＝
 41
0.7575757575757576
  7
dcStyle0
 72
     5
 11
133.2000046495692
 21
10.90000208192093
 31
0.0
100
AcDbText
  0
TEXT
  5
107
330
1F
100
AcDbEntity
  8
22
 62
     2
100
AcDbText
 10
133.2000046995692
 20
10.90000208192093
 30
0.0
 40
3.0
  1
0.240
 41
0.8333333355555547
  7
dcStyle0
 72
     5
 11
145.7000048995692
 21
10.90000208192093
 31
0.0
100
AcDbText
  0
TEXT
  5
108
330
1F
100
AcDbEntity
  8
22
 62
     2
100
AcDbText
 10
145.3500048795692
 20
10.90000208192093
 30
0.0
 40
3.3
  1
×Ｚ
 41
0.8583691005360212
  7
dcStyle0
 72
     5
 11
153.3500049995692
 21
10.90000208192093
 31
0.0
100
AcDbText
  0
TEXT
  5
109
330
1F
100
AcDbEntity
  8
22
 62
     2
100
AcDbText
 10
69.20000373956917
 20
1.900001941920929
 30
0.0
 40
3.3
  1
Ｚ　＝　Ｎ〔Ｚ〕＝
 41
0.6313131346234511
  7
dcStyle0
 72
     5
 11
91.70000405956917
 21
1.900001941920929
 31
0.0
100
AcDbText
  0
TEXT
  5
10A
330
1F
100
AcDbEntity
  8
22
 62
     2
100
AcDbText
 10
89.70000404956919
 20
1.900001941920929
 30
0.0
 40
3.0
  1
 6 
 41
0.8333333355555551
  7
dcStyle0
 72
     5
 11
97.20000416956918
 21
1.900001941920929
 31
0.0
100
AcDbText
  0
TEXT
  5
10B
330
1F
100
AcDbEntity
  8
22
 62
     2
100
AcDbText
 10
95.20000412956917
 20
1.900001941920929
 30
0.0
 40
3.3
  1
×
 41
0.7575757575757576
  7
dcStyle0
 72
     5
 11
98.20000412956917
 21
1.900001941920929
 31
0.0
100
AcDbText
  0
TEXT
  5
10C
330
1F
100
AcDbEntity
  8
22
 62
     2
100
AcDbText
 10
98.20000417956919
 20
1.900001941920929
 30
0.0
 40
3.0
  1
0.644
 41
0.8333333355555557
  7
dcStyle0
 72
     5
 11
110.7000043795692
 21
1.900001941920929
 31
0.0
100
AcDbText
  0
TEXT
  5
10D
330
1F
100
AcDbEntity
  8
22
 62
     2
100
AcDbText
 10
110.6000043595692
 20
1.900001941920929
 30
0.0
 40
3.3
  1
×
 41
0.8333333333333326
  7
dcStyle0
 72
     5
 11
113.9000043595692
 21
1.900001941920929
 31
0.0
100
AcDbText
  0
TEXT
  5
10E
330
1F
100
AcDbEntity
  8
22
 62
     2
100
AcDbText
 10
114.1000044095692
 20
1.900001941920929
 30
0.0
 40
3.0
  1
10
 41
0.8333333352777776
  7
dcStyle0
 72
     5
 11
119.1000044795692
 21
1.900001941920929
 31
0.0
100
AcDbText
  0
TEXT
  5
10F
330
1F
100
AcDbEntity
  8
22
 62
     2
100
AcDbText
 10
119.1000044895692
 20
3.900001971920929
 30
0.0
 40
1.8
  1
3
 41
0.8333333333333333
  7
dcStyle0
 72
     5
 11
120.6000044895692
 21
3.900001971920929
 31
0.0
100
AcDbText
  0
TEXT
  5
110
330
1F
100
AcDbEntity
  8
22
 62
     2
100
AcDbText
 10
121.6000045195692
 20
1.900001941920929
 30
0.0
 40
3.0
  1
=
  7
dcStyle0
 72
     5
 11
124.6000045195692
 21
1.900001941920929
 31
0.0
100
AcDbText
  0
TEXT
  5
111
330
1F
100
AcDbEntity
  8
22
 62
     2
100
AcDbText
 10
124.6000045695692
 20
1.900001941920929
 30
0.0
 40
3.0
  1
3.86
 41
0.8333333354166671
  7
dcStyle0
 72
     5
 11
134.6000047195692
 21
1.900001941920929
 31
0.0
100
AcDbText
  0
TEXT
  5
112
330
1F
100
AcDbEntity
  8
22
 62
     2
100
AcDbText
 10
134.5000047195692
 20
1.900001941920929
 30
0.0
 40
3.3
  1
×
 41
0.8333333333333363
  7
dcStyle0
 72
     5
 11
137.8000047195692
 21
1.900001941920929
 31
0.0
100
AcDbText
  0
TEXT
  5
113
330
1F
100
AcDbEntity
  8
22
 62
     2
100
AcDbText
 10
138.0000047695692
 20
1.900001941920929
 30
0.0
 40
3.0
  1
10
 41
0.8333333352777776
  7
dcStyle0
 72
     5
 11
143.0000048395692
 21
1.900001941920929
 31
0.0
100
AcDbText
  0
TEXT
  5
114
330
1F
100
AcDbEntity
  8
22
 62
     2
100
AcDbText
 10
143.0000048395692
 20
3.900001971920929
 30
0.0
 40
1.8
  1
3
 41
0.8333333333333333
  7
dcStyle0
 72
     5
 11
144.5000048395692
 21
3.900001971920929
 31
0.0
100
AcDbText
  0
TEXT
  5
115
330
1F
100
AcDbEntity
  8
22
 62
     2
100
AcDbText
 10
64.20000366956917
 20
-5.099998158079071
 30
0.0
 40
3.3
  1
∴　Ｗ　＝
 41
0.6313131350372412
  7
dcStyle0
 72
     5
 11
76.70000386956917
 21
-5.099998158079071
 31
0.0
100
AcDbText
  0
TEXT
  5
116
330
1F
100
AcDbEntity
  8
22
 62
     2
100
AcDbText
 10
76.70000385956918
 20
-5.099998158079071
 30
0.0
 40
3.0
  1
 0.240
 41
0.8333333351851854
  7
dcStyle0
 72
     5
 11
91.70000405956918
 21
-5.099998158079071
 31
0.0
100
AcDbText
  0
TEXT
  5
117
330
1F
100
AcDbEntity
  8
22
 62
     2
100
AcDbText
 10
91.60000407956917
 20
-5.099998158079071
 30
0.0
 40
3.3
  1
×
 41
0.8333333333333326
  7
dcStyle0
 72
     5
 11
94.90000407956917
 21
-5.099998158079071
 31
0.0
100
AcDbText
  0
TEXT
  5
118
330
1F
100
AcDbEntity
  8
22
 62
     2
100
AcDbText
 10
95.10000412956919
 20
-5.099998158079071
 30
0.0
 40
3.0
  1
3.86
 41
0.8333333354166671
  7
dcStyle0
 72
     5
 11
105.1000042795692
 21
-5.099998158079071
 31
0.0
100
AcDbText
  0
TEXT
  5
119
330
1F
100
AcDbEntity
  8
22
 62
     2
100
AcDbText
 10
105.0000042795692
 20
-5.099998158079071
 30
0.0
 40
3.3
  1
×
 41
0.8333333333333326
  7
dcStyle0
 72
     5
 11
108.3000042795692
 21
-5.099998158079071
 31
0.0
100
AcDbText
  0
TEXT
  5
11A
330
1F
100
AcDbEntity
  8
22
 62
     2
100
AcDbText
 10
108.5000043295692
 20
-5.099998158079071
 30
0.0
 40
3.0
  1
10
 41
0.8333333352777776
  7
dcStyle0
 72
     5
 11
113.5000043995692
 21
-5.099998158079071
 31
0.0
100
AcDbText
  0
TEXT
  5
11B
330
1F
100
AcDbEntity
  8
22
 62
     2
100
AcDbText
 10
113.5000043995692
 20
-3.099998128079071
 30
0.0
 40
1.8
  1
3
 41
0.8333333333333333
  7
dcStyle0
 72
     5
 11
115.0000043995692
 21
-3.099998128079071
 31
0.0
100
AcDbText
  0
TEXT
  5
11C
330
1F
100
AcDbEntity
  8
22
 62
     2
100
AcDbText
 10
116.0000044395692
 20
-5.099998158079071
 30
0.0
 40
3.0
  1
=
  7
dcStyle0
 72
     5
 11
119.0000044395692
 21
-5.099998158079071
 31
0.0
100
AcDbText
  0
TEXT
  5
11D
330
1F
100
AcDbEntity
  8
22
 62
     2
100
AcDbText
 10
119.0000044895692
 20
-5.099998158079071
 30
0.0
 40
3.0
  1
0.93
 41
0.8333333354166671
  7
dcStyle0
 72
     5
 11
129.0000046395692
 21
-5.099998158079071
 31
0.0
100
AcDbText
  0
TEXT
  5
11E
330
1F
100
AcDbEntity
  8
22
 62
     2
100
AcDbText
 10
128.9000046295692
 20
-5.099998158079071
 30
0.0
 40
3.3
  1
×
 41
0.8333333333333363
  7
dcStyle0
 72
     5
 11
132.2000046295692
 21
-5.099998158079071
 31
0.0
100
AcDbText
  0
TEXT
  5
11F
330
1F
100
AcDbEntity
  8
22
 62
     2
100
AcDbText
 10
132.4000046895692
 20
-5.099998158079071
 30
0.0
 40
3.0
  1
10
 41
0.8333333352777776
  7
dcStyle0
 72
     5
 11
137.4000047595692
 21
-5.099998158079071
 31
0.0
100
AcDbText
  0
TEXT
  5
120
330
1F
100
AcDbEntity
  8
22
 62
     2
100
AcDbText
 10
137.4000047595692
 20
-3.099998128079071
 30
0.0
 40
1.8
  1
3
 41
0.8333333333333333
  7
dcStyle0
 72
     5
 11
138.9000047595692
 21
-3.099998128079071
 31
0.0
100
AcDbText
  0
TEXT
  5
121
330
1F
100
AcDbEntity
  8
22
 62
     2
100
AcDbText
 10
139.9000047995692
 20
-5.099998158079071
 30
0.0
 40
3.0
  1
(Kg)
 41
0.8333333354166671
  7
dcStyle0
 72
     5
 11
149.9000049495692
 21
-5.099998158079071
 31
0.0
100
AcDbText
  0
TEXT
  5
122
330
1F
100
AcDbEntity
  8
22
 62
     2
100
AcDbText
 10
69.20000373956917
 20
-12.09999826807907
 30
0.0
 40
3.3
  1
Ｔ
 41
0.6313131313131313
  7
dcStyle0
 72
     5
 11
71.70000373956917
 21
-12.09999826807907
 31
0.0
100
AcDbText
  0
TEXT
  5
123
330
1F
100
AcDbEntity
  8
22
 62
     2
100
AcDbText
 10
71.70000377956919
 20
-12.09999826807907
 30
0.0
 40
3.0
  1
 = 0
 41
0.8333333354166671
  7
dcStyle0
 72
     5
 11
81.70000392956919
 21
-12.09999826807907
 31
0.0
100
AcDbText
  0
TEXT
  5
124
330
1F
100
AcDbEntity
  8
22
 62
     2
100
AcDbText
 10
79.20000388956919
 20
-12.09999826807907
 30
0.0
 40
3.0
  1
 .4 
 41
0.8333333354166671
  7
dcStyle0
 72
     5
 11
89.2000040395692
 21
-12.09999826807907
 31
0.0
100
AcDbText
  0
TEXT
  5
125
330
1F
100
AcDbEntity
  8
22
 62
     2
100
AcDbText
 10
86.70000399956918
 20
-10.09999823807907
 30
0.0
 40
1.8
  1
-1
 41
0.833333335185186
  7
dcStyle0
 72
     5
 11
89.70000403956918
 21
-10.09999823807907
 31
0.0
100
AcDbText
  0
TEXT
  5
126
330
1F
100
AcDbEntity
  8
22
 62
     2
100
AcDbText
 10
90.60000405956917
 20
-12.09999826807907
 30
0.0
 40
3.3
  1
×
 41
0.8333333333333326
  7
dcStyle0
 72
     5
 11
93.90000405956917
 21
-12.09999826807907
 31
0.0
100
AcDbText
  0
TEXT
  5
127
330
1F
100
AcDbEntity
  8
22
 62
     2
100
AcDbText
 10
94.10000410956917
 20
-12.09999826807907
 30
0.0
 40
3.0
  1
10
 41
0.8333333352777776
  7
dcStyle0
 72
     5
 11
99.10000417956917
 21
-12.09999826807907
 31
0.0
100
AcDbText
  0
TEXT
  5
128
330
1F
100
AcDbEntity
  8
22
 62
     2
100
AcDbText
 10
99.10000418956918
 20
-10.09999823807907
 30
0.0
 40
1.8
  1
-3
 41
0.833333335185186
  7
dcStyle0
 72
     5
 11
102.1000042295692
 21
-10.09999823807907
 31
0.0
100
AcDbText
  0
TEXT
  5
129
330
1F
100
AcDbEntity
  8
22
 62
     2
100
AcDbText
 10
103.0000042495692
 20
-12.09999826807907
 30
0.0
 40
3.3
  1
×Ｗ
 41
0.8413461557530504
  7
dcStyle0
 72
     5
 11
110.0000043495692
 21
-12.09999826807907
 31
0.0
100
AcDbText
  0
TEXT
  5
12A
330
1F
100
AcDbEntity
  8
22
 62
     2
100
AcDbText
 10
69.20000373956917
 20
-17.09999833807908
 30
0.0
 40
3.0
  1
  = 0
 41
0.8333333355555557
  7
dcStyle0
 72
     5
 11
81.70000393956917
 21
-17.09999833807908
 31
0.0
100
AcDbText
  0
TEXT
  5
12B
330
1F
100
AcDbEntity
  8
22
 62
     2
100
AcDbText
 10
79.20000388956919
 20
-17.09999833807908
 30
0.0
 40
3.0
  1
 .4 
 41
0.8333333354166671
  7
dcStyle0
 72
     5
 11
89.2000040395692
 21
-17.09999833807908
 31
0.0
100
AcDbText
  0
TEXT
  5
12C
330
1F
100
AcDbEntity
  8
22
 62
     2
100
AcDbText
 10
86.70000399956918
 20
-15.09999830807907
 30
0.0
 40
1.8
  1
-1
 41
0.833333335185186
  7
dcStyle0
 72
     5
 11
89.70000403956918
 21
-15.09999830807907
 31
0.0
100
AcDbText
  0
TEXT
  5
12D
330
1F
100
AcDbEntity
  8
22
 62
     2
100
AcDbText
 10
90.60000405956917
 20
-17.09999833807907
 30
0.0
 40
3.3
  1
×
 41
0.8333333333333326
  7
dcStyle0
 72
     5
 11
93.90000405956917
 21
-17.09999833807907
 31
0.0
100
AcDbText
  0
TEXT
  5
12E
330
1F
100
AcDbEntity
  8
22
 62
     2
100
AcDbText
 10
94.10000410956917
 20
-17.09999833807908
 30
0.0
 40
3.0
  1
10
 41
0.8333333352777776
  7
dcStyle0
 72
     5
 11
99.10000417956917
 21
-17.09999833807908
 31
0.0
100
AcDbText
  0
TEXT
  5
12F
330
1F
100
AcDbEntity
  8
22
 62
     2
100
AcDbText
 10
99.10000418956918
 20
-15.09999830807907
 30
0.0
 40
1.8
  1
-3
 41
0.833333335185186
  7
dcStyle0
 72
     5
 11
102.1000042295692
 21
-15.09999830807907
 31
0.0
100
AcDbText
  0
TEXT
  5
130
330
1F
100
AcDbEntity
  8
22
 62
     2
100
AcDbText
 10
103.0000042495692
 20
-17.09999833807907
 30
0.0
 40
3.3
  1
×
 41
0.8333333333333326
  7
dcStyle0
 72
     5
 11
106.3000042495692
 21
-17.09999833807907
 31
0.0
100
AcDbText
  0
TEXT
  5
131
330
1F
100
AcDbEntity
  8
22
 62
     2
100
AcDbText
 10
106.5000042995692
 20
-17.09999833807908
 30
0.0
 40
3.0
  1
0.93
 41
0.8333333354166671
  7
dcStyle0
 72
     5
 11
116.5000044495692
 21
-17.09999833807908
 31
0.0
100
AcDbText
  0
TEXT
  5
132
330
1F
100
AcDbEntity
  8
22
 62
     2
100
AcDbText
 10
116.4000044495692
 20
-17.09999833807907
 30
0.0
 40
3.3
  1
×
 41
0.8333333333333326
  7
dcStyle0
 72
     5
 11
119.7000044495692
 21
-17.09999833807907
 31
0.0
100
AcDbText
  0
TEXT
  5
133
330
1F
100
AcDbEntity
  8
22
 62
     2
100
AcDbText
 10
119.9000044995692
 20
-17.09999833807908
 30
0.0
 40
3.0
  1
10
 41
0.8333333352777776
  7
dcStyle0
 72
     5
 11
124.9000045695692
 21
-17.09999833807908
 31
0.0
100
AcDbText
  0
TEXT
  5
134
330
1F
100
AcDbEntity
  8
22
 62
     2
100
AcDbText
 10
124.9000045695692
 20
-15.09999830807907
 30
0.0
 40
1.8
  1
3
 41
0.8333333333333333
  7
dcStyle0
 72
     5
 11
126.4000045695692
 21
-15.09999830807907
 31
0.0
100
AcDbText
  0
TEXT
  5
135
330
1F
100
AcDbEntity
  8
22
 62
     2
100
AcDbText
 10
69.20000373956917
 20
-22.09999841807907
 30
0.0
 40
3.0
  1
  =
 41
0.8333333355555551
  7
dcStyle0
 72
     5
 11
76.70000385956916
 21
-22.09999841807907
 31
0.0
100
AcDbText
  0
TEXT
  5
136
330
1F
100
AcDbEntity
  8
22
 62
     2
100
AcDbText
 10
76.70000385956918
 20
-22.09999841807907
 30
0.0
 40
3.0
  1
 2.3
 41
0.8333333354166671
  7
dcStyle0
 72
     5
 11
86.70000400956918
 21
-22.09999841807907
 31
0.0
100
AcDbText
  0
TEXT
  5
137
330
1F
100
AcDbEntity
  8
22
 62
     2
100
AcDbText
 10
89.2000040395692
 20
-22.09999841807907
 30
0.0
 40
3.0
  1
>
  7
dcStyle0
 72
     5
 11
92.2000040395692
 21
-22.09999841807907
 31
0.0
100
AcDbText
  0
TEXT
  5
138
330
1F
100
AcDbEntity
  8
22
 62
     2
100
AcDbText
 10
92.20000408956918
 20
-22.09999841807907
 30
0.0
 40
3.0
  1
 2 
 41
0.8333333355555551
  7
dcStyle0
 72
     5
 11
99.70000420956917
 21
-22.09999841807907
 31
0.0
100
AcDbText
  0
TEXT
  5
139
330
1F
100
AcDbEntity
  8
22
 62
     2
100
AcDbText
 10
84.10000396956919
 20
-58.09999894807907
 30
0.0
 40
3.3
  1
以上より　
 41
0.8413461559818791
  7
dcStyle0
 72
     5
 11
101.6000042495692
 21
-58.09999894807907
 31
0.0
100
AcDbText
  0
TEXT
  5
13A
330
1F
100
AcDbEntity
  8
22
 62
     2
100
AcDbText
 10
101.6000042295692
 20
-58.09999894807907
 30
0.0
 40
3.5
  1
Ｔ－
 41
0.8333333353174596
  7
dcStyle0
 72
     5
 11
108.6000043295692
 21
-58.09999894807907
 31
0.0
100
AcDbText
  0
TEXT
  5
13B
330
1F
100
AcDbEntity
  8
22
 62
     2
100
AcDbText
 10
108.6000043295692
 20
-58.09999894807907
 30
0.0
 40
3.0
  1
 2 
 41
0.8333333355555551
  7
dcStyle0
 72
     5
 11
116.1000044495692
 21
-58.09999894807907
 31
0.0
100
AcDbText
  0
TEXT
  5
13C
330
1F
100
AcDbEntity
  8
22
 62
     2
100
AcDbText
 10
116.0000044395692
 20
-58.09999894807907
 30
0.0
 40
3.3
  1
となる
 41
0.8413461558801774
  7
dcStyle0
 72
     5
 11
126.5000045995692
 21
-58.09999894807907
 31
0.0
100
AcDbText
  0
TEXT
  5
13D
330
1F
100
AcDbEntity
  8
22
 62
     2
100
AcDbText
 10
-150.9999995356232
 20
8.300002046728554
 30
0.0
 40
3.0
  1
車両進行方向
 50
90.0000001836389
 41
0.8333333352623459
  7
dcStyle0
 72
     5
 11
-150.999999593315
 21
26.30000229672856
 31
0.0
100
AcDbText
  0
TEXT
  5
13E
330
1F
100
AcDbEntity
  8
22
 62
     2
100
AcDbText
 10
-98.54999876043082
 20
85.1000031819209
 30
0.0
 40
2.5
  1
ベアリングバー：
 41
0.8333333352777776
  7
dcStyle0
 72
     5
 11
-78.54999848043083
 21
85.1000031819209
 31
0.0
100
AcDbText
  0
TEXT
  5
13F
330
1F
100
AcDbEntity
  8
22
 62
     2
100
AcDbText
 10
-78.54999846043083
 20
85.1000031819209
 30
0.0
 40
2.5
  1
Y-
 41
0.9999999999999998
  7
dcStyle0
 72
     5
 11
-73.54999839043083
 21
85.1000031819209
 31
0.0
100
AcDbText
  0
TEXT
  5
140
330
1F
100
AcDbEntity
  8
22
 62
     2
100
AcDbText
 10
-75.54999841043083
 20
85.1000031819209
 30
0.0
 40
2.5
  1
 25 
 41
1.0
  7
dcStyle0
 72
     5
 11
-65.54999826043083
 21
85.1000031819209
 31
0.0
100
AcDbText
  0
TEXT
  5
141
330
1F
100
AcDbEntity
  8
22
 62
     2
100
AcDbText
 10
-68.04999830043083
 20
85.1000031819209
 30
0.0
 40
2.5
  1
×
 41
0.8333333333333334
  7
dcStyle0
 72
     5
 11
-65.54999830043083
 21
85.1000031819209
 31
0.0
100
AcDbText
  0
TEXT
  5
142
330
1F
100
AcDbEntity
  8
22
 62
     2
100
AcDbText
 10
-65.54999826043083
 20
85.1000031819209
 30
0.0
 40
2.5
  1
20
 41
0.9999999999999998
  7
dcStyle0
 72
     5
 11
-60.54999819043083
 21
85.1000031819209
 31
0.0
100
AcDbText
  0
TEXT
  5
143
330
1F
100
AcDbEntity
  8
22
 62
     2
100
AcDbText
 10
-60.54999819043083
 20
85.1000031819209
 30
0.0
 40
2.5
  1
×
 41
0.8333333333333334
  7
dcStyle0
 72
     5
 11
-58.04999819043083
 21
85.1000031819209
 31
0.0
100
AcDbText
  0
TEXT
  5
144
330
1F
100
AcDbEntity
  8
22
 62
     2
100
AcDbText
 10
-60.04999818043083
 20
85.1000031819209
 30
0.0
 40
2.5
  1
 4.6 
 41
0.8000000025599998
  7
dcStyle0
 72
     5
 11
-50.04999802043083
 21
85.1000031819209
 31
0.0
100
AcDbText
  0
TEXT
  5
145
330
1F
100
AcDbEntity
  8
22
 62
     2
100
AcDbText
 10
-93.69999868043082
 20
80.9000031219209
 30
0.0
 40
2.5
  1
ツイストバー：
 41
0.8333333352380955
  7
dcStyle0
 72
     5
 11
-76.19999844043082
 21
80.9000031219209
 31
0.0
100
AcDbText
  0
TEXT
  5
146
330
1F
100
AcDbEntity
  8
22
 62
     2
100
AcDbText
 10
-76.19999842043083
 20
80.9000031219209
 30
0.0
 40
2.5
  1
φ
 41
0.8333333333333334
  7
dcStyle0
 72
     5
 11
-73.69999842043083
 21
80.9000031219209
 31
0.0
100
AcDbText
  0
TEXT
  5
147
330
1F
100
AcDbEntity
  8
22
 62
     2
100
AcDbText
 10
-75.69999842043083
 20
80.9000031219209
 30
0.0
 40
2.5
  1
 8 
 41
0.9999999999999994
  7
dcStyle0
 72
     5
 11
-68.19999830043083
 21
80.9000031219209
 31
0.0
100
AcDbText
  0
TEXT
  5
148
330
1F
100
AcDbEntity
  8
22
 62
     2
100
AcDbText
 10
-68.19999830043082
 20
80.9000031219209
 30
0.0
 40
2.5
  1
絞りパイプ
 41
0.8333333355555557
  7
dcStyle0
 72
     5
 11
-55.69999810043082
 21
80.9000031219209
 31
0.0
100
AcDbText
  0
TEXT
  5
149
330
1F
100
AcDbEntity
  8
22
 62
     2
100
AcDbText
 10
-89.05999617043082
 20
76.20000305192092
 30
0.0
 40
2.5
  1
エンドプレート：
 41
0.8333333352777776
  7
dcStyle0
 72
     5
 11
-69.05999589043083
 21
76.20000305192092
 31
0.0
100
AcDbText
  0
TEXT
  5
14A
330
1F
100
AcDbEntity
  8
22
 62
     2
100
AcDbText
 10
-69.05999588043083
 20
76.20000305192092
 30
0.0
 40
2.5
  1
FB
 41
0.9999999999999998
  7
dcStyle0
 72
     5
 11
-64.05999581043083
 21
76.20000305192092
 31
0.0
100
AcDbText
  0
TEXT
  5
14B
330
1F
100
AcDbEntity
  8
22
 62
     2
100
AcDbText
 10
-66.05999583043082
 20
76.20000305192092
 30
0.0
 40
2.5
  1
 4.5 
 41
0.8000000025599998
  7
dcStyle0
 72
     5
 11
-56.05999567043082
 21
76.20000305192092
 31
0.0
100
AcDbText
  0
TEXT
  5
14C
330
1F
100
AcDbEntity
  8
22
 62
     2
100
AcDbText
 10
-58.55999572043083
 20
76.20000305192092
 30
0.0
 40
2.5
  1
×
 41
0.8333333333333334
  7
dcStyle0
 72
     5
 11
-56.05999572043083
 21
76.20000305192092
 31
0.0
100
AcDbText
  0
TEXT
  5
14D
330
1F
100
AcDbEntity
  8
22
 62
     2
100
AcDbText
 10
-58.05999571043083
 20
76.20000305192092
 30
0.0
 40
2.5
  1
 25 
 41
0.9999999999999998
  7
dcStyle0
 72
     5
 11
-48.05999556043083
 21
76.20000305192092
 31
0.0
100
AcDbText
  0
TEXT
  5
14E
330
1F
100
AcDbEntity
  8
22
 62
     2
100
AcDbText
 10
-99.67999755043083
 20
-60.19999897807912
 30
0.0
 40
3.0
  1
 389 
 41
0.8333333355555557
  7
dcStyle0
 72
     5
 11
-87.17999735043082
 21
-60.19999897807912
 31
0.0
100
AcDbText
  0
TEXT
  5
14F
330
1F
100
AcDbEntity
  8
22
 62
     2
100
AcDbText
 10
-54.29999166043083
 20
-60.19999897807912
 30
0.0
 40
3.0
  1
 6 
 41
0.8333333355555559
  7
dcStyle0
 72
     5
 11
-46.79999154043083
 21
-60.19999897807912
 31
0.0
100
AcDbText
  0
TEXT
  5
150
330
1F
100
AcDbEntity
  8
22
 62
     2
100
AcDbText
 10
-48.79999158043082
 20
-60.19999897807912
 30
0.0
 40
3.0
  1
□
 41
0.6944444444444445
  7
dcStyle0
 72
     5
 11
-46.29999158043082
 21
-60.19999897807912
 31
0.0
100
AcDbText
  0
TEXT
  5
151
330
1F
100
AcDbEntity
  8
22
 62
     2
100
AcDbText
 10
-148.7999995004308
 20
-53.1999988780791
 30
0.0
 40
3.0
  1
 12.5 
 41
0.8333333351851846
  7
dcStyle0
 72
     5
 11
-133.7999993004308
 21
-53.1999988780791
 31
0.0
100
AcDbText
  0
TEXT
  5
152
330
1F
100
AcDbEntity
  8
22
 62
     2
100
AcDbText
 10
-99.04999876043082
 20
-53.1999988780791
 30
0.0
 40
3.0
  1
 395 
 41
0.8333333355555557
  7
dcStyle0
 72
     5
 11
-86.54999856043082
 21
-53.1999988780791
 31
0.0
100
AcDbText
  0
TEXT
  5
153
330
1F
100
AcDbEntity
  8
22
 62
     2
100
AcDbText
 10
-51.79999806043082
 20
-53.1999988780791
 30
0.0
 40
3.0
  1
 12.5 
 41
0.8333333351851854
  7
dcStyle0
 72
     5
 11
-36.79999786043082
 21
-53.1999988780791
 31
0.0
100
AcDbText
  0
TEXT
  5
154
330
1F
100
AcDbEntity
  8
22
 62
     2
100
AcDbText
 10
-99.04999876043082
 20
-46.19999877807911
 30
0.0
 40
3.0
  1
 420 
 41
0.8333333355555557
  7
dcStyle0
 72
     5
 11
-86.54999856043082
 21
-46.19999877807911
 31
0.0
100
AcDbText
  0
TEXT
  5
155
330
1F
100
AcDbEntity
  8
22
 62
     2
100
AcDbText
 10
-139.0499993604308
 20
-40.6999986880791
 30
0.0
 40
2.7
  1
セラミック充填
 41
0.8474576289654043
  7
dcStyle0
 72
     5
 11
-118.0499990604308
 21
-40.6999986880791
 31
0.0
100
AcDbText
  0
TEXT
  5
156
330
1F
100
AcDbEntity
  8
22
 62
     2
100
AcDbText
 10
-8.799997416424441
 20
40.15000251672856
 30
0.0
 40
3.0
  1
 100 
 50
90.0000001836389
 41
0.8333333355555557
  7
dcStyle0
 72
     5
 11
-8.799997456488235
 21
52.65000271672857
 31
0.0
100
AcDbText
  0
TEXT
  5
157
330
1F
100
AcDbEntity
  8
22
 62
     2
100
AcDbText
 10
-8.799997416424441
 20
20.15000221672856
 30
0.0
 40
3.0
  1
 100 
 50
90.0000001836389
 41
0.8333333355555554
  7
dcStyle0
 72
     5
 11
-8.799997456488235
 21
32.65000241672855
 31
0.0
100
AcDbText
  0
TEXT
  5
158
330
1F
100
AcDbEntity
  8
22
 62
     2
100
AcDbText
 10
-15.79999751642444
 20
57.40000277672857
 30
0.0
 40
3.0
  1
 10 
 50
90.0000001836389
 41
0.8333333354166671
  7
dcStyle0
 72
     5
 11
-15.79999754847548
 21
67.40000292672858
 31
0.0
100
AcDbText
  0
TEXT
  5
159
330
1F
100
AcDbEntity
  8
22
 62
     2
100
AcDbText
 10
-15.79999751642444
 20
10.15000206672856
 30
0.0
 40
3.0
  1
 400 
 50
90.0000001836389
 41
0.8333333355555556
  7
dcStyle0
 72
     5
 11
-15.79999755648824
 21
22.65000226672856
 31
0.0
100
AcDbText
  0
TEXT
  5
15A
330
1F
100
AcDbEntity
  8
22
 62
     2
100
AcDbText
 10
-15.79999751642444
 20
-34.59999859327145
 30
0.0
 40
3.0
  1
 10 
 50
90.0000001836389
 41
0.8333333354166668
  7
dcStyle0
 72
     5
 11
-15.79999754847548
 21
-24.59999844327145
 31
0.0
100
AcDbText
  0
TEXT
  5
15B
330
1F
100
AcDbEntity
  8
22
 62
     2
100
AcDbText
 10
-22.79999762642444
 20
10.15000206672856
 30
0.0
 40
3.0
  1
 420 
 50
90.0000001836389
 41
0.8333333355555556
  7
dcStyle0
 72
     5
 11
-22.79999766648823
 21
22.65000226672856
 31
0.0
100
AcDbText
  0
TEXT
  5
15C
330
1F
100
AcDbEntity
  8
22
 62
     2
100
AcDbText
 10
27.70000313357556
 20
47.40000262672855
 30
0.0
 40
3.0
  1
 60 
 50
90.0000001836389
 41
0.8333333354166665
  7
dcStyle0
 72
     5
 11
27.70000310152453
 21
57.40000277672855
 31
0.0
100
AcDbText
  0
TEXT
  5
15D
330
1F
100
AcDbEntity
  8
22
 62
     2
100
AcDbText
 10
27.70000313357556
 20
10.15000206672856
 30
0.0
 40
3.0
  1
 300 
 50
90.0000001836389
 41
0.8333333355555556
  7
dcStyle0
 72
     5
 11
27.70000309351177
 21
22.65000226672856
 31
0.0
100
AcDbText
  0
TEXT
  5
15E
330
1F
100
AcDbEntity
  8
22
 62
     2
100
AcDbText
 10
27.70000313357556
 20
-24.59999844327145
 30
0.0
 40
3.0
  1
 60 
 50
90.0000001836389
 41
0.8333333354166667
  7
dcStyle0
 72
     5
 11
27.70000310152453
 21
-14.59999829327145
 31
0.0
100
AcDbText
  0
TEXT
  5
15F
330
1F
100
AcDbEntity
  8
22
 62
     2
100
AcDbText
 10
11.80000288956918
 20
78.9000030919209
 30
0.0
 40
2.5
  1
φ
 41
0.6666666666666666
  7
dcStyle0
 72
     5
 11
13.80000288956918
 21
78.9000030919209
 31
0.0
100
AcDbText
  0
TEXT
  5
160
330
1F
100
AcDbEntity
  8
22
 62
     2
100
AcDbText
 10
11.80000288956918
 20
78.9000030919209
 30
0.0
 40
2.5
  1
 13 
 41
0.8000000024000001
  7
dcStyle0
 72
     5
 11
19.80000300956918
 21
78.9000030919209
 31
0.0
100
AcDbText
  0
TEXT
  5
161
330
1F
100
AcDbEntity
  8
22
 62
     2
100
AcDbText
 10
17.80000297956918
 20
78.9000030919209
 30
0.0
 40
2.5
  1
ｱﾝｶｰ
 41
0.8000000023999999
  7
dcStyle0
 72
     5
 11
25.80000309956918
 21
78.9000030919209
 31
0.0
100
AcDbText
  0
TEXT
  5
162
330
1F
100
AcDbEntity
  8
22
 62
     2
100
AcDbText
 10
-12.29999747043082
 20
-40.0999986780791
 30
0.0
 40
3.0
  1
 25 
 41
0.8333333354166667
  7
dcStyle0
 72
     5
 11
-2.299997320430821
 21
-40.0999986780791
 31
0.0
100
AcDbText
  0
TEXT
  5
163
330
1F
100
AcDbEntity
  8
22
 62
     2
100
AcDbText
 10
-12.29999747043082
 20
-47.0999987880791
 30
0.0
 40
3.0
  1
 31 
 41
0.8333333354166667
  7
dcStyle0
 72
     5
 11
-2.299997320430821
 21
-47.0999987880791
 31
0.0
100
AcDbText
  0
TEXT
  5
164
330
1F
100
AcDbEntity
  8
22
 62
     2
100
AcDbText
 10
-37.79999785043082
 20
-40.0999986780791
 30
0.0
 40
2.5
  1
L-
 41
0.8000000023999996
  7
dcStyle0
 72
     5
 11
-33.79999779043082
 21
-40.0999986780791
 31
0.0
100
AcDbText
  0
TEXT
  5
165
330
1F
100
AcDbEntity
  8
22
 62
     2
100
AcDbText
 10
-35.29999781043082
 20
-40.0999986780791
 30
0.0
 40
2.5
  1
 6 
 41
0.8000000021333332
  7
dcStyle0
 72
     5
 11
-29.29999773043082
 21
-40.0999986780791
 31
0.0
100
AcDbText
  0
TEXT
  5
166
330
1F
100
AcDbEntity
  8
22
 62
     2
100
AcDbText
 10
-31.29999775043082
 20
-40.0999986780791
 30
0.0
 40
2.5
  1
×
 41
0.6666666666666666
  7
dcStyle0
 72
     5
 11
-29.29999775043082
 21
-40.0999986780791
 31
0.0
100
AcDbText
  0
TEXT
  5
167
330
1F
100
AcDbEntity
  8
22
 62
     2
100
AcDbText
 10
-31.29999775043082
 20
-40.0999986780791
 30
0.0
 40
2.5
  1
 31 
 41
0.8000000023999999
  7
dcStyle0
 72
     5
 11
-23.29999763043082
 21
-40.0999986780791
 31
0.0
100
AcDbText
  0
TEXT
  5
168
330
1F
100
AcDbEntity
  8
22
 62
     2
100
AcDbText
 10
-25.29999766043082
 20
-40.0999986780791
 30
0.0
 40
2.5
  1
×
 41
0.6666666666666666
  7
dcStyle0
 72
     5
 11
-23.29999766043082
 21
-40.0999986780791
 31
0.0
100
AcDbText
  0
TEXT
  5
169
330
1F
100
AcDbEntity
  8
22
 62
     2
100
AcDbText
 10
-24.79999766043082
 20
-40.0999986780791
 30
0.0
 40
2.5
  1
 60 
 41
0.8000000023999999
  7
dcStyle0
 72
     5
 11
-16.79999754043082
 21
-40.0999986780791
 31
0.0
100
AcDbText
  0
TEXT
  5
16A
330
1F
100
AcDbEntity
  8
22
 62
     2
100
AcDbText
 10
24.20000306956918
 20
-77.69999923807909
 30
0.0
 40
3.0
  1
本体重量：
 41
0.6944444478395061
  7
dcStyle0
 72
     5
 11
36.70000326956918
 21
-77.69999923807909
 31
0.0
100
AcDbText
  0
TEXT
  5
16B
330
1F
100
AcDbEntity
  8
22
 62
     2
100
AcDbText
 10
36.70000325956919
 20
-77.69999923807909
 30
0.0
 40
3.0
  1
  7.8
 41
0.666666670222222
  7
dcStyle0
 72
     5
 11
46.70000341956919
 21
-77.69999923807909
 31
0.0
100
AcDbText
  0
TEXT
  5
16C
330
1F
100
AcDbEntity
  8
22
 62
     2
100
AcDbText
 10
46.70000340956918
 20
-77.69999923807909
 30
0.0
 40
3.0
  1
Kg
 41
0.6666666699999997
  7
dcStyle0
 72
     5
 11
50.70000346956918
 21
-77.69999923807909
 31
0.0
100
AcDbText
  0
TEXT
  5
16D
330
1F
100
AcDbEntity
  8
22
 62
     2
100
AcDbText
 10
24.20000306956918
 20
-81.69999929807912
 30
0.0
 40
3.0
  1
受枠重量：
 41
0.6944444478395061
  7
dcStyle0
 72
     5
 11
36.70000326956918
 21
-81.69999929807912
 31
0.0
100
AcDbText
  0
TEXT
  5
16E
330
1F
100
AcDbEntity
  8
22
 62
     2
100
AcDbText
 10
36.70000325956919
 20
-81.69999929807912
 30
0.0
 40
3.0
  1
  7.1
 41
0.666666670222222
  7
dcStyle0
 72
     5
 11
46.70000341956919
 21
-81.69999929807912
 31
0.0
100
AcDbText
  0
TEXT
  5
16F
330
1F
100
AcDbEntity
  8
22
 62
     2
100
AcDbText
 10
46.70000340956918
 20
-81.69999929807912
 30
0.0
 40
3.0
  1
Kg
 41
0.6666666699999997
  7
dcStyle0
 72
     5
 11
50.70000346956918
 21
-81.69999929807912
 31
0.0
100
AcDbText
  0
TEXT
  5
170
330
1F
100
AcDbEntity
  8
22
 62
     2
100
AcDbText
 10
-92.23999996043082
 20
-67.19999908807908
 30
0.0
 40
3.0
  1
 27.9 
 41
0.8333333351851854
  7
dcStyle0
 72
     5
 11
-77.23999976043082
 21
-67.19999908807908
 31
0.0
100
AcDbText
  0
TEXT
  5
171
330
1F
100
AcDbEntity
  8
22
 62
     2
100
AcDbText
 10
-133.7999992804308
 20
-103.1999996180791
 30
0.0
 40
3.0
  1
 60 
 41
0.8333333354166671
  7
dcStyle0
 72
     5
 11
-123.7999991304308
 21
-103.1999996180791
 31
0.0
100
AcDbText
  0
TEXT
  5
172
330
1F
100
AcDbEntity
  8
22
 62
     2
100
AcDbText
 10
-99.04999876043082
 20
-103.1999996180791
 30
0.0
 40
3.0
  1
 300 
 41
0.8333333355555557
  7
dcStyle0
 72
     5
 11
-86.54999856043082
 21
-103.1999996180791
 31
0.0
100
AcDbText
  0
TEXT
  5
173
330
1F
100
AcDbEntity
  8
22
 62
     2
100
AcDbText
 10
-61.79999821043083
 20
-103.1999996180791
 30
0.0
 40
3.0
  1
 60 
 41
0.8333333354166665
  7
dcStyle0
 72
     5
 11
-51.79999806043083
 21
-103.1999996180791
 31
0.0
100
AcDbText
  0
LINE
  5
174
330
1F
100
AcDbEntity
  8
16
  6
Continuous
 62
     3
370
    25
100
AcDbLine
 10
-182.0
 20
-128.5
 30
0.0
 11
-178.9999999552965
 21
-128.5
 31
0.0
  0
LINE
  5
175
330
1F
100
AcDbEntity
  8
16
  6
Continuous
 62
     3
370
    25
100
AcDbLine
 10
-178.9999999552965
 20
-128.5
 30
0.0
 11
-178.9999999552965
 21
-125.4999999552965
 31
0.0
  0
LINE
  5
176
330
1F
100
AcDbEntity
  8
16
  6
Continuous
 62
     3
370
    25
100
AcDbLine
 10
-182.0
 20
-125.4999999552965
 30
0.0
 11
-178.9999999552965
 21
-125.4999999552965
 31
0.0
  0
LINE
  5
177
330
1F
100
AcDbEntity
  8
16
  6
Continuous
 62
     3
370
    25
100
AcDbLine
 10
-182.0
 20
-128.5
 30
0.0
 11
-182.0
 21
-125.4999999552965
 31
0.0
  0
LINE
  5
178
330
1F
100
AcDbEntity
  8
16
  6
Continuous
 62
     3
370
    25
100
AcDbLine
 10
-182.0
 20
-128.5
 30
0.0
 11
-178.9999999552965
 21
-128.5
 31
0.0
  0
LINE
  5
179
330
1F
100
AcDbEntity
  8
16
  6
Continuous
 62
     3
370
    25
100
AcDbLine
 10
-178.9999999552965
 20
-128.5
 30
0.0
 11
-178.9999999552965
 21
-125.4999999552965
 31
0.0
  0
LINE
  5
17A
330
1F
100
AcDbEntity
  8
16
  6
Continuous
 62
     3
370
    25
100
AcDbLine
 10
-182.0
 20
-125.4999999552965
 30
0.0
 11
-178.9999999552965
 21
-125.4999999552965
 31
0.0
  0
LINE
  5
17B
330
1F
100
AcDbEntity
  8
16
  6
Continuous
 62
     3
370
    25
100
AcDbLine
 10
-182.0
 20
-128.5
 30
0.0
 11
-182.0
 21
-125.4999999552965
 31
0.0
  0
LINE
  5
17C
330
1F
100
AcDbEntity
  8
16
  6
Continuous
 62
     3
370
    25
100
AcDbLine
 10
-182.0
 20
-128.5
 30
0.0
 11
-178.9999999552965
 21
-128.5
 31
0.0
  0
LINE
  5
17D
330
1F
100
AcDbEntity
  8
16
  6
Continuous
 62
     3
370
    25
100
AcDbLine
 10
-178.9999999552965
 20
-128.5
 30
0.0
 11
-178.9999999552965
 21
-125.4999999552965
 31
0.0
  0
LINE
  5
17E
330
1F
100
AcDbEntity
  8
16
  6
Continuous
 62
     3
370
    25
100
AcDbLine
 10
-182.0
 20
-125.4999999552965
 30
0.0
 11
-178.9999999552965
 21
-125.4999999552965
 31
0.0
  0
LINE
  5
17F
330
1F
100
AcDbEntity
  8
16
  6
Continuous
 62
     3
370
    25
100
AcDbLine
 10
-182.0
 20
-128.5
 30
0.0
 11
-182.0
 21
-125.4999999552965
 31
0.0
  0
LINE
  5
180
330
1F
100
AcDbEntity
  8
16
  6
Continuous
 62
     3
370
    25
100
AcDbLine
 10
-182.0
 20
-128.5
 30
0.0
 11
-178.9999999552965
 21
-128.5
 31
0.0
  0
LINE
  5
181
330
1F
100
AcDbEntity
  8
16
  6
Continuous
 62
     3
370
    25
100
AcDbLine
 10
-178.9999999552965
 20
-128.5
 30
0.0
 11
-178.9999999552965
 21
-125.4999999552965
 31
0.0
  0
LINE
  5
182
330
1F
100
AcDbEntity
  8
16
  6
Continuous
 62
     3
370
    25
100
AcDbLine
 10
-182.0
 20
-125.4999999552965
 30
0.0
 11
-178.9999999552965
 21
-125.4999999552965
 31
0.0
  0
LINE
  5
183
330
1F
100
AcDbEntity
  8
16
  6
Continuous
 62
     3
370
    25
100
AcDbLine
 10
-182.0
 20
-128.5
 30
0.0
 11
-182.0
 21
-125.4999999552965
 31
0.0
  0
LINE
  5
184
330
1F
100
AcDbEntity
  8
16
  6
Continuous
 62
     3
370
    25
100
AcDbLine
 10
-182.0
 20
-128.5
 30
0.0
 11
-178.9999999552965
 21
-128.5
 31
0.0
  0
LINE
  5
185
330
1F
100
AcDbEntity
  8
16
  6
Continuous
 62
     3
370
    25
100
AcDbLine
 10
-178.9999999552965
 20
-128.5
 30
0.0
 11
-178.9999999552965
 21
-125.4999999552965
 31
0.0
  0
LINE
  5
186
330
1F
100
AcDbEntity
  8
16
  6
Continuous
 62
     3
370
    25
100
AcDbLine
 10
-182.0
 20
-125.4999999552965
 30
0.0
 11
-178.9999999552965
 21
-125.4999999552965
 31
0.0
  0
LINE
  5
187
330
1F
100
AcDbEntity
  8
16
  6
Continuous
 62
     3
370
    25
100
AcDbLine
 10
-182.0
 20
-128.5
 30
0.0
 11
-182.0
 21
-125.4999999552965
 31
0.0
  0
LINE
  5
188
330
1F
100
AcDbEntity
  8
16
  6
Continuous
 62
     3
370
    25
100
AcDbLine
 10
-55.75999567747114
 20
55.50000274181364
 30
0.0
 11
-54.55999565958975
 21
55.50000274181364
 31
0.0
  0
LINE
  5
189
330
1F
100
AcDbEntity
  8
16
  6
Continuous
 62
     3
370
    25
100
AcDbLine
 10
-54.55999565958975
 20
-22.69999842345717
 30
0.0
 11
-54.55999565958975
 21
55.50000274181364
 31
0.0
  0
LINE
  5
18A
330
1F
100
AcDbEntity
  8
16
  6
Continuous
 62
     3
370
    25
100
AcDbLine
 10
-55.75999567747114
 20
-22.69999842345717
 30
0.0
 11
-54.55999565958975
 21
-22.69999842345717
 31
0.0
  0
LINE
  5
18B
330
1F
100
AcDbEntity
  8
16
  6
Continuous
 62
     3
370
    25
100
AcDbLine
 10
-54.55999565958975
 20
-23.59999843686822
 30
0.0
 11
-53.29999159723513
 21
-23.59999843686822
 31
0.0
  0
LINE
  5
18C
330
1F
100
AcDbEntity
  8
16
  6
Continuous
 62
     3
370
    25
100
AcDbLine
 10
-53.29999159723513
 20
-23.59999843686822
 30
0.0
 11
-53.29999159723513
 21
56.40000275522468
 31
0.0
  0
LINE
  5
18D
330
1F
100
AcDbEntity
  8
16
  6
Continuous
 62
     3
370
    25
100
AcDbLine
 10
-54.55999565958975
 20
56.40000275522468
 30
0.0
 11
-53.29999159723513
 21
56.40000275522468
 31
0.0
  0
LINE
  5
18E
330
1F
100
AcDbEntity
  8
16
  6
Continuous
 62
     3
370
    25
100
AcDbLine
 10
-132.2999992594123
 20
56.40000275522468
 30
0.0
 11
-54.55999565958975
 21
56.40000275522468
 31
0.0
  0
LINE
  5
18F
330
1F
100
AcDbEntity
  8
16
  6
Continuous
 62
     3
370
    25
100
AcDbLine
 10
-54.55999565958975
 20
55.50000274181364
 30
0.0
 11
-54.55999565958975
 21
56.40000275522468
 31
0.0
  0
LINE
  5
190
330
1F
100
AcDbEntity
  8
16
  6
Continuous
 62
     3
370
    25
100
AcDbLine
 10
-132.2999992594123
 20
55.50000274181364
 30
0.0
 11
-54.55999565958975
 21
55.50000274181364
 31
0.0
  0
LINE
  5
191
330
1F
100
AcDbEntity
  8
16
  6
Continuous
 62
     3
370
    25
100
AcDbLine
 10
-132.2999992594123
 20
55.50000274181364
 30
0.0
 11
-132.2999992594123
 21
56.40000275522468
 31
0.0
  0
LINE
  5
192
330
1F
100
AcDbEntity
  8
16
  6
Continuous
 62
     3
370
    25
100
AcDbLine
 10
-132.2999992594123
 20
-22.69999842345717
 30
0.0
 11
-54.55999565958975
 21
-22.69999842345717
 31
0.0
  0
LINE
  5
193
330
1F
100
AcDbEntity
  8
16
  6
Continuous
 62
     3
370
    25
100
AcDbLine
 10
-54.55999565958975
 20
-23.59999843686822
 30
0.0
 11
-54.55999565958975
 21
-22.69999842345717
 31
0.0
  0
LINE
  5
194
330
1F
100
AcDbEntity
  8
16
  6
Continuous
 62
     3
370
    25
100
AcDbLine
 10
-132.2999992594123
 20
-23.59999843686822
 30
0.0
 11
-54.55999565958975
 21
-23.59999843686822
 31
0.0
  0
LINE
  5
195
330
1F
100
AcDbEntity
  8
16
  6
Continuous
 62
     3
370
    25
100
AcDbLine
 10
-132.2999992594123
 20
-23.59999843686822
 30
0.0
 11
-132.2999992594123
 21
-22.69999842345717
 31
0.0
  0
LINE
  5
196
330
1F
100
AcDbEntity
  8
16
  6
Continuous
 62
     3
370
    25
100
AcDbLine
 10
-128.2999991998076
 20
36.90000246465203
 30
0.0
 11
-126.7199991571903
 21
36.90000246465203
 31
0.0
  0
LINE
  5
197
330
1F
100
AcDbEntity
  8
16
  6
Continuous
 62
     3
370
    25
100
AcDbLine
 10
-122.7200003373623
 20
36.90000246465203
 30
0.0
 11
-121.140000294745
 21
36.90000246465203
 31
0.0
  0
LINE
  5
198
330
1F
100
AcDbEntity
  8
16
  6
Continuous
 62
     3
370
    25
100
AcDbLine
 10
-117.140001474917
 20
36.90000246465203
 30
0.0
 11
-115.5600014322996
 21
36.90000246465203
 31
0.0
  0
LINE
  5
199
330
1F
100
AcDbEntity
  8
16
  6
Continuous
 62
     3
370
    25
100
AcDbLine
 10
-111.5599965089559
 20
36.90000246465203
 30
0.0
 11
-109.9799964663386
 21
36.90000246465203
 31
0.0
  0
LINE
  5
19A
330
1F
100
AcDbEntity
  8
16
  6
Continuous
 62
     3
370
    25
100
AcDbLine
 10
-105.9799976465106
 20
36.90000246465203
 30
0.0
 11
-104.3999976038932
 21
36.90000246465203
 31
0.0
  0
LINE
  5
19B
330
1F
100
AcDbEntity
  8
16
  6
Continuous
 62
     3
370
    25
100
AcDbLine
 10
-100.3999987840653
 20
36.90000246465203
 30
0.0
 11
-98.81999874144793
 21
36.90000246465203
 31
0.0
  0
LINE
  5
19C
330
1F
100
AcDbEntity
  8
16
  6
Continuous
 62
     3
370
    25
100
AcDbLine
 10
-94.81999992161992
 20
36.90000246465203
 30
0.0
 11
-93.23999987900261
 21
36.90000246465203
 31
0.0
  0
LINE
  5
19D
330
1F
100
AcDbEntity
  8
16
  6
Continuous
 62
     3
370
    25
100
AcDbLine
 10
-89.24000105917459
 20
36.90000246465203
 30
0.0
 11
-87.66000101655727
 21
36.90000246465203
 31
0.0
  0
LINE
  5
19E
330
1F
100
AcDbEntity
  8
16
  6
Continuous
 62
     3
370
    25
100
AcDbLine
 10
-83.65999609321354
 20
36.90000246465203
 30
0.0
 11
-82.07999605059622
 21
36.90000246465203
 31
0.0
  0
LINE
  5
19F
330
1F
100
AcDbEntity
  8
16
  6
Continuous
 62
     3
370
    25
100
AcDbLine
 10
-78.08000333428392
 20
36.90000246465203
 30
0.0
 11
-76.5000032916666
 21
36.90000246465203
 31
0.0
  0
LINE
  5
1A0
330
1F
100
AcDbEntity
  8
16
  6
Continuous
 62
     3
370
    25
100
AcDbLine
 10
-72.49999836832286
 20
36.90000246465203
 30
0.0
 11
-70.91999832570554
 21
36.90000246465203
 31
0.0
  0
LINE
  5
1A1
330
1F
100
AcDbEntity
  8
16
  6
Continuous
 62
     3
370
    25
100
AcDbLine
 10
-66.91999340236181
 20
36.90000246465203
 30
0.0
 11
-65.33999335974448
 21
36.90000246465203
 31
0.0
  0
LINE
  5
1A2
330
1F
100
AcDbEntity
  8
16
  6
Continuous
 62
     3
370
    25
100
AcDbLine
 10
-61.34000064343218
 20
36.90000246465203
 30
0.0
 11
-59.76000060081486
 21
36.90000246465203
 31
0.0
  0
LINE
  5
1A3
330
1F
100
AcDbEntity
  8
16
  6
Continuous
 62
     3
370
    25
100
AcDbLine
 10
-128.2999991998076
 20
35.90000244975087
 30
0.0
 11
-126.7199991571903
 21
35.90000244975087
 31
0.0
  0
LINE
  5
1A4
330
1F
100
AcDbEntity
  8
16
  6
Continuous
 62
     3
370
    25
100
AcDbLine
 10
-122.7200003373623
 20
35.90000244975087
 30
0.0
 11
-121.140000294745
 21
35.90000244975087
 31
0.0
  0
LINE
  5
1A5
330
1F
100
AcDbEntity
  8
16
  6
Continuous
 62
     3
370
    25
100
AcDbLine
 10
-117.140001474917
 20
35.90000244975087
 30
0.0
 11
-115.5600014322996
 21
35.90000244975087
 31
0.0
  0
LINE
  5
1A6
330
1F
100
AcDbEntity
  8
16
  6
Continuous
 62
     3
370
    25
100
AcDbLine
 10
-111.5599965089559
 20
35.90000244975087
 30
0.0
 11
-109.9799964663386
 21
35.90000244975087
 31
0.0
  0
LINE
  5
1A7
330
1F
100
AcDbEntity
  8
16
  6
Continuous
 62
     3
370
    25
100
AcDbLine
 10
-105.9799976465106
 20
35.90000244975087
 30
0.0
 11
-104.3999976038932
 21
35.90000244975087
 31
0.0
  0
LINE
  5
1A8
330
1F
100
AcDbEntity
  8
16
  6
Continuous
 62
     3
370
    25
100
AcDbLine
 10
-100.3999987840653
 20
35.90000244975087
 30
0.0
 11
-98.81999874144793
 21
35.90000244975087
 31
0.0
  0
LINE
  5
1A9
330
1F
100
AcDbEntity
  8
16
  6
Continuous
 62
     3
370
    25
100
AcDbLine
 10
-94.81999992161992
 20
35.90000244975087
 30
0.0
 11
-93.23999987900261
 21
35.90000244975087
 31
0.0
  0
LINE
  5
1AA
330
1F
100
AcDbEntity
  8
16
  6
Continuous
 62
     3
370
    25
100
AcDbLine
 10
-89.24000105917459
 20
35.90000244975087
 30
0.0
 11
-87.66000101655727
 21
35.90000244975087
 31
0.0
  0
LINE
  5
1AB
330
1F
100
AcDbEntity
  8
16
  6
Continuous
 62
     3
370
    25
100
AcDbLine
 10
-83.65999609321354
 20
35.90000244975087
 30
0.0
 11
-82.07999605059622
 21
35.90000244975087
 31
0.0
  0
LINE
  5
1AC
330
1F
100
AcDbEntity
  8
16
  6
Continuous
 62
     3
370
    25
100
AcDbLine
 10
-78.08000333428392
 20
35.90000244975087
 30
0.0
 11
-76.5000032916666
 21
35.90000244975087
 31
0.0
  0
LINE
  5
1AD
330
1F
100
AcDbEntity
  8
16
  6
Continuous
 62
     3
370
    25
100
AcDbLine
 10
-72.49999836832286
 20
35.90000244975087
 30
0.0
 11
-70.91999832570554
 21
35.90000244975087
 31
0.0
  0
LINE
  5
1AE
330
1F
100
AcDbEntity
  8
16
  6
Continuous
 62
     3
370
    25
100
AcDbLine
 10
-66.91999340236181
 20
35.90000244975087
 30
0.0
 11
-65.33999335974448
 21
35.90000244975087
 31
0.0
  0
LINE
  5
1AF
330
1F
100
AcDbEntity
  8
16
  6
Continuous
 62
     3
370
    25
100
AcDbLine
 10
-61.34000064343218
 20
35.90000244975087
 30
0.0
 11
-59.76000060081486
 21
35.90000244975087
 31
0.0
  0
LINE
  5
1B0
330
1F
100
AcDbEntity
  8
16
  6
Continuous
 62
     3
370
    25
100
AcDbLine
 10
-128.2999991998076
 20
16.90000216662881
 30
0.0
 11
-126.7199991571903
 21
16.90000216662881
 31
0.0
  0
LINE
  5
1B1
330
1F
100
AcDbEntity
  8
16
  6
Continuous
 62
     3
370
    25
100
AcDbLine
 10
-122.7200003373623
 20
16.90000216662881
 30
0.0
 11
-121.140000294745
 21
16.90000216662881
 31
0.0
  0
LINE
  5
1B2
330
1F
100
AcDbEntity
  8
16
  6
Continuous
 62
     3
370
    25
100
AcDbLine
 10
-117.140001474917
 20
16.90000216662881
 30
0.0
 11
-115.5600014322996
 21
16.90000216662881
 31
0.0
  0
LINE
  5
1B3
330
1F
100
AcDbEntity
  8
16
  6
Continuous
 62
     3
370
    25
100
AcDbLine
 10
-111.5599965089559
 20
16.90000216662881
 30
0.0
 11
-109.9799964663386
 21
16.90000216662881
 31
0.0
  0
LINE
  5
1B4
330
1F
100
AcDbEntity
  8
16
  6
Continuous
 62
     3
370
    25
100
AcDbLine
 10
-105.9799976465106
 20
16.90000216662881
 30
0.0
 11
-104.3999976038932
 21
16.90000216662881
 31
0.0
  0
LINE
  5
1B5
330
1F
100
AcDbEntity
  8
16
  6
Continuous
 62
     3
370
    25
100
AcDbLine
 10
-100.3999987840653
 20
16.90000216662881
 30
0.0
 11
-98.81999874144793
 21
16.90000216662881
 31
0.0
  0
LINE
  5
1B6
330
1F
100
AcDbEntity
  8
16
  6
Continuous
 62
     3
370
    25
100
AcDbLine
 10
-94.81999992161992
 20
16.90000216662881
 30
0.0
 11
-93.23999987900261
 21
16.90000216662881
 31
0.0
  0
LINE
  5
1B7
330
1F
100
AcDbEntity
  8
16
  6
Continuous
 62
     3
370
    25
100
AcDbLine
 10
-89.24000105917459
 20
16.90000216662881
 30
0.0
 11
-87.66000101655727
 21
16.90000216662881
 31
0.0
  0
LINE
  5
1B8
330
1F
100
AcDbEntity
  8
16
  6
Continuous
 62
     3
370
    25
100
AcDbLine
 10
-83.65999609321354
 20
16.90000216662881
 30
0.0
 11
-82.07999605059622
 21
16.90000216662881
 31
0.0
  0
LINE
  5
1B9
330
1F
100
AcDbEntity
  8
16
  6
Continuous
 62
     3
370
    25
100
AcDbLine
 10
-78.08000333428392
 20
16.90000216662881
 30
0.0
 11
-76.5000032916666
 21
16.90000216662881
 31
0.0
  0
LINE
  5
1BA
330
1F
100
AcDbEntity
  8
16
  6
Continuous
 62
     3
370
    25
100
AcDbLine
 10
-72.49999836832286
 20
16.90000216662881
 30
0.0
 11
-70.91999832570554
 21
16.90000216662881
 31
0.0
  0
LINE
  5
1BB
330
1F
100
AcDbEntity
  8
16
  6
Continuous
 62
     3
370
    25
100
AcDbLine
 10
-66.91999340236181
 20
16.90000216662881
 30
0.0
 11
-65.33999335974448
 21
16.90000216662881
 31
0.0
  0
LINE
  5
1BC
330
1F
100
AcDbEntity
  8
16
  6
Continuous
 62
     3
370
    25
100
AcDbLine
 10
-61.34000064343218
 20
16.90000216662881
 30
0.0
 11
-59.76000060081486
 21
16.90000216662881
 31
0.0
  0
LINE
  5
1BD
330
1F
100
AcDbEntity
  8
16
  6
Continuous
 62
     3
370
    25
100
AcDbLine
 10
-128.2999991998076
 20
15.90000215172765
 30
0.0
 11
-126.7199991571903
 21
15.90000215172765
 31
0.0
  0
LINE
  5
1BE
330
1F
100
AcDbEntity
  8
16
  6
Continuous
 62
     3
370
    25
100
AcDbLine
 10
-122.7200003373623
 20
15.90000215172765
 30
0.0
 11
-121.140000294745
 21
15.90000215172765
 31
0.0
  0
LINE
  5
1BF
330
1F
100
AcDbEntity
  8
16
  6
Continuous
 62
     3
370
    25
100
AcDbLine
 10
-117.140001474917
 20
15.90000215172765
 30
0.0
 11
-115.5600014322996
 21
15.90000215172765
 31
0.0
  0
LINE
  5
1C0
330
1F
100
AcDbEntity
  8
16
  6
Continuous
 62
     3
370
    25
100
AcDbLine
 10
-111.5599965089559
 20
15.90000215172765
 30
0.0
 11
-109.9799964663386
 21
15.90000215172765
 31
0.0
  0
LINE
  5
1C1
330
1F
100
AcDbEntity
  8
16
  6
Continuous
 62
     3
370
    25
100
AcDbLine
 10
-105.9799976465106
 20
15.90000215172765
 30
0.0
 11
-104.3999976038932
 21
15.90000215172765
 31
0.0
  0
LINE
  5
1C2
330
1F
100
AcDbEntity
  8
16
  6
Continuous
 62
     3
370
    25
100
AcDbLine
 10
-100.3999987840653
 20
15.90000215172765
 30
0.0
 11
-98.81999874144793
 21
15.90000215172765
 31
0.0
  0
LINE
  5
1C3
330
1F
100
AcDbEntity
  8
16
  6
Continuous
 62
     3
370
    25
100
AcDbLine
 10
-94.81999992161992
 20
15.90000215172765
 30
0.0
 11
-93.23999987900261
 21
15.90000215172765
 31
0.0
  0
LINE
  5
1C4
330
1F
100
AcDbEntity
  8
16
  6
Continuous
 62
     3
370
    25
100
AcDbLine
 10
-89.24000105917459
 20
15.90000215172765
 30
0.0
 11
-87.66000101655727
 21
15.90000215172765
 31
0.0
  0
LINE
  5
1C5
330
1F
100
AcDbEntity
  8
16
  6
Continuous
 62
     3
370
    25
100
AcDbLine
 10
-83.65999609321354
 20
15.90000215172765
 30
0.0
 11
-82.07999605059622
 21
15.90000215172765
 31
0.0
  0
LINE
  5
1C6
330
1F
100
AcDbEntity
  8
16
  6
Continuous
 62
     3
370
    25
100
AcDbLine
 10
-78.08000333428392
 20
15.90000215172765
 30
0.0
 11
-76.5000032916666
 21
15.90000215172765
 31
0.0
  0
LINE
  5
1C7
330
1F
100
AcDbEntity
  8
16
  6
Continuous
 62
     3
370
    25
100
AcDbLine
 10
-72.49999836832286
 20
15.90000215172765
 30
0.0
 11
-70.91999832570554
 21
15.90000215172765
 31
0.0
  0
LINE
  5
1C8
330
1F
100
AcDbEntity
  8
16
  6
Continuous
 62
     3
370
    25
100
AcDbLine
 10
-66.91999340236181
 20
15.90000215172765
 30
0.0
 11
-65.33999335974448
 21
15.90000215172765
 31
0.0
  0
LINE
  5
1C9
330
1F
100
AcDbEntity
  8
16
  6
Continuous
 62
     3
370
    25
100
AcDbLine
 10
-61.34000064343218
 20
15.90000215172765
 30
0.0
 11
-59.76000060081486
 21
15.90000215172765
 31
0.0
  0
LINE
  5
1CA
330
1F
100
AcDbEntity
  8
16
  6
Continuous
 62
     3
370
    25
100
AcDbLine
 10
-128.2999991998076
 20
-3.099998131394414
 30
0.0
 11
-126.7199991571903
 21
-3.099998131394414
 31
0.0
  0
LINE
  5
1CB
330
1F
100
AcDbEntity
  8
16
  6
Continuous
 62
     3
370
    25
100
AcDbLine
 10
-122.7200003373623
 20
-3.099998131394414
 30
0.0
 11
-121.140000294745
 21
-3.099998131394414
 31
0.0
  0
LINE
  5
1CC
330
1F
100
AcDbEntity
  8
16
  6
Continuous
 62
     3
370
    25
100
AcDbLine
 10
-117.140001474917
 20
-3.099998131394414
 30
0.0
 11
-115.5600014322996
 21
-3.099998131394414
 31
0.0
  0
LINE
  5
1CD
330
1F
100
AcDbEntity
  8
16
  6
Continuous
 62
     3
370
    25
100
AcDbLine
 10
-111.5599965089559
 20
-3.099998131394414
 30
0.0
 11
-109.9799964663386
 21
-3.099998131394414
 31
0.0
  0
LINE
  5
1CE
330
1F
100
AcDbEntity
  8
16
  6
Continuous
 62
     3
370
    25
100
AcDbLine
 10
-105.9799976465106
 20
-3.099998131394414
 30
0.0
 11
-104.3999976038932
 21
-3.099998131394414
 31
0.0
  0
LINE
  5
1CF
330
1F
100
AcDbEntity
  8
16
  6
Continuous
 62
     3
370
    25
100
AcDbLine
 10
-100.3999987840653
 20
-3.099998131394414
 30
0.0
 11
-98.81999874144793
 21
-3.099998131394414
 31
0.0
  0
LINE
  5
1D0
330
1F
100
AcDbEntity
  8
16
  6
Continuous
 62
     3
370
    25
100
AcDbLine
 10
-94.81999992161992
 20
-3.099998131394414
 30
0.0
 11
-93.23999987900261
 21
-3.099998131394414
 31
0.0
  0
LINE
  5
1D1
330
1F
100
AcDbEntity
  8
16
  6
Continuous
 62
     3
370
    25
100
AcDbLine
 10
-89.24000105917459
 20
-3.099998131394414
 30
0.0
 11
-87.66000101655727
 21
-3.099998131394414
 31
0.0
  0
LINE
  5
1D2
330
1F
100
AcDbEntity
  8
16
  6
Continuous
 62
     3
370
    25
100
AcDbLine
 10
-83.65999609321354
 20
-3.099998131394414
 30
0.0
 11
-82.07999605059622
 21
-3.099998131394414
 31
0.0
  0
LINE
  5
1D3
330
1F
100
AcDbEntity
  8
16
  6
Continuous
 62
     3
370
    25
100
AcDbLine
 10
-78.08000333428392
 20
-3.099998131394414
 30
0.0
 11
-76.5000032916666
 21
-3.099998131394414
 31
0.0
  0
LINE
  5
1D4
330
1F
100
AcDbEntity
  8
16
  6
Continuous
 62
     3
370
    25
100
AcDbLine
 10
-72.49999836832286
 20
-3.099998131394414
 30
0.0
 11
-70.91999832570554
 21
-3.099998131394414
 31
0.0
  0
LINE
  5
1D5
330
1F
100
AcDbEntity
  8
16
  6
Continuous
 62
     3
370
    25
100
AcDbLine
 10
-66.91999340236181
 20
-3.099998131394414
 30
0.0
 11
-65.33999335974448
 21
-3.099998131394414
 31
0.0
  0
LINE
  5
1D6
330
1F
100
AcDbEntity
  8
16
  6
Continuous
 62
     3
370
    25
100
AcDbLine
 10
-61.34000064343218
 20
-3.099998131394414
 30
0.0
 11
-59.76000060081486
 21
-3.099998131394414
 31
0.0
  0
LINE
  5
1D7
330
1F
100
AcDbEntity
  8
16
  6
Continuous
 62
     3
370
    25
100
AcDbLine
 10
-128.2999991998076
 20
-4.099998146295576
 30
0.0
 11
-126.7199991571903
 21
-4.099998146295576
 31
0.0
  0
LINE
  5
1D8
330
1F
100
AcDbEntity
  8
16
  6
Continuous
 62
     3
370
    25
100
AcDbLine
 10
-122.7200003373623
 20
-4.099998146295576
 30
0.0
 11
-121.140000294745
 21
-4.099998146295576
 31
0.0
  0
LINE
  5
1D9
330
1F
100
AcDbEntity
  8
16
  6
Continuous
 62
     3
370
    25
100
AcDbLine
 10
-117.140001474917
 20
-4.099998146295576
 30
0.0
 11
-115.5600014322996
 21
-4.099998146295576
 31
0.0
  0
LINE
  5
1DA
330
1F
100
AcDbEntity
  8
16
  6
Continuous
 62
     3
370
    25
100
AcDbLine
 10
-111.5599965089559
 20
-4.099998146295576
 30
0.0
 11
-109.9799964663386
 21
-4.099998146295576
 31
0.0
  0
LINE
  5
1DB
330
1F
100
AcDbEntity
  8
16
  6
Continuous
 62
     3
370
    25
100
AcDbLine
 10
-105.9799976465106
 20
-4.099998146295576
 30
0.0
 11
-104.3999976038932
 21
-4.099998146295576
 31
0.0
  0
LINE
  5
1DC
330
1F
100
AcDbEntity
  8
16
  6
Continuous
 62
     3
370
    25
100
AcDbLine
 10
-100.3999987840653
 20
-4.099998146295576
 30
0.0
 11
-98.81999874144793
 21
-4.099998146295576
 31
0.0
  0
LINE
  5
1DD
330
1F
100
AcDbEntity
  8
16
  6
Continuous
 62
     3
370
    25
100
AcDbLine
 10
-94.81999992161992
 20
-4.099998146295576
 30
0.0
 11
-93.23999987900261
 21
-4.099998146295576
 31
0.0
  0
LINE
  5
1DE
330
1F
100
AcDbEntity
  8
16
  6
Continuous
 62
     3
370
    25
100
AcDbLine
 10
-89.24000105917459
 20
-4.099998146295576
 30
0.0
 11
-87.66000101655727
 21
-4.099998146295576
 31
0.0
  0
LINE
  5
1DF
330
1F
100
AcDbEntity
  8
16
  6
Continuous
 62
     3
370
    25
100
AcDbLine
 10
-83.65999609321354
 20
-4.099998146295576
 30
0.0
 11
-82.07999605059622
 21
-4.099998146295576
 31
0.0
  0
LINE
  5
1E0
330
1F
100
AcDbEntity
  8
16
  6
Continuous
 62
     3
370
    25
100
AcDbLine
 10
-78.08000333428392
 20
-4.099998146295576
 30
0.0
 11
-76.5000032916666
 21
-4.099998146295576
 31
0.0
  0
LINE
  5
1E1
330
1F
100
AcDbEntity
  8
16
  6
Continuous
 62
     3
370
    25
100
AcDbLine
 10
-72.49999836832286
 20
-4.099998146295576
 30
0.0
 11
-70.91999832570554
 21
-4.099998146295576
 31
0.0
  0
LINE
  5
1E2
330
1F
100
AcDbEntity
  8
16
  6
Continuous
 62
     3
370
    25
100
AcDbLine
 10
-66.91999340236181
 20
-4.099998146295576
 30
0.0
 11
-65.33999335974448
 21
-4.099998146295576
 31
0.0
  0
LINE
  5
1E3
330
1F
100
AcDbEntity
  8
16
  6
Continuous
 62
     3
370
    25
100
AcDbLine
 10
-61.34000064343218
 20
-4.099998146295576
 30
0.0
 11
-59.76000060081486
 21
-4.099998146295576
 31
0.0
  0
LINE
  5
1E4
330
1F
100
AcDbEntity
  8
16
  6
Continuous
 62
     3
370
    25
100
AcDbLine
 10
-132.2999992594123
 20
-22.69999842345717
 30
0.0
 11
-132.2999992594123
 21
55.50000274181364
 31
0.0
  0
LINE
  5
1E5
330
1F
100
AcDbEntity
  8
16
  6
Continuous
 62
     3
370
    25
100
AcDbLine
 10
-132.2999992594123
 20
-22.69999842345717
 30
0.0
 11
-128.2999991998076
 21
-22.69999842345717
 31
0.0
  0
LINE
  5
1E6
330
1F
100
AcDbEntity
  8
16
  6
Continuous
 62
     3
370
    25
100
AcDbLine
 10
-128.2999991998076
 20
-22.69999842345717
 30
0.0
 11
-128.2999991998076
 21
55.50000274181364
 31
0.0
  0
LINE
  5
1E7
330
1F
100
AcDbEntity
  8
16
  6
Continuous
 62
     3
370
    25
100
AcDbLine
 10
-132.2999992594123
 20
55.50000274181364
 30
0.0
 11
-128.2999991998076
 21
55.50000274181364
 31
0.0
  0
LINE
  5
1E8
330
1F
100
AcDbEntity
  8
16
  6
Continuous
 62
     3
370
    25
100
AcDbLine
 10
-131.4999992474913
 20
-22.69999842345717
 30
0.0
 11
-131.4999992474913
 21
55.50000274181364
 31
0.0
  0
LINE
  5
1E9
330
1F
100
AcDbEntity
  8
16
  6
Continuous
 62
     3
370
    25
100
AcDbLine
 10
-129.0999992117286
 20
-22.69999842345717
 30
0.0
 11
-129.0999992117286
 21
55.50000274181364
 31
0.0
  0
LINE
  5
1EA
330
1F
100
AcDbEntity
  8
16
  6
Continuous
 62
     3
370
    25
100
AcDbLine
 10
-130.29999922961
 20
-21.69999840855601
 30
0.0
 11
-130.29999922961
 21
54.50000272691248
 31
0.0
  0
LINE
  5
1EB
330
1F
100
AcDbEntity
  8
16
  6
Continuous
 62
     3
370
    25
100
AcDbLine
 10
-126.7200003969669
 20
-22.69999842345717
 30
0.0
 11
-126.7200003969669
 21
55.50000274181364
 31
0.0
  0
LINE
  5
1EC
330
1F
100
AcDbEntity
  8
16
  6
Continuous
 62
     3
370
    25
100
AcDbLine
 10
-126.7200003969669
 20
-22.69999842345717
 30
0.0
 11
-122.7200003373623
 21
-22.69999842345717
 31
0.0
  0
LINE
  5
1ED
330
1F
100
AcDbEntity
  8
16
  6
Continuous
 62
     3
370
    25
100
AcDbLine
 10
-122.7200003373623
 20
-22.69999842345717
 30
0.0
 11
-122.7200003373623
 21
55.50000274181364
 31
0.0
  0
LINE
  5
1EE
330
1F
100
AcDbEntity
  8
16
  6
Continuous
 62
     3
370
    25
100
AcDbLine
 10
-126.7200003969669
 20
55.50000274181364
 30
0.0
 11
-122.7200003373623
 21
55.50000274181364
 31
0.0
  0
LINE
  5
1EF
330
1F
100
AcDbEntity
  8
16
  6
Continuous
 62
     3
370
    25
100
AcDbLine
 10
-125.920000385046
 20
-22.69999842345717
 30
0.0
 11
-125.920000385046
 21
55.50000274181364
 31
0.0
  0
LINE
  5
1F0
330
1F
100
AcDbEntity
  8
16
  6
Continuous
 62
     3
370
    25
100
AcDbLine
 10
-123.5200003492832
 20
-22.69999842345717
 30
0.0
 11
-123.5200003492832
 21
55.50000274181364
 31
0.0
  0
LINE
  5
1F1
330
1F
100
AcDbEntity
  8
16
  6
Continuous
 62
     3
370
    25
100
AcDbLine
 10
-124.7200003671646
 20
-21.69999840855601
 30
0.0
 11
-124.7200003671646
 21
54.50000272691248
 31
0.0
  0
LINE
  5
1F2
330
1F
100
AcDbEntity
  8
16
  6
Continuous
 62
     3
370
    25
100
AcDbLine
 10
-121.1400015345216
 20
-22.69999842345717
 30
0.0
 11
-121.1400015345216
 21
55.50000274181364
 31
0.0
  0
LINE
  5
1F3
330
1F
100
AcDbEntity
  8
16
  6
Continuous
 62
     3
370
    25
100
AcDbLine
 10
-121.1400015345216
 20
-22.69999842345717
 30
0.0
 11
-117.140001474917
 21
-22.69999842345717
 31
0.0
  0
LINE
  5
1F4
330
1F
100
AcDbEntity
  8
16
  6
Continuous
 62
     3
370
    25
100
AcDbLine
 10
-117.140001474917
 20
-22.69999842345717
 30
0.0
 11
-117.140001474917
 21
55.50000274181364
 31
0.0
  0
LINE
  5
1F5
330
1F
100
AcDbEntity
  8
16
  6
Continuous
 62
     3
370
    25
100
AcDbLine
 10
-121.1400015345216
 20
55.50000274181364
 30
0.0
 11
-117.140001474917
 21
55.50000274181364
 31
0.0
  0
LINE
  5
1F6
330
1F
100
AcDbEntity
  8
16
  6
Continuous
 62
     3
370
    25
100
AcDbLine
 10
-120.3400015226007
 20
-22.69999842345717
 30
0.0
 11
-120.3400015226007
 21
55.50000274181364
 31
0.0
  0
LINE
  5
1F7
330
1F
100
AcDbEntity
  8
16
  6
Continuous
 62
     3
370
    25
100
AcDbLine
 10
-117.9400014868379
 20
-22.69999842345717
 30
0.0
 11
-117.9400014868379
 21
55.50000274181364
 31
0.0
  0
LINE
  5
1F8
330
1F
100
AcDbEntity
  8
16
  6
Continuous
 62
     3
370
    25
100
AcDbLine
 10
-119.1400015047193
 20
-21.69999840855601
 30
0.0
 11
-119.1400015047193
 21
54.50000272691248
 31
0.0
  0
LINE
  5
1F9
330
1F
100
AcDbEntity
  8
16
  6
Continuous
 62
     3
370
    25
100
AcDbLine
 10
-115.5599965685605
 20
-22.69999842345717
 30
0.0
 11
-115.5599965685605
 21
55.50000274181364
 31
0.0
  0
LINE
  5
1FA
330
1F
100
AcDbEntity
  8
16
  6
Continuous
 62
     3
370
    25
100
AcDbLine
 10
-115.5599965685605
 20
-22.69999842345717
 30
0.0
 11
-111.5599965089559
 21
-22.69999842345717
 31
0.0
  0
LINE
  5
1FB
330
1F
100
AcDbEntity
  8
16
  6
Continuous
 62
     3
370
    25
100
AcDbLine
 10
-111.5599965089559
 20
-22.69999842345717
 30
0.0
 11
-111.5599965089559
 21
55.50000274181364
 31
0.0
  0
LINE
  5
1FC
330
1F
100
AcDbEntity
  8
16
  6
Continuous
 62
     3
370
    25
100
AcDbLine
 10
-115.5599965685605
 20
55.50000274181364
 30
0.0
 11
-111.5599965089559
 21
55.50000274181364
 31
0.0
  0
LINE
  5
1FD
330
1F
100
AcDbEntity
  8
16
  6
Continuous
 62
     3
370
    25
100
AcDbLine
 10
-114.7599965566396
 20
-22.69999842345717
 30
0.0
 11
-114.7599965566396
 21
55.50000274181364
 31
0.0
  0
LINE
  5
1FE
330
1F
100
AcDbEntity
  8
16
  6
Continuous
 62
     3
370
    25
100
AcDbLine
 10
-112.3599965208768
 20
-22.69999842345717
 30
0.0
 11
-112.3599965208768
 21
55.50000274181364
 31
0.0
  0
LINE
  5
1FF
330
1F
100
AcDbEntity
  8
16
  6
Continuous
 62
     3
370
    25
100
AcDbLine
 10
-113.5599965387582
 20
-21.69999840855601
 30
0.0
 11
-113.5599965387582
 21
54.50000272691248
 31
0.0
  0
LINE
  5
200
330
1F
100
AcDbEntity
  8
16
  6
Continuous
 62
     3
370
    25
100
AcDbLine
 10
-109.9799977061152
 20
-22.69999842345717
 30
0.0
 11
-109.9799977061152
 21
55.50000274181364
 31
0.0
  0
LINE
  5
201
330
1F
100
AcDbEntity
  8
16
  6
Continuous
 62
     3
370
    25
100
AcDbLine
 10
-109.9799977061152
 20
-22.69999842345717
 30
0.0
 11
-105.9799976465106
 21
-22.69999842345717
 31
0.0
  0
LINE
  5
202
330
1F
100
AcDbEntity
  8
16
  6
Continuous
 62
     3
370
    25
100
AcDbLine
 10
-105.9799976465106
 20
-22.69999842345717
 30
0.0
 11
-105.9799976465106
 21
55.50000274181364
 31
0.0
  0
LINE
  5
203
330
1F
100
AcDbEntity
  8
16
  6
Continuous
 62
     3
370
    25
100
AcDbLine
 10
-109.9799977061152
 20
55.50000274181364
 30
0.0
 11
-105.9799976465106
 21
55.50000274181364
 31
0.0
  0
LINE
  5
204
330
1F
100
AcDbEntity
  8
16
  6
Continuous
 62
     3
370
    25
100
AcDbLine
 10
-109.1799976941943
 20
-22.69999842345717
 30
0.0
 11
-109.1799976941943
 21
55.50000274181364
 31
0.0
  0
LINE
  5
205
330
1F
100
AcDbEntity
  8
16
  6
Continuous
 62
     3
370
    25
100
AcDbLine
 10
-106.7799976584315
 20
-22.69999842345717
 30
0.0
 11
-106.7799976584315
 21
55.50000274181364
 31
0.0
  0
LINE
  5
206
330
1F
100
AcDbEntity
  8
16
  6
Continuous
 62
     3
370
    25
100
AcDbLine
 10
-107.9799976763129
 20
-21.69999840855601
 30
0.0
 11
-107.9799976763129
 21
54.50000272691248
 31
0.0
  0
LINE
  5
207
330
1F
100
AcDbEntity
  8
16
  6
Continuous
 62
     3
370
    25
100
AcDbLine
 10
-104.3999988436699
 20
-22.69999842345717
 30
0.0
 11
-104.3999988436699
 21
55.50000274181364
 31
0.0
  0
LINE
  5
208
330
1F
100
AcDbEntity
  8
16
  6
Continuous
 62
     3
370
    25
100
AcDbLine
 10
-104.3999988436699
 20
-22.69999842345717
 30
0.0
 11
-100.3999987840653
 21
-22.69999842345717
 31
0.0
  0
LINE
  5
209
330
1F
100
AcDbEntity
  8
16
  6
Continuous
 62
     3
370
    25
100
AcDbLine
 10
-100.3999987840653
 20
-22.69999842345717
 30
0.0
 11
-100.3999987840653
 21
55.50000274181364
 31
0.0
  0
LINE
  5
20A
330
1F
100
AcDbEntity
  8
16
  6
Continuous
 62
     3
370
    25
100
AcDbLine
 10
-104.3999988436699
 20
55.50000274181364
 30
0.0
 11
-100.3999987840653
 21
55.50000274181364
 31
0.0
  0
LINE
  5
20B
330
1F
100
AcDbEntity
  8
16
  6
Continuous
 62
     3
370
    25
100
AcDbLine
 10
-103.5999988317489
 20
-22.69999842345717
 30
0.0
 11
-103.5999988317489
 21
55.50000274181364
 31
0.0
  0
LINE
  5
20C
330
1F
100
AcDbEntity
  8
16
  6
Continuous
 62
     3
370
    25
100
AcDbLine
 10
-101.1999987959862
 20
-22.69999842345717
 30
0.0
 11
-101.1999987959862
 21
55.50000274181364
 31
0.0
  0
LINE
  5
20D
330
1F
100
AcDbEntity
  8
16
  6
Continuous
 62
     3
370
    25
100
AcDbLine
 10
-102.3999988138676
 20
-21.69999840855601
 30
0.0
 11
-102.3999988138676
 21
54.50000272691248
 31
0.0
  0
LINE
  5
20E
330
1F
100
AcDbEntity
  8
16
  6
Continuous
 62
     3
370
    25
100
AcDbLine
 10
-98.81999998122457
 20
-22.69999842345717
 30
0.0
 11
-98.81999998122457
 21
55.50000274181364
 31
0.0
  0
LINE
  5
20F
330
1F
100
AcDbEntity
  8
16
  6
Continuous
 62
     3
370
    25
100
AcDbLine
 10
-98.81999998122457
 20
-22.69999842345717
 30
0.0
 11
-94.81999992161992
 21
-22.69999842345717
 31
0.0
  0
LINE
  5
210
330
1F
100
AcDbEntity
  8
16
  6
Continuous
 62
     3
370
    25
100
AcDbLine
 10
-94.81999992161992
 20
-22.69999842345717
 30
0.0
 11
-94.81999992161992
 21
55.50000274181364
 31
0.0
  0
LINE
  5
211
330
1F
100
AcDbEntity
  8
16
  6
Continuous
 62
     3
370
    25
100
AcDbLine
 10
-98.81999998122457
 20
55.50000274181364
 30
0.0
 11
-94.81999992161992
 21
55.50000274181364
 31
0.0
  0
LINE
  5
212
330
1F
100
AcDbEntity
  8
16
  6
Continuous
 62
     3
370
    25
100
AcDbLine
 10
-98.01999996930364
 20
-22.69999842345717
 30
0.0
 11
-98.01999996930364
 21
55.50000274181364
 31
0.0
  0
LINE
  5
213
330
1F
100
AcDbEntity
  8
16
  6
Continuous
 62
     3
370
    25
100
AcDbLine
 10
-95.61999993354085
 20
-22.69999842345717
 30
0.0
 11
-95.61999993354085
 21
55.50000274181364
 31
0.0
  0
LINE
  5
214
330
1F
100
AcDbEntity
  8
16
  6
Continuous
 62
     3
370
    25
100
AcDbLine
 10
-96.81999995142225
 20
-21.69999840855601
 30
0.0
 11
-96.81999995142225
 21
54.50000272691248
 31
0.0
  0
LINE
  5
215
330
1F
100
AcDbEntity
  8
16
  6
Continuous
 62
     3
370
    25
100
AcDbLine
 10
-93.24000111877923
 20
-22.69999842345717
 30
0.0
 11
-93.24000111877923
 21
55.50000274181364
 31
0.0
  0
LINE
  5
216
330
1F
100
AcDbEntity
  8
16
  6
Continuous
 62
     3
370
    25
100
AcDbLine
 10
-93.24000111877923
 20
-22.69999842345717
 30
0.0
 11
-89.24000105917459
 21
-22.69999842345717
 31
0.0
  0
LINE
  5
217
330
1F
100
AcDbEntity
  8
16
  6
Continuous
 62
     3
370
    25
100
AcDbLine
 10
-89.24000105917459
 20
-22.69999842345717
 30
0.0
 11
-89.24000105917459
 21
55.50000274181364
 31
0.0
  0
LINE
  5
218
330
1F
100
AcDbEntity
  8
16
  6
Continuous
 62
     3
370
    25
100
AcDbLine
 10
-93.24000111877923
 20
55.50000274181364
 30
0.0
 11
-89.24000105917459
 21
55.50000274181364
 31
0.0
  0
LINE
  5
219
330
1F
100
AcDbEntity
  8
16
  6
Continuous
 62
     3
370
    25
100
AcDbLine
 10
-92.4400011068583
 20
-22.69999842345717
 30
0.0
 11
-92.4400011068583
 21
55.50000274181364
 31
0.0
  0
LINE
  5
21A
330
1F
100
AcDbEntity
  8
16
  6
Continuous
 62
     3
370
    25
100
AcDbLine
 10
-90.04000107109552
 20
-22.69999842345717
 30
0.0
 11
-90.04000107109552
 21
55.50000274181364
 31
0.0
  0
LINE
  5
21B
330
1F
100
AcDbEntity
  8
16
  6
Continuous
 62
     3
370
    25
100
AcDbLine
 10
-91.24000108897691
 20
-21.69999840855601
 30
0.0
 11
-91.24000108897691
 21
54.50000272691248
 31
0.0
  0
LINE
  5
21C
330
1F
100
AcDbEntity
  8
16
  6
Continuous
 62
     3
370
    25
100
AcDbLine
 10
-87.65999615281818
 20
-22.69999842345717
 30
0.0
 11
-87.65999615281818
 21
55.50000274181364
 31
0.0
  0
LINE
  5
21D
330
1F
100
AcDbEntity
  8
16
  6
Continuous
 62
     3
370
    25
100
AcDbLine
 10
-87.65999615281818
 20
-22.69999842345717
 30
0.0
 11
-83.65999609321354
 21
-22.69999842345717
 31
0.0
  0
LINE
  5
21E
330
1F
100
AcDbEntity
  8
16
  6
Continuous
 62
     3
370
    25
100
AcDbLine
 10
-83.65999609321354
 20
-22.69999842345717
 30
0.0
 11
-83.65999609321354
 21
55.50000274181364
 31
0.0
  0
LINE
  5
21F
330
1F
100
AcDbEntity
  8
16
  6
Continuous
 62
     3
370
    25
100
AcDbLine
 10
-87.65999615281818
 20
55.50000274181364
 30
0.0
 11
-83.65999609321354
 21
55.50000274181364
 31
0.0
  0
LINE
  5
220
330
1F
100
AcDbEntity
  8
16
  6
Continuous
 62
     3
370
    25
100
AcDbLine
 10
-86.85999614089725
 20
-22.69999842345717
 30
0.0
 11
-86.85999614089725
 21
55.50000274181364
 31
0.0
  0
LINE
  5
221
330
1F
100
AcDbEntity
  8
16
  6
Continuous
 62
     3
370
    25
100
AcDbLine
 10
-84.45999610513446
 20
-22.69999842345717
 30
0.0
 11
-84.45999610513446
 21
55.50000274181364
 31
0.0
  0
LINE
  5
222
330
1F
100
AcDbEntity
  8
16
  6
Continuous
 62
     3
370
    25
100
AcDbLine
 10
-85.65999612301586
 20
-21.69999840855601
 30
0.0
 11
-85.65999612301586
 21
54.50000272691248
 31
0.0
  0
LINE
  5
223
330
1F
100
AcDbEntity
  8
16
  6
Continuous
 62
     3
370
    25
100
AcDbLine
 10
-82.07999729037284
 20
-22.69999842345717
 30
0.0
 11
-82.07999729037284
 21
55.50000274181364
 31
0.0
  0
LINE
  5
224
330
1F
100
AcDbEntity
  8
16
  6
Continuous
 62
     3
370
    25
100
AcDbLine
 10
-82.07999729037284
 20
-22.69999842345717
 30
0.0
 11
-78.0799972307682
 21
-22.69999842345717
 31
0.0
  0
LINE
  5
225
330
1F
100
AcDbEntity
  8
16
  6
Continuous
 62
     3
370
    25
100
AcDbLine
 10
-78.0799972307682
 20
-22.69999842345717
 30
0.0
 11
-78.0799972307682
 21
55.50000274181364
 31
0.0
  0
LINE
  5
226
330
1F
100
AcDbEntity
  8
16
  6
Continuous
 62
     3
370
    25
100
AcDbLine
 10
-82.07999729037284
 20
55.50000274181364
 30
0.0
 11
-78.0799972307682
 21
55.50000274181364
 31
0.0
  0
LINE
  5
227
330
1F
100
AcDbEntity
  8
16
  6
Continuous
 62
     3
370
    25
100
AcDbLine
 10
-81.27999727845192
 20
-22.69999842345717
 30
0.0
 11
-81.27999727845192
 21
55.50000274181364
 31
0.0
  0
LINE
  5
228
330
1F
100
AcDbEntity
  8
16
  6
Continuous
 62
     3
370
    25
100
AcDbLine
 10
-78.87999724268913
 20
-22.69999842345717
 30
0.0
 11
-78.87999724268913
 21
55.50000274181364
 31
0.0
  0
LINE
  5
229
330
1F
100
AcDbEntity
  8
16
  6
Continuous
 62
     3
370
    25
100
AcDbLine
 10
-80.07999726057052
 20
-21.69999840855601
 30
0.0
 11
-80.07999726057052
 21
54.50000272691248
 31
0.0
  0
LINE
  5
22A
330
1F
100
AcDbEntity
  8
16
  6
Continuous
 62
     3
370
    25
100
AcDbLine
 10
-76.49999842792751
 20
-22.69999842345717
 30
0.0
 11
-76.49999842792751
 21
55.50000274181364
 31
0.0
  0
LINE
  5
22B
330
1F
100
AcDbEntity
  8
16
  6
Continuous
 62
     3
370
    25
100
AcDbLine
 10
-76.49999842792751
 20
-22.69999842345717
 30
0.0
 11
-72.49999836832286
 21
-22.69999842345717
 31
0.0
  0
LINE
  5
22C
330
1F
100
AcDbEntity
  8
16
  6
Continuous
 62
     3
370
    25
100
AcDbLine
 10
-72.49999836832286
 20
-22.69999842345717
 30
0.0
 11
-72.49999836832286
 21
55.50000274181364
 31
0.0
  0
LINE
  5
22D
330
1F
100
AcDbEntity
  8
16
  6
Continuous
 62
     3
370
    25
100
AcDbLine
 10
-76.49999842792751
 20
55.50000274181364
 30
0.0
 11
-72.49999836832286
 21
55.50000274181364
 31
0.0
  0
LINE
  5
22E
330
1F
100
AcDbEntity
  8
16
  6
Continuous
 62
     3
370
    25
100
AcDbLine
 10
-75.69999841600658
 20
-22.69999842345717
 30
0.0
 11
-75.69999841600658
 21
55.50000274181364
 31
0.0
  0
LINE
  5
22F
330
1F
100
AcDbEntity
  8
16
  6
Continuous
 62
     3
370
    25
100
AcDbLine
 10
-73.29999838024379
 20
-22.69999842345717
 30
0.0
 11
-73.29999838024379
 21
55.50000274181364
 31
0.0
  0
LINE
  5
230
330
1F
100
AcDbEntity
  8
16
  6
Continuous
 62
     3
370
    25
100
AcDbLine
 10
-74.49999839812519
 20
-21.69999840855601
 30
0.0
 11
-74.49999839812519
 21
54.50000272691248
 31
0.0
  0
LINE
  5
231
330
1F
100
AcDbEntity
  8
16
  6
Continuous
 62
     3
370
    25
100
AcDbLine
 10
-70.91999346196646
 20
-22.69999842345717
 30
0.0
 11
-70.91999346196646
 21
55.50000274181364
 31
0.0
  0
LINE
  5
232
330
1F
100
AcDbEntity
  8
16
  6
Continuous
 62
     3
370
    25
100
AcDbLine
 10
-70.91999346196646
 20
-22.69999842345717
 30
0.0
 11
-66.91999340236181
 21
-22.69999842345717
 31
0.0
  0
LINE
  5
233
330
1F
100
AcDbEntity
  8
16
  6
Continuous
 62
     3
370
    25
100
AcDbLine
 10
-66.91999340236181
 20
-22.69999842345717
 30
0.0
 11
-66.91999340236181
 21
55.50000274181364
 31
0.0
  0
LINE
  5
234
330
1F
100
AcDbEntity
  8
16
  6
Continuous
 62
     3
370
    25
100
AcDbLine
 10
-70.91999346196646
 20
55.50000274181364
 30
0.0
 11
-66.91999340236181
 21
55.50000274181364
 31
0.0
  0
LINE
  5
235
330
1F
100
AcDbEntity
  8
16
  6
Continuous
 62
     3
370
    25
100
AcDbLine
 10
-70.11999345004553
 20
-22.69999842345717
 30
0.0
 11
-70.11999345004553
 21
55.50000274181364
 31
0.0
  0
LINE
  5
236
330
1F
100
AcDbEntity
  8
16
  6
Continuous
 62
     3
370
    25
100
AcDbLine
 10
-67.71999341428274
 20
-22.69999842345717
 30
0.0
 11
-67.71999341428274
 21
55.50000274181364
 31
0.0
  0
LINE
  5
237
330
1F
100
AcDbEntity
  8
16
  6
Continuous
 62
     3
370
    25
100
AcDbLine
 10
-68.91999343216413
 20
-21.69999840855601
 30
0.0
 11
-68.91999343216413
 21
54.50000272691248
 31
0.0
  0
LINE
  5
238
330
1F
100
AcDbEntity
  8
16
  6
Continuous
 62
     3
370
    25
100
AcDbLine
 10
-65.34000070303684
 20
-22.69999842345717
 30
0.0
 11
-65.34000070303684
 21
55.50000274181364
 31
0.0
  0
LINE
  5
239
330
1F
100
AcDbEntity
  8
16
  6
Continuous
 62
     3
370
    25
100
AcDbLine
 10
-65.34000070303684
 20
-22.69999842345717
 30
0.0
 11
-61.34000064343218
 21
-22.69999842345717
 31
0.0
  0
LINE
  5
23A
330
1F
100
AcDbEntity
  8
16
  6
Continuous
 62
     3
370
    25
100
AcDbLine
 10
-61.34000064343218
 20
-22.69999842345717
 30
0.0
 11
-61.34000064343218
 21
55.50000274181364
 31
0.0
  0
LINE
  5
23B
330
1F
100
AcDbEntity
  8
16
  6
Continuous
 62
     3
370
    25
100
AcDbLine
 10
-65.34000070303684
 20
55.50000274181364
 30
0.0
 11
-61.34000064343218
 21
55.50000274181364
 31
0.0
  0
LINE
  5
23C
330
1F
100
AcDbEntity
  8
16
  6
Continuous
 62
     3
370
    25
100
AcDbLine
 10
-64.5400006911159
 20
-22.69999842345717
 30
0.0
 11
-64.5400006911159
 21
55.50000274181364
 31
0.0
  0
LINE
  5
23D
330
1F
100
AcDbEntity
  8
16
  6
Continuous
 62
     3
370
    25
100
AcDbLine
 10
-62.14000065535312
 20
-22.69999842345717
 30
0.0
 11
-62.14000065535312
 21
55.50000274181364
 31
0.0
  0
LINE
  5
23E
330
1F
100
AcDbEntity
  8
16
  6
Continuous
 62
     3
370
    25
100
AcDbLine
 10
-63.34000067323453
 20
-21.69999840855601
 30
0.0
 11
-63.34000067323453
 21
54.50000272691248
 31
0.0
  0
LINE
  5
23F
330
1F
100
AcDbEntity
  8
16
  6
Continuous
 62
     3
370
    25
100
AcDbLine
 10
-59.75999573707578
 20
-22.69999842345717
 30
0.0
 11
-59.75999573707578
 21
55.50000274181364
 31
0.0
  0
LINE
  5
240
330
1F
100
AcDbEntity
  8
16
  6
Continuous
 62
     3
370
    25
100
AcDbLine
 10
-59.75999573707578
 20
-22.69999842345717
 30
0.0
 11
-55.75999567747114
 21
-22.69999842345717
 31
0.0
  0
LINE
  5
241
330
1F
100
AcDbEntity
  8
16
  6
Continuous
 62
     3
370
    25
100
AcDbLine
 10
-55.75999567747114
 20
-22.69999842345717
 30
0.0
 11
-55.75999567747114
 21
55.50000274181364
 31
0.0
  0
LINE
  5
242
330
1F
100
AcDbEntity
  8
16
  6
Continuous
 62
     3
370
    25
100
AcDbLine
 10
-59.75999573707578
 20
55.50000274181364
 30
0.0
 11
-55.75999567747114
 21
55.50000274181364
 31
0.0
  0
LINE
  5
243
330
1F
100
AcDbEntity
  8
16
  6
Continuous
 62
     3
370
    25
100
AcDbLine
 10
-58.95999572515485
 20
-22.69999842345717
 30
0.0
 11
-58.95999572515485
 21
55.50000274181364
 31
0.0
  0
LINE
  5
244
330
1F
100
AcDbEntity
  8
16
  6
Continuous
 62
     3
370
    25
100
AcDbLine
 10
-56.55999568939207
 20
-22.69999842345717
 30
0.0
 11
-56.55999568939207
 21
55.50000274181364
 31
0.0
  0
LINE
  5
245
330
1F
100
AcDbEntity
  8
16
  6
Continuous
 62
     3
370
    25
100
AcDbLine
 10
-57.75999570727345
 20
-21.69999840855601
 30
0.0
 11
-57.75999570727345
 21
54.50000272691248
 31
0.0
  0
LINE
  5
246
330
1F
100
AcDbEntity
  8
16
  6
Continuous
 62
     3
370
    25
100
AcDbLine
 10
-3.299997337162502
 20
55.50000274181364
 30
0.0
 11
1.700002737343304
 21
55.50000274181364
 31
0.0
  0
LINE
  5
247
330
1F
100
AcDbEntity
  8
16
  6
Continuous
 62
     3
370
    25
100
AcDbLine
 10
1.700002737343304
 20
55.50000274181364
 30
0.0
 11
1.700002737343304
 21
56.40000275522468
 31
0.0
  0
LINE
  5
248
330
1F
100
AcDbEntity
  8
16
  6
Continuous
 62
     3
370
    25
100
AcDbLine
 10
1.700002737343304
 20
56.40000275522468
 30
0.0
 11
-3.299997337162502
 21
56.40000275522468
 31
0.0
  0
LINE
  5
249
330
1F
100
AcDbEntity
  8
16
  6
Continuous
 62
     3
370
    25
100
AcDbLine
 10
-3.299997337162502
 20
56.40000275522468
 30
0.0
 11
-3.299997337162502
 21
55.50000274181364
 31
0.0
  0
LINE
  5
24A
330
1F
100
AcDbEntity
  8
16
  6
Continuous
 62
     3
370
    25
100
AcDbLine
 10
-3.299997337162502
 20
-22.69999842345717
 30
0.0
 11
1.700002737343304
 21
-22.69999842345717
 31
0.0
  0
LINE
  5
24B
330
1F
100
AcDbEntity
  8
16
  6
Continuous
 62
     3
370
    25
100
AcDbLine
 10
1.700002737343304
 20
-22.69999842345717
 30
0.0
 11
1.700002737343304
 21
-23.59999843686822
 31
0.0
  0
LINE
  5
24C
330
1F
100
AcDbEntity
  8
16
  6
Continuous
 62
     3
370
    25
100
AcDbLine
 10
1.700002737343304
 20
-23.59999843686822
 30
0.0
 11
-3.299997337162502
 21
-23.59999843686822
 31
0.0
  0
LINE
  5
24D
330
1F
100
AcDbEntity
  8
16
  6
Continuous
 62
     3
370
    25
100
AcDbLine
 10
-3.299997337162502
 20
-23.59999843686822
 30
0.0
 11
-3.299997337162502
 21
-22.69999842345717
 31
0.0
  0
ARC
  5
24E
330
1F
100
AcDbEntity
  8
16
  6
Continuous
 62
     3
370
    25
100
AcDbCircle
 10
0.3000027164816782
 20
36.40000245720145
 30
0.0
 40
0.800000011920929
100
AcDbArc
 50
46.60000000000011
 51
133.4000000000003
  0
ARC
  5
24F
330
1F
100
AcDbEntity
  8
16
  6
Continuous
 62
     3
370
    25
100
AcDbCircle
 10
0.3000027164816782
 20
36.40000245720145
 30
0.0
 40
0.800000011920929
100
AcDbArc
 50
226.6000000000004
 51
313.4000000000007
  0
LINE
  5
250
330
1F
100
AcDbEntity
  8
16
  6
Continuous
 62
     3
370
    25
100
AcDbLine
 10
0.700002722442143
 20
37.00000246614215
 30
0.0
 11
-0.0999972894787859
 21
37.00000246614215
 31
0.0
  0
ARC
  5
251
330
1F
100
AcDbEntity
  8
16
  6
Continuous
 62
     3
370
    25
100
AcDbCircle
 10
-0.0999974855557255
 20
36.40000245720148
 30
0.0
 40
0.6000000089406967
100
AcDbArc
 50
90.0000000000002
 51
270.0000000000006
  0
LINE
  5
252
330
1F
100
AcDbEntity
  8
16
  6
Continuous
 62
     3
370
    25
100
AcDbLine
 10
-0.0999980737865478
 20
35.80000244826107
 30
0.0
 11
0.7000019381343812
 21
35.80000244826107
 31
0.0
  0
ARC
  5
253
330
1F
100
AcDbEntity
  8
16
  6
Continuous
 62
     3
370
    25
100
AcDbCircle
 10
0.7000025263652031
 20
36.40000245720148
 30
0.0
 40
0.6000000089406967
100
AcDbArc
 50
270.0000000000006
 51
90.00000000000102
  0
LINE
  5
254
330
1F
100
AcDbEntity
  8
16
  6
Continuous
 62
     3
370
    25
100
AcDbLine
 10
-1.299997307360179
 20
36.40000245720145
 30
0.0
 11
1.900002740323536
 21
36.40000245720145
 31
0.0
  0
LINE
  5
255
330
1F
100
AcDbEntity
  8
16
  6
Continuous
 62
     3
370
    25
100
AcDbLine
 10
0.3000027164816782
 20
37.60000247508285
 30
0.0
 11
0.3000027164816782
 21
35.20000243932006
 31
0.0
  0
ARC
  5
256
330
1F
100
AcDbEntity
  8
16
  6
Continuous
 62
     3
370
    25
100
AcDbCircle
 10
0.3000027164816782
 20
16.40000215917823
 30
0.0
 40
0.800000011920929
100
AcDbArc
 50
46.60000000000011
 51
133.4000000000003
  0
ARC
  5
257
330
1F
100
AcDbEntity
  8
16
  6
Continuous
 62
     3
370
    25
100
AcDbCircle
 10
0.3000027164816782
 20
16.40000215917823
 30
0.0
 40
0.800000011920929
100
AcDbArc
 50
226.6000000000004
 51
313.4000000000007
  0
LINE
  5
258
330
1F
100
AcDbEntity
  8
16
  6
Continuous
 62
     3
370
    25
100
AcDbLine
 10
0.700002722442143
 20
17.00000216811892
 30
0.0
 11
-0.0999972894787859
 21
17.00000216811892
 31
0.0
  0
ARC
  5
259
330
1F
100
AcDbEntity
  8
16
  6
Continuous
 62
     3
370
    25
100
AcDbCircle
 10
-0.0999974855557255
 20
16.40000215917826
 30
0.0
 40
0.6000000089406967
100
AcDbArc
 50
90.0000000000002
 51
270.0000000000006
  0
LINE
  5
25A
330
1F
100
AcDbEntity
  8
16
  6
Continuous
 62
     3
370
    25
100
AcDbLine
 10
-0.0999980737865478
 20
15.80000215023785
 30
0.0
 11
0.7000019381343812
 21
15.80000215023785
 31
0.0
  0
ARC
  5
25B
330
1F
100
AcDbEntity
  8
16
  6
Continuous
 62
     3
370
    25
100
AcDbCircle
 10
0.7000025263652031
 20
16.40000215917826
 30
0.0
 40
0.6000000089406967
100
AcDbArc
 50
270.0000000000006
 51
90.00000000000102
  0
LINE
  5
25C
330
1F
100
AcDbEntity
  8
16
  6
Continuous
 62
     3
370
    25
100
AcDbLine
 10
-1.299997307360179
 20
16.40000215917823
 30
0.0
 11
1.900002740323536
 21
16.40000215917823
 31
0.0
  0
LINE
  5
25D
330
1F
100
AcDbEntity
  8
16
  6
Continuous
 62
     3
370
    25
100
AcDbLine
 10
0.3000027164816782
 20
17.60000217705962
 30
0.0
 11
0.3000027164816782
 21
15.20000214129683
 31
0.0
  0
ARC
  5
25E
330
1F
100
AcDbEntity
  8
16
  6
Continuous
 62
     3
370
    25
100
AcDbCircle
 10
0.3000027164816782
 20
-3.599998138844995
 30
0.0
 40
0.800000011920929
100
AcDbArc
 50
46.60000000000011
 51
133.4000000000003
  0
ARC
  5
25F
330
1F
100
AcDbEntity
  8
16
  6
Continuous
 62
     3
370
    25
100
AcDbCircle
 10
0.3000027164816782
 20
-3.599998138844995
 30
0.0
 40
0.800000011920929
100
AcDbArc
 50
226.6000000000004
 51
313.4000000000007
  0
LINE
  5
260
330
1F
100
AcDbEntity
  8
16
  6
Continuous
 62
     3
370
    25
100
AcDbLine
 10
0.700002722442143
 20
-2.999998129904299
 30
0.0
 11
-0.0999972894787859
 21
-2.999998129904299
 31
0.0
  0
ARC
  5
261
330
1F
100
AcDbEntity
  8
16
  6
Continuous
 62
     3
370
    25
100
AcDbCircle
 10
-0.0999974855557255
 20
-3.599998138844963
 30
0.0
 40
0.6000000089406967
100
AcDbArc
 50
90.0000000000002
 51
270.0000000000006
  0
LINE
  5
262
330
1F
100
AcDbEntity
  8
16
  6
Continuous
 62
     3
370
    25
100
AcDbLine
 10
-0.0999980737865478
 20
-4.199998147785372
 30
0.0
 11
0.7000019381343812
 21
-4.199998147785372
 31
0.0
  0
ARC
  5
263
330
1F
100
AcDbEntity
  8
16
  6
Continuous
 62
     3
370
    25
100
AcDbCircle
 10
0.7000025263652031
 20
-3.599998138844963
 30
0.0
 40
0.6000000089406967
100
AcDbArc
 50
270.0000000000006
 51
90.00000000000102
  0
LINE
  5
264
330
1F
100
AcDbEntity
  8
16
  6
Continuous
 62
     3
370
    25
100
AcDbLine
 10
-1.299997307360179
 20
-3.599998138844995
 30
0.0
 11
1.900002740323536
 21
-3.599998138844995
 31
0.0
  0
LINE
  5
265
330
1F
100
AcDbEntity
  8
16
  6
Continuous
 62
     3
370
    25
100
AcDbLine
 10
0.3000027164816782
 20
-2.399998120963601
 30
0.0
 11
0.3000027164816782
 21
-4.799998156726389
 31
0.0
  0
LINE
  5
266
330
1F
100
AcDbEntity
  8
16
  6
Continuous
 62
     3
370
    25
100
AcDbLine
 10
-3.299997337162502
 20
55.50000274181364
 30
0.0
 11
-3.299997337162502
 21
-22.69999842345717
 31
0.0
  0
LINE
  5
267
330
1F
100
AcDbEntity
  8
16
  6
Continuous
 62
     3
370
    25
100
AcDbLine
 10
-3.299997337162502
 20
-22.69999842345717
 30
0.0
 11
1.700002737343304
 21
-22.69999842345717
 31
0.0
  0
LINE
  5
268
330
1F
100
AcDbEntity
  8
16
  6
Continuous
 62
     3
370
    25
100
AcDbLine
 10
1.700002737343304
 20
-22.69999842345717
 30
0.0
 11
1.700002737343304
 21
55.50000274181364
 31
0.0
  0
LINE
  5
269
330
1F
100
AcDbEntity
  8
16
  6
Continuous
 62
     3
370
    25
100
AcDbLine
 10
1.700002737343304
 20
55.50000274181364
 30
0.0
 11
-3.299997337162502
 21
55.50000274181364
 31
0.0
  0
LINE
  5
26A
330
1F
100
AcDbEntity
  8
16
  6
Continuous
 62
     3
370
    25
100
AcDbLine
 10
-2.899997331202037
 20
55.50000274181364
 30
0.0
 11
-2.899997331202037
 21
-22.69999842345717
 31
0.0
  0
LINE
  5
26B
330
1F
100
AcDbEntity
  8
16
  6
Continuous
 62
     3
370
    25
100
AcDbLine
 10
-1.499997310340412
 20
-22.69999842345717
 30
0.0
 11
-1.499997310340412
 21
55.50000274181364
 31
0.0
  0
LINE
  5
26C
330
1F
100
AcDbEntity
  8
16
  6
Continuous
 62
     3
370
    25
100
AcDbLine
 10
-130.29999922961
 20
-77.24199905309084
 30
0.0
 11
-130.29999922961
 21
-74.42799907219413
 31
0.0
  0
ARC
  5
26D
330
1F
100
AcDbEntity
  8
16
  6
Continuous
 62
     3
370
    25
100
AcDbCircle
 10
-131.2179978033113
 20
-74.48865060813345
 30
0.0
 40
0.9199999946355817
100
AcDbArc
 50
3.779999923706063
 51
73.70000000000016
  0
LINE
  5
26E
330
1F
100
AcDbEntity
  8
16
  6
Continuous
 62
     3
370
    25
100
AcDbLine
 10
-130.9597841963057
 20
-73.60562981376528
 30
0.0
 11
-131.8237842435126
 21
-73.30162981305003
 31
0.0
  0
ARC
  5
26F
330
1F
100
AcDbEntity
  8
16
  6
Continuous
 62
     3
370
    25
100
AcDbCircle
 10
-131.7589471051861
 20
-73.24327368928333
 30
0.0
 40
0.088000000834465
100
AcDbArc
 50
111.909997558594
 51
222.330004882813
  0
LINE
  5
270
330
1F
100
AcDbEntity
  8
16
  6
Continuous
 62
     3
370
    25
100
AcDbLine
 10
-131.7920036660777
 20
-73.16253281599101
 30
0.0
 11
-131.5040036503421
 21
-73.02253281628903
 31
0.0
  0
LINE
  5
271
330
1F
100
AcDbEntity
  8
16
  6
Continuous
 62
     3
370
    25
100
AcDbLine
 10
-131.5040036503421
 20
-73.02253281628903
 30
0.0
 11
-131.5040036503421
 21
-72.97653281476913
 31
0.0
  0
ARC
  5
272
330
1F
100
AcDbEntity
  8
16
  6
Continuous
 62
     3
370
    25
100
AcDbCircle
 10
-131.7937276485606
 20
-72.98918243507954
 30
0.0
 40
0.2900000138580801
100
AcDbArc
 50
2.500000000000006
 51
85.55000000000018
  0
ARC
  5
273
330
1F
100
AcDbEntity
  8
16
  6
Continuous
 62
     3
370
    25
100
AcDbCircle
 10
-131.7619910786574
 20
-73.23997768871816
 30
0.0
 40
0.5400000175833704
100
AcDbArc
 50
90.97999877929706
 51
246.6800048828131
  0
LINE
  5
274
330
1F
100
AcDbEntity
  8
16
  6
Continuous
 62
     3
370
    25
100
AcDbLine
 10
-131.9757591689595
 20
-73.73586398874934
 30
0.0
 11
-131.001759177334
 21
-74.07786400147494
 31
0.0
  0
ARC
  5
275
330
1F
100
AcDbEntity
  8
16
  6
Continuous
 62
     3
370
    25
100
AcDbCircle
 10
-131.1217591600487
 20
-74.41786401607806
 30
0.0
 40
0.3599999958276747
100
AcDbArc
 50
0.0
 51
70.57999877929703
  0
LINE
  5
276
330
1F
100
AcDbEntity
  8
16
  6
Continuous
 62
     3
370
    25
100
AcDbLine
 10
-130.7620625250321
 20
-74.41834567226623
 30
0.0
 11
-130.7620625250321
 21
-77.56234577252124
 31
0.0
  0
ARC
  5
277
330
1F
100
AcDbEntity
  8
16
  6
Continuous
 62
     3
370
    25
100
AcDbCircle
 10
-130.6220625253302
 20
-77.5623458640238
 30
0.0
 40
0.1399999997019767
100
AcDbArc
 50
180.0000000000004
 51
270.0000000000006
  0
LINE
  5
278
330
1F
100
AcDbEntity
  8
16
  6
Continuous
 62
     3
370
    25
100
AcDbLine
 10
-130.622062662584
 20
-77.7023458637257
 30
0.0
 11
-129.9820626435105
 21
-77.7023458637257
 31
0.0
  0
ARC
  5
279
330
1F
100
AcDbEntity
  8
16
  6
Continuous
 62
     3
370
    25
100
AcDbCircle
 10
-129.9820625062567
 20
-77.5623458640238
 30
0.0
 40
0.1399999997019767
100
AcDbArc
 50
270.0000000000006
 51
0.0000000000008142
  0
LINE
  5
27A
330
1F
100
AcDbEntity
  8
16
  6
Continuous
 62
     3
370
    25
100
AcDbLine
 10
-129.8420625065548
 20
-77.56234604702894
 30
0.0
 11
-129.8420625065548
 21
-74.41834594677394
 31
0.0
  0
ARC
  5
27B
330
1F
100
AcDbEntity
  8
16
  6
Continuous
 62
     3
370
    25
100
AcDbCircle
 10
-129.4823661296117
 20
-74.417864381569
 30
0.0
 40
0.3599999958276747
100
AcDbArc
 50
109.4199951171877
 51
180.0000000000004
  0
LINE
  5
27C
330
1F
100
AcDbEntity
  8
16
  6
Continuous
 62
     3
370
    25
100
AcDbLine
 10
-129.6023661123263
 20
-74.07786413167358
 30
0.0
 11
-128.6283661207008
 21
-73.73586411894796
 31
0.0
  0
ARC
  5
27D
330
1F
100
AcDbEntity
  8
16
  6
Continuous
 62
     3
370
    25
100
AcDbCircle
 10
-128.8421332386838
 20
-73.23997739976781
 30
0.0
 40
0.5400000175833704
100
AcDbArc
 50
293.3199951171881
 51
89.02001953125101
  0
ARC
  5
27E
330
1F
100
AcDbEntity
  8
16
  6
Continuous
 62
     3
370
    25
100
AcDbCircle
 10
-128.8103959716373
 20
-72.98918217599366
 30
0.0
 40
0.2900000138580801
100
AcDbArc
 50
94.45000000000022
 51
177.5000000000004
  0
LINE
  5
27F
330
1F
100
AcDbEntity
  8
16
  6
Continuous
 62
     3
370
    25
100
AcDbLine
 10
-129.100119961588
 20
-72.97653236632262
 30
0.0
 11
-129.100119961588
 21
-73.02253236784254
 31
0.0
  0
LINE
  5
280
330
1F
100
AcDbEntity
  8
16
  6
Continuous
 62
     3
370
    25
100
AcDbLine
 10
-129.100119961588
 20
-73.02253236784254
 30
0.0
 11
-128.8121199458524
 21
-73.16253236754451
 31
0.0
  0
ARC
  5
281
330
1F
100
AcDbEntity
  8
16
  6
Continuous
 62
     3
370
    25
100
AcDbCircle
 10
-128.8451763905504
 20
-73.24327311327602
 30
0.0
 40
0.088000000834465
100
AcDbArc
 50
317.6699951171883
 51
68.08999023437599
  0
LINE
  5
282
330
1F
100
AcDbEntity
  8
16
  6
Continuous
 62
     3
370
    25
100
AcDbLine
 10
-128.7803390747447
 20
-73.30162930842503
 30
0.0
 11
-129.6443391219516
 21
-73.60562930914027
 31
0.0
  0
ARC
  5
283
330
1F
100
AcDbEntity
  8
16
  6
Continuous
 62
     3
370
    25
100
AcDbCircle
 10
-129.3861260920795
 20
-74.48865027227406
 30
0.0
 40
0.9199999946355817
100
AcDbArc
 50
106.3000000000002
 51
176.2199951171879
  0
LINE
  5
284
330
1F
100
AcDbEntity
  8
16
  6
Continuous
 62
     3
370
    25
100
AcDbLine
 10
-124.7200003671646
 20
-77.24199905309084
 30
0.0
 11
-124.7200003671646
 21
-74.42799907219413
 31
0.0
  0
ARC
  5
285
330
1F
100
AcDbEntity
  8
16
  6
Continuous
 62
     3
370
    25
100
AcDbCircle
 10
-125.6379989408659
 20
-74.48865060813345
 30
0.0
 40
0.9199999946355817
100
AcDbArc
 50
3.779999923706063
 51
73.70000000000016
  0
LINE
  5
286
330
1F
100
AcDbEntity
  8
16
  6
Continuous
 62
     3
370
    25
100
AcDbLine
 10
-125.3797853338604
 20
-73.60562981376528
 30
0.0
 11
-126.2437853810672
 21
-73.30162981305003
 31
0.0
  0
ARC
  5
287
330
1F
100
AcDbEntity
  8
16
  6
Continuous
 62
     3
370
    25
100
AcDbCircle
 10
-126.1789482427407
 20
-73.24327368928333
 30
0.0
 40
0.088000000834465
100
AcDbArc
 50
111.909997558594
 51
222.330004882813
  0
LINE
  5
288
330
1F
100
AcDbEntity
  8
16
  6
Continuous
 62
     3
370
    25
100
AcDbLine
 10
-126.2120048036324
 20
-73.16253281599101
 30
0.0
 11
-125.9240047878968
 21
-73.02253281628903
 31
0.0
  0
LINE
  5
289
330
1F
100
AcDbEntity
  8
16
  6
Continuous
 62
     3
370
    25
100
AcDbLine
 10
-125.9240047878968
 20
-73.02253281628903
 30
0.0
 11
-125.9240047878968
 21
-72.97653281476913
 31
0.0
  0
ARC
  5
28A
330
1F
100
AcDbEntity
  8
16
  6
Continuous
 62
     3
370
    25
100
AcDbCircle
 10
-126.2137287861152
 20
-72.98918243507954
 30
0.0
 40
0.2900000138580801
100
AcDbArc
 50
2.500000000000006
 51
85.55000000000018
  0
ARC
  5
28B
330
1F
100
AcDbEntity
  8
16
  6
Continuous
 62
     3
370
    25
100
AcDbCircle
 10
-126.1819922162121
 20
-73.23997768871816
 30
0.0
 40
0.5400000175833704
100
AcDbArc
 50
90.97999877929706
 51
246.6800048828131
  0
LINE
  5
28C
330
1F
100
AcDbEntity
  8
16
  6
Continuous
 62
     3
370
    25
100
AcDbLine
 10
-126.3957603065142
 20
-73.73586398874934
 30
0.0
 11
-125.4217603148887
 21
-74.07786400147494
 31
0.0
  0
ARC
  5
28D
330
1F
100
AcDbEntity
  8
16
  6
Continuous
 62
     3
370
    25
100
AcDbCircle
 10
-125.5417602976033
 20
-74.41786401607806
 30
0.0
 40
0.3599999958276747
100
AcDbArc
 50
0.0
 51
70.57999877929703
  0
LINE
  5
28E
330
1F
100
AcDbEntity
  8
16
  6
Continuous
 62
     3
370
    25
100
AcDbLine
 10
-125.1820636625868
 20
-74.41834567226623
 30
0.0
 11
-125.1820636625868
 21
-77.56234577252124
 31
0.0
  0
ARC
  5
28F
330
1F
100
AcDbEntity
  8
16
  6
Continuous
 62
     3
370
    25
100
AcDbCircle
 10
-125.0420636628848
 20
-77.5623458640238
 30
0.0
 40
0.1399999997019767
100
AcDbArc
 50
180.0000000000004
 51
270.0000000000006
  0
LINE
  5
290
330
1F
100
AcDbEntity
  8
16
  6
Continuous
 62
     3
370
    25
100
AcDbLine
 10
-125.0420638001387
 20
-77.7023458637257
 30
0.0
 11
-124.4020637810652
 21
-77.7023458637257
 31
0.0
  0
ARC
  5
291
330
1F
100
AcDbEntity
  8
16
  6
Continuous
 62
     3
370
    25
100
AcDbCircle
 10
-124.4020636438113
 20
-77.5623458640238
 30
0.0
 40
0.1399999997019767
100
AcDbArc
 50
270.0000000000006
 51
0.0000000000008142
  0
LINE
  5
292
330
1F
100
AcDbEntity
  8
16
  6
Continuous
 62
     3
370
    25
100
AcDbLine
 10
-124.2620636441095
 20
-77.56234604702894
 30
0.0
 11
-124.2620636441095
 21
-74.41834594677394
 31
0.0
  0
ARC
  5
293
330
1F
100
AcDbEntity
  8
16
  6
Continuous
 62
     3
370
    25
100
AcDbCircle
 10
-123.9023672671664
 20
-74.417864381569
 30
0.0
 40
0.3599999958276747
100
AcDbArc
 50
109.4199951171877
 51
180.0000000000004
  0
LINE
  5
294
330
1F
100
AcDbEntity
  8
16
  6
Continuous
 62
     3
370
    25
100
AcDbLine
 10
-124.022367249881
 20
-74.07786413167358
 30
0.0
 11
-123.0483672582554
 21
-73.73586411894796
 31
0.0
  0
ARC
  5
295
330
1F
100
AcDbEntity
  8
16
  6
Continuous
 62
     3
370
    25
100
AcDbCircle
 10
-123.2621343762385
 20
-73.23997739976781
 30
0.0
 40
0.5400000175833704
100
AcDbArc
 50
293.3199951171881
 51
89.02001953125101
  0
ARC
  5
296
330
1F
100
AcDbEntity
  8
16
  6
Continuous
 62
     3
370
    25
100
AcDbCircle
 10
-123.2303971091919
 20
-72.98918217599366
 30
0.0
 40
0.2900000138580801
100
AcDbArc
 50
94.45000000000022
 51
177.5000000000004
  0
LINE
  5
297
330
1F
100
AcDbEntity
  8
16
  6
Continuous
 62
     3
370
    25
100
AcDbLine
 10
-123.5201210991427
 20
-72.97653236632262
 30
0.0
 11
-123.5201210991427
 21
-73.02253236784254
 31
0.0
  0
LINE
  5
298
330
1F
100
AcDbEntity
  8
16
  6
Continuous
 62
     3
370
    25
100
AcDbLine
 10
-123.5201210991427
 20
-73.02253236784254
 30
0.0
 11
-123.232121083407
 21
-73.16253236754451
 31
0.0
  0
ARC
  5
299
330
1F
100
AcDbEntity
  8
16
  6
Continuous
 62
     3
370
    25
100
AcDbCircle
 10
-123.2651775281051
 20
-73.24327311327602
 30
0.0
 40
0.088000000834465
100
AcDbArc
 50
317.6699951171883
 51
68.08999023437599
  0
LINE
  5
29A
330
1F
100
AcDbEntity
  8
16
  6
Continuous
 62
     3
370
    25
100
AcDbLine
 10
-123.2003402122994
 20
-73.30162930842503
 30
0.0
 11
-124.0643402595063
 21
-73.60562930914027
 31
0.0
  0
ARC
  5
29B
330
1F
100
AcDbEntity
  8
16
  6
Continuous
 62
     3
370
    25
100
AcDbCircle
 10
-123.8061272296341
 20
-74.48865027227406
 30
0.0
 40
0.9199999946355817
100
AcDbArc
 50
106.3000000000002
 51
176.2199951171879
  0
LINE
  5
29C
330
1F
100
AcDbEntity
  8
16
  6
Continuous
 62
     3
370
    25
100
AcDbLine
 10
-119.1400015047193
 20
-77.24199905309084
 30
0.0
 11
-119.1400015047193
 21
-74.42799907219413
 31
0.0
  0
ARC
  5
29D
330
1F
100
AcDbEntity
  8
16
  6
Continuous
 62
     3
370
    25
100
AcDbCircle
 10
-120.0580000784206
 20
-74.48865060813345
 30
0.0
 40
0.9199999946355817
100
AcDbArc
 50
3.779999923706063
 51
73.70000000000016
  0
LINE
  5
29E
330
1F
100
AcDbEntity
  8
16
  6
Continuous
 62
     3
370
    25
100
AcDbLine
 10
-119.799786471415
 20
-73.60562981376528
 30
0.0
 11
-120.6637865186219
 21
-73.30162981305003
 31
0.0
  0
ARC
  5
29F
330
1F
100
AcDbEntity
  8
16
  6
Continuous
 62
     3
370
    25
100
AcDbCircle
 10
-120.5989493802954
 20
-73.24327368928333
 30
0.0
 40
0.088000000834465
100
AcDbArc
 50
111.909997558594
 51
222.330004882813
  0
LINE
  5
2A0
330
1F
100
AcDbEntity
  8
16
  6
Continuous
 62
     3
370
    25
100
AcDbLine
 10
-120.6320059411871
 20
-73.16253281599101
 30
0.0
 11
-120.3440059254514
 21
-73.02253281628903
 31
0.0
  0
LINE
  5
2A1
330
1F
100
AcDbEntity
  8
16
  6
Continuous
 62
     3
370
    25
100
AcDbLine
 10
-120.3440059254514
 20
-73.02253281628903
 30
0.0
 11
-120.3440059254514
 21
-72.97653281476913
 31
0.0
  0
ARC
  5
2A2
330
1F
100
AcDbEntity
  8
16
  6
Continuous
 62
     3
370
    25
100
AcDbCircle
 10
-120.6337299236699
 20
-72.98918243507954
 30
0.0
 40
0.2900000138580801
100
AcDbArc
 50
2.500000000000006
 51
85.55000000000018
  0
ARC
  5
2A3
330
1F
100
AcDbEntity
  8
16
  6
Continuous
 62
     3
370
    25
100
AcDbCircle
 10
-120.6019933537667
 20
-73.23997768871816
 30
0.0
 40
0.5400000175833704
100
AcDbArc
 50
90.97999877929706
 51
246.6800048828131
  0
LINE
  5
2A4
330
1F
100
AcDbEntity
  8
16
  6
Continuous
 62
     3
370
    25
100
AcDbLine
 10
-120.8157614440689
 20
-73.73586398874934
 30
0.0
 11
-119.8417614524433
 21
-74.07786400147494
 31
0.0
  0
ARC
  5
2A5
330
1F
100
AcDbEntity
  8
16
  6
Continuous
 62
     3
370
    25
100
AcDbCircle
 10
-119.961761435158
 20
-74.41786401607806
 30
0.0
 40
0.3599999958276747
100
AcDbArc
 50
0.0
 51
70.57999877929703
  0
LINE
  5
2A6
330
1F
100
AcDbEntity
  8
16
  6
Continuous
 62
     3
370
    25
100
AcDbLine
 10
-119.6020648001414
 20
-74.41834567226623
 30
0.0
 11
-119.6020648001414
 21
-77.56234577252124
 31
0.0
  0
ARC
  5
2A7
330
1F
100
AcDbEntity
  8
16
  6
Continuous
 62
     3
370
    25
100
AcDbCircle
 10
-119.4620648004395
 20
-77.5623458640238
 30
0.0
 40
0.1399999997019767
100
AcDbArc
 50
180.0000000000004
 51
270.0000000000006
  0
LINE
  5
2A8
330
1F
100
AcDbEntity
  8
16
  6
Continuous
 62
     3
370
    25
100
AcDbLine
 10
-119.4620649376934
 20
-77.7023458637257
 30
0.0
 11
-118.8220649186199
 21
-77.7023458637257
 31
0.0
  0
ARC
  5
2A9
330
1F
100
AcDbEntity
  8
16
  6
Continuous
 62
     3
370
    25
100
AcDbCircle
 10
-118.822064781366
 20
-77.5623458640238
 30
0.0
 40
0.1399999997019767
100
AcDbArc
 50
270.0000000000006
 51
0.0000000000008142
  0
LINE
  5
2AA
330
1F
100
AcDbEntity
  8
16
  6
Continuous
 62
     3
370
    25
100
AcDbLine
 10
-118.6820647816641
 20
-77.56234604702894
 30
0.0
 11
-118.6820647816641
 21
-74.41834594677394
 31
0.0
  0
ARC
  5
2AB
330
1F
100
AcDbEntity
  8
16
  6
Continuous
 62
     3
370
    25
100
AcDbCircle
 10
-118.3223684047211
 20
-74.417864381569
 30
0.0
 40
0.3599999958276747
100
AcDbArc
 50
109.4199951171877
 51
180.0000000000004
  0
LINE
  5
2AC
330
1F
100
AcDbEntity
  8
16
  6
Continuous
 62
     3
370
    25
100
AcDbLine
 10
-118.4423683874356
 20
-74.07786413167358
 30
0.0
 11
-117.4683683958101
 21
-73.73586411894796
 31
0.0
  0
ARC
  5
2AD
330
1F
100
AcDbEntity
  8
16
  6
Continuous
 62
     3
370
    25
100
AcDbCircle
 10
-117.6821355137931
 20
-73.23997739976781
 30
0.0
 40
0.5400000175833704
100
AcDbArc
 50
293.3199951171881
 51
89.02001953125101
  0
ARC
  5
2AE
330
1F
100
AcDbEntity
  8
16
  6
Continuous
 62
     3
370
    25
100
AcDbCircle
 10
-117.6503982467466
 20
-72.98918217599366
 30
0.0
 40
0.2900000138580801
100
AcDbArc
 50
94.45000000000022
 51
177.5000000000004
  0
LINE
  5
2AF
330
1F
100
AcDbEntity
  8
16
  6
Continuous
 62
     3
370
    25
100
AcDbLine
 10
-117.9401222366973
 20
-72.97653236632262
 30
0.0
 11
-117.9401222366973
 21
-73.02253236784254
 31
0.0
  0
LINE
  5
2B0
330
1F
100
AcDbEntity
  8
16
  6
Continuous
 62
     3
370
    25
100
AcDbLine
 10
-117.9401222366973
 20
-73.02253236784254
 30
0.0
 11
-117.6521222209617
 21
-73.16253236754451
 31
0.0
  0
ARC
  5
2B1
330
1F
100
AcDbEntity
  8
16
  6
Continuous
 62
     3
370
    25
100
AcDbCircle
 10
-117.6851786656597
 20
-73.24327311327602
 30
0.0
 40
0.088000000834465
100
AcDbArc
 50
317.6699951171883
 51
68.08999023437599
  0
LINE
  5
2B2
330
1F
100
AcDbEntity
  8
16
  6
Continuous
 62
     3
370
    25
100
AcDbLine
 10
-117.6203413498541
 20
-73.30162930842503
 30
0.0
 11
-118.4843413970609
 21
-73.60562930914027
 31
0.0
  0
ARC
  5
2B3
330
1F
100
AcDbEntity
  8
16
  6
Continuous
 62
     3
370
    25
100
AcDbCircle
 10
-118.2261283671888
 20
-74.48865027227406
 30
0.0
 40
0.9199999946355817
100
AcDbArc
 50
106.3000000000002
 51
176.2199951171879
  0
LINE
  5
2B4
330
1F
100
AcDbEntity
  8
16
  6
Continuous
 62
     3
370
    25
100
AcDbLine
 10
-113.5599965387582
 20
-77.24199905309084
 30
0.0
 11
-113.5599965387582
 21
-74.42799907219413
 31
0.0
  0
ARC
  5
2B5
330
1F
100
AcDbEntity
  8
16
  6
Continuous
 62
     3
370
    25
100
AcDbCircle
 10
-114.4779951124596
 20
-74.48865060813345
 30
0.0
 40
0.9199999946355817
100
AcDbArc
 50
3.779999923706063
 51
73.70000000000016
  0
LINE
  5
2B6
330
1F
100
AcDbEntity
  8
16
  6
Continuous
 62
     3
370
    25
100
AcDbLine
 10
-114.219781505454
 20
-73.60562981376528
 30
0.0
 11
-115.0837815526609
 21
-73.30162981305003
 31
0.0
  0
ARC
  5
2B7
330
1F
100
AcDbEntity
  8
16
  6
Continuous
 62
     3
370
    25
100
AcDbCircle
 10
-115.0189444143344
 20
-73.24327368928333
 30
0.0
 40
0.088000000834465
100
AcDbArc
 50
111.909997558594
 51
222.330004882813
  0
LINE
  5
2B8
330
1F
100
AcDbEntity
  8
16
  6
Continuous
 62
     3
370
    25
100
AcDbLine
 10
-115.052000975226
 20
-73.16253281599101
 30
0.0
 11
-114.7640009594904
 21
-73.02253281628903
 31
0.0
  0
LINE
  5
2B9
330
1F
100
AcDbEntity
  8
16
  6
Continuous
 62
     3
370
    25
100
AcDbLine
 10
-114.7640009594904
 20
-73.02253281628903
 30
0.0
 11
-114.7640009594904
 21
-72.97653281476913
 31
0.0
  0
ARC
  5
2BA
330
1F
100
AcDbEntity
  8
16
  6
Continuous
 62
     3
370
    25
100
AcDbCircle
 10
-115.0537249577088
 20
-72.98918243507954
 30
0.0
 40
0.2900000138580801
100
AcDbArc
 50
2.500000000000006
 51
85.55000000000018
  0
ARC
  5
2BB
330
1F
100
AcDbEntity
  8
16
  6
Continuous
 62
     3
370
    25
100
AcDbCircle
 10
-115.0219883878057
 20
-73.23997768871816
 30
0.0
 40
0.5400000175833704
100
AcDbArc
 50
90.97999877929706
 51
246.6800048828131
  0
LINE
  5
2BC
330
1F
100
AcDbEntity
  8
16
  6
Continuous
 62
     3
370
    25
100
AcDbLine
 10
-115.2357564781078
 20
-73.73586398874934
 30
0.0
 11
-114.2617564864823
 21
-74.07786400147494
 31
0.0
  0
ARC
  5
2BD
330
1F
100
AcDbEntity
  8
16
  6
Continuous
 62
     3
370
    25
100
AcDbCircle
 10
-114.3817564691969
 20
-74.41786401607806
 30
0.0
 40
0.3599999958276747
100
AcDbArc
 50
0.0
 51
70.57999877929703
  0
LINE
  5
2BE
330
1F
100
AcDbEntity
  8
16
  6
Continuous
 62
     3
370
    25
100
AcDbLine
 10
-114.0220598341804
 20
-74.41834567226623
 30
0.0
 11
-114.0220598341804
 21
-77.56234577252124
 31
0.0
  0
ARC
  5
2BF
330
1F
100
AcDbEntity
  8
16
  6
Continuous
 62
     3
370
    25
100
AcDbCircle
 10
-113.8820598344784
 20
-77.5623458640238
 30
0.0
 40
0.1399999997019767
100
AcDbArc
 50
180.0000000000004
 51
270.0000000000006
  0
LINE
  5
2C0
330
1F
100
AcDbEntity
  8
16
  6
Continuous
 62
     3
370
    25
100
AcDbLine
 10
-113.8820599717323
 20
-77.7023458637257
 30
0.0
 11
-113.2420599526588
 21
-77.7023458637257
 31
0.0
  0
ARC
  5
2C1
330
1F
100
AcDbEntity
  8
16
  6
Continuous
 62
     3
370
    25
100
AcDbCircle
 10
-113.2420598154049
 20
-77.5623458640238
 30
0.0
 40
0.1399999997019767
100
AcDbArc
 50
270.0000000000006
 51
0.0000000000008142
  0
LINE
  5
2C2
330
1F
100
AcDbEntity
  8
16
  6
Continuous
 62
     3
370
    25
100
AcDbLine
 10
-113.1020598157031
 20
-77.56234604702894
 30
0.0
 11
-113.1020598157031
 21
-74.41834594677394
 31
0.0
  0
ARC
  5
2C3
330
1F
100
AcDbEntity
  8
16
  6
Continuous
 62
     3
370
    25
100
AcDbCircle
 10
-112.74236343876
 20
-74.417864381569
 30
0.0
 40
0.3599999958276747
100
AcDbArc
 50
109.4199951171877
 51
180.0000000000004
  0
LINE
  5
2C4
330
1F
100
AcDbEntity
  8
16
  6
Continuous
 62
     3
370
    25
100
AcDbLine
 10
-112.8623634214746
 20
-74.07786413167358
 30
0.0
 11
-111.888363429849
 21
-73.73586411894796
 31
0.0
  0
ARC
  5
2C5
330
1F
100
AcDbEntity
  8
16
  6
Continuous
 62
     3
370
    25
100
AcDbCircle
 10
-112.1021305478321
 20
-73.23997739976781
 30
0.0
 40
0.5400000175833704
100
AcDbArc
 50
293.3199951171881
 51
89.02001953125101
  0
ARC
  5
2C6
330
1F
100
AcDbEntity
  8
16
  6
Continuous
 62
     3
370
    25
100
AcDbCircle
 10
-112.0703932807855
 20
-72.98918217599366
 30
0.0
 40
0.2900000138580801
100
AcDbArc
 50
94.45000000000022
 51
177.5000000000004
  0
LINE
  5
2C7
330
1F
100
AcDbEntity
  8
16
  6
Continuous
 62
     3
370
    25
100
AcDbLine
 10
-112.3601172707363
 20
-72.97653236632262
 30
0.0
 11
-112.3601172707363
 21
-73.02253236784254
 31
0.0
  0
LINE
  5
2C8
330
1F
100
AcDbEntity
  8
16
  6
Continuous
 62
     3
370
    25
100
AcDbLine
 10
-112.3601172707363
 20
-73.02253236784254
 30
0.0
 11
-112.0721172550006
 21
-73.16253236754451
 31
0.0
  0
ARC
  5
2C9
330
1F
100
AcDbEntity
  8
16
  6
Continuous
 62
     3
370
    25
100
AcDbCircle
 10
-112.1051736996987
 20
-73.24327311327602
 30
0.0
 40
0.088000000834465
100
AcDbArc
 50
317.6699951171883
 51
68.08999023437599
  0
LINE
  5
2CA
330
1F
100
AcDbEntity
  8
16
  6
Continuous
 62
     3
370
    25
100
AcDbLine
 10
-112.040336383893
 20
-73.30162930842503
 30
0.0
 11
-112.9043364310999
 21
-73.60562930914027
 31
0.0
  0
ARC
  5
2CB
330
1F
100
AcDbEntity
  8
16
  6
Continuous
 62
     3
370
    25
100
AcDbCircle
 10
-112.6461234012277
 20
-74.48865027227406
 30
0.0
 40
0.9199999946355817
100
AcDbArc
 50
106.3000000000002
 51
176.2199951171879
  0
LINE
  5
2CC
330
1F
100
AcDbEntity
  8
16
  6
Continuous
 62
     3
370
    25
100
AcDbLine
 10
-107.9799976763129
 20
-77.24199905309084
 30
0.0
 11
-107.9799976763129
 21
-74.42799907219413
 31
0.0
  0
ARC
  5
2CD
330
1F
100
AcDbEntity
  8
16
  6
Continuous
 62
     3
370
    25
100
AcDbCircle
 10
-108.8979962500142
 20
-74.48865060813345
 30
0.0
 40
0.9199999946355817
100
AcDbArc
 50
3.779999923706063
 51
73.70000000000016
  0
LINE
  5
2CE
330
1F
100
AcDbEntity
  8
16
  6
Continuous
 62
     3
370
    25
100
AcDbLine
 10
-108.6397826430086
 20
-73.60562981376528
 30
0.0
 11
-109.5037826902155
 21
-73.30162981305003
 31
0.0
  0
ARC
  5
2CF
330
1F
100
AcDbEntity
  8
16
  6
Continuous
 62
     3
370
    25
100
AcDbCircle
 10
-109.438945551889
 20
-73.24327368928333
 30
0.0
 40
0.088000000834465
100
AcDbArc
 50
111.909997558594
 51
222.330004882813
  0
LINE
  5
2D0
330
1F
100
AcDbEntity
  8
16
  6
Continuous
 62
     3
370
    25
100
AcDbLine
 10
-109.4720021127807
 20
-73.16253281599101
 30
0.0
 11
-109.184002097045
 21
-73.02253281628903
 31
0.0
  0
LINE
  5
2D1
330
1F
100
AcDbEntity
  8
16
  6
Continuous
 62
     3
370
    25
100
AcDbLine
 10
-109.184002097045
 20
-73.02253281628903
 30
0.0
 11
-109.184002097045
 21
-72.97653281476913
 31
0.0
  0
ARC
  5
2D2
330
1F
100
AcDbEntity
  8
16
  6
Continuous
 62
     3
370
    25
100
AcDbCircle
 10
-109.4737260952635
 20
-72.98918243507954
 30
0.0
 40
0.2900000138580801
100
AcDbArc
 50
2.500000000000006
 51
85.55000000000018
  0
ARC
  5
2D3
330
1F
100
AcDbEntity
  8
16
  6
Continuous
 62
     3
370
    25
100
AcDbCircle
 10
-109.4419895253604
 20
-73.23997768871816
 30
0.0
 40
0.5400000175833704
100
AcDbArc
 50
90.97999877929706
 51
246.6800048828131
  0
LINE
  5
2D4
330
1F
100
AcDbEntity
  8
16
  6
Continuous
 62
     3
370
    25
100
AcDbLine
 10
-109.6557576156625
 20
-73.73586398874934
 30
0.0
 11
-108.6817576240369
 21
-74.07786400147494
 31
0.0
  0
ARC
  5
2D5
330
1F
100
AcDbEntity
  8
16
  6
Continuous
 62
     3
370
    25
100
AcDbCircle
 10
-108.8017576067516
 20
-74.41786401607806
 30
0.0
 40
0.3599999958276747
100
AcDbArc
 50
0.0
 51
70.57999877929703
  0
LINE
  5
2D6
330
1F
100
AcDbEntity
  8
16
  6
Continuous
 62
     3
370
    25
100
AcDbLine
 10
-108.4420609717351
 20
-74.41834567226623
 30
0.0
 11
-108.4420609717351
 21
-77.56234577252124
 31
0.0
  0
ARC
  5
2D7
330
1F
100
AcDbEntity
  8
16
  6
Continuous
 62
     3
370
    25
100
AcDbCircle
 10
-108.3020609720331
 20
-77.5623458640238
 30
0.0
 40
0.1399999997019767
100
AcDbArc
 50
180.0000000000004
 51
270.0000000000006
  0
LINE
  5
2D8
330
1F
100
AcDbEntity
  8
16
  6
Continuous
 62
     3
370
    25
100
AcDbLine
 10
-108.302061109287
 20
-77.7023458637257
 30
0.0
 11
-107.6620610902135
 21
-77.7023458637257
 31
0.0
  0
ARC
  5
2D9
330
1F
100
AcDbEntity
  8
16
  6
Continuous
 62
     3
370
    25
100
AcDbCircle
 10
-107.6620609529596
 20
-77.5623458640238
 30
0.0
 40
0.1399999997019767
100
AcDbArc
 50
270.0000000000006
 51
0.0000000000008142
  0
LINE
  5
2DA
330
1F
100
AcDbEntity
  8
16
  6
Continuous
 62
     3
370
    25
100
AcDbLine
 10
-107.5220609532578
 20
-77.56234604702894
 30
0.0
 11
-107.5220609532578
 21
-74.41834594677394
 31
0.0
  0
ARC
  5
2DB
330
1F
100
AcDbEntity
  8
16
  6
Continuous
 62
     3
370
    25
100
AcDbCircle
 10
-107.1623645763147
 20
-74.417864381569
 30
0.0
 40
0.3599999958276747
100
AcDbArc
 50
109.4199951171877
 51
180.0000000000004
  0
LINE
  5
2DC
330
1F
100
AcDbEntity
  8
16
  6
Continuous
 62
     3
370
    25
100
AcDbLine
 10
-107.2823645590292
 20
-74.07786413167358
 30
0.0
 11
-106.3083645674037
 21
-73.73586411894796
 31
0.0
  0
ARC
  5
2DD
330
1F
100
AcDbEntity
  8
16
  6
Continuous
 62
     3
370
    25
100
AcDbCircle
 10
-106.5221316853867
 20
-73.23997739976781
 30
0.0
 40
0.5400000175833704
100
AcDbArc
 50
293.3199951171881
 51
89.02001953125101
  0
ARC
  5
2DE
330
1F
100
AcDbEntity
  8
16
  6
Continuous
 62
     3
370
    25
100
AcDbCircle
 10
-106.4903944183402
 20
-72.98918217599366
 30
0.0
 40
0.2900000138580801
100
AcDbArc
 50
94.45000000000022
 51
177.5000000000004
  0
LINE
  5
2DF
330
1F
100
AcDbEntity
  8
16
  6
Continuous
 62
     3
370
    25
100
AcDbLine
 10
-106.7801184082909
 20
-72.97653236632262
 30
0.0
 11
-106.7801184082909
 21
-73.02253236784254
 31
0.0
  0
LINE
  5
2E0
330
1F
100
AcDbEntity
  8
16
  6
Continuous
 62
     3
370
    25
100
AcDbLine
 10
-106.7801184082909
 20
-73.02253236784254
 30
0.0
 11
-106.4921183925553
 21
-73.16253236754451
 31
0.0
  0
ARC
  5
2E1
330
1F
100
AcDbEntity
  8
16
  6
Continuous
 62
     3
370
    25
100
AcDbCircle
 10
-106.5251748372534
 20
-73.24327311327602
 30
0.0
 40
0.088000000834465
100
AcDbArc
 50
317.6699951171883
 51
68.08999023437599
  0
LINE
  5
2E2
330
1F
100
AcDbEntity
  8
16
  6
Continuous
 62
     3
370
    25
100
AcDbLine
 10
-106.4603375214477
 20
-73.30162930842503
 30
0.0
 11
-107.3243375686545
 21
-73.60562930914027
 31
0.0
  0
ARC
  5
2E3
330
1F
100
AcDbEntity
  8
16
  6
Continuous
 62
     3
370
    25
100
AcDbCircle
 10
-107.0661245387824
 20
-74.48865027227406
 30
0.0
 40
0.9199999946355817
100
AcDbArc
 50
106.3000000000002
 51
176.2199951171879
  0
LINE
  5
2E4
330
1F
100
AcDbEntity
  8
16
  6
Continuous
 62
     3
370
    25
100
AcDbLine
 10
-102.3999988138676
 20
-77.24199905309084
 30
0.0
 11
-102.3999988138676
 21
-74.42799907219413
 31
0.0
  0
ARC
  5
2E5
330
1F
100
AcDbEntity
  8
16
  6
Continuous
 62
     3
370
    25
100
AcDbCircle
 10
-103.3179973875689
 20
-74.48865060813345
 30
0.0
 40
0.9199999946355817
100
AcDbArc
 50
3.779999923706063
 51
73.70000000000016
  0
LINE
  5
2E6
330
1F
100
AcDbEntity
  8
16
  6
Continuous
 62
     3
370
    25
100
AcDbLine
 10
-103.0597837805633
 20
-73.60562981376528
 30
0.0
 11
-103.9237838277702
 21
-73.30162981305003
 31
0.0
  0
ARC
  5
2E7
330
1F
100
AcDbEntity
  8
16
  6
Continuous
 62
     3
370
    25
100
AcDbCircle
 10
-103.8589466894437
 20
-73.24327368928333
 30
0.0
 40
0.088000000834465
100
AcDbArc
 50
111.909997558594
 51
222.330004882813
  0
LINE
  5
2E8
330
1F
100
AcDbEntity
  8
16
  6
Continuous
 62
     3
370
    25
100
AcDbLine
 10
-103.8920032503353
 20
-73.16253281599101
 30
0.0
 11
-103.6040032345997
 21
-73.02253281628903
 31
0.0
  0
LINE
  5
2E9
330
1F
100
AcDbEntity
  8
16
  6
Continuous
 62
     3
370
    25
100
AcDbLine
 10
-103.6040032345997
 20
-73.02253281628903
 30
0.0
 11
-103.6040032345997
 21
-72.97653281476913
 31
0.0
  0
ARC
  5
2EA
330
1F
100
AcDbEntity
  8
16
  6
Continuous
 62
     3
370
    25
100
AcDbCircle
 10
-103.8937272328182
 20
-72.98918243507954
 30
0.0
 40
0.2900000138580801
100
AcDbArc
 50
2.500000000000006
 51
85.55000000000018
  0
ARC
  5
2EB
330
1F
100
AcDbEntity
  8
16
  6
Continuous
 62
     3
370
    25
100
AcDbCircle
 10
-103.861990662915
 20
-73.23997768871816
 30
0.0
 40
0.5400000175833704
100
AcDbArc
 50
90.97999877929706
 51
246.6800048828131
  0
LINE
  5
2EC
330
1F
100
AcDbEntity
  8
16
  6
Continuous
 62
     3
370
    25
100
AcDbLine
 10
-104.0757587532171
 20
-73.73586398874934
 30
0.0
 11
-103.1017587615916
 21
-74.07786400147494
 31
0.0
  0
ARC
  5
2ED
330
1F
100
AcDbEntity
  8
16
  6
Continuous
 62
     3
370
    25
100
AcDbCircle
 10
-103.2217587443063
 20
-74.41786401607806
 30
0.0
 40
0.3599999958276747
100
AcDbArc
 50
0.0
 51
70.57999877929703
  0
LINE
  5
2EE
330
1F
100
AcDbEntity
  8
16
  6
Continuous
 62
     3
370
    25
100
AcDbLine
 10
-102.8620621092897
 20
-74.41834567226623
 30
0.0
 11
-102.8620621092897
 21
-77.56234577252124
 31
0.0
  0
ARC
  5
2EF
330
1F
100
AcDbEntity
  8
16
  6
Continuous
 62
     3
370
    25
100
AcDbCircle
 10
-102.7220621095878
 20
-77.5623458640238
 30
0.0
 40
0.1399999997019767
100
AcDbArc
 50
180.0000000000004
 51
270.0000000000006
  0
LINE
  5
2F0
330
1F
100
AcDbEntity
  8
16
  6
Continuous
 62
     3
370
    25
100
AcDbLine
 10
-102.7220622468416
 20
-77.7023458637257
 30
0.0
 11
-102.0820622277681
 21
-77.7023458637257
 31
0.0
  0
ARC
  5
2F1
330
1F
100
AcDbEntity
  8
16
  6
Continuous
 62
     3
370
    25
100
AcDbCircle
 10
-102.0820620905143
 20
-77.5623458640238
 30
0.0
 40
0.1399999997019767
100
AcDbArc
 50
270.0000000000006
 51
0.0000000000008142
  0
LINE
  5
2F2
330
1F
100
AcDbEntity
  8
16
  6
Continuous
 62
     3
370
    25
100
AcDbLine
 10
-101.9420620908124
 20
-77.56234604702894
 30
0.0
 11
-101.9420620908124
 21
-74.41834594677394
 31
0.0
  0
ARC
  5
2F3
330
1F
100
AcDbEntity
  8
16
  6
Continuous
 62
     3
370
    25
100
AcDbCircle
 10
-101.5823657138693
 20
-74.417864381569
 30
0.0
 40
0.3599999958276747
100
AcDbArc
 50
109.4199951171877
 51
180.0000000000004
  0
LINE
  5
2F4
330
1F
100
AcDbEntity
  8
16
  6
Continuous
 62
     3
370
    25
100
AcDbLine
 10
-101.7023656965839
 20
-74.07786413167358
 30
0.0
 11
-100.7283657049584
 21
-73.73586411894796
 31
0.0
  0
ARC
  5
2F5
330
1F
100
AcDbEntity
  8
16
  6
Continuous
 62
     3
370
    25
100
AcDbCircle
 10
-100.9421328229414
 20
-73.23997739976781
 30
0.0
 40
0.5400000175833704
100
AcDbArc
 50
293.3199951171881
 51
89.02001953125101
  0
ARC
  5
2F6
330
1F
100
AcDbEntity
  8
16
  6
Continuous
 62
     3
370
    25
100
AcDbCircle
 10
-100.9103955558949
 20
-72.98918217599366
 30
0.0
 40
0.2900000138580801
100
AcDbArc
 50
94.45000000000022
 51
177.5000000000004
  0
LINE
  5
2F7
330
1F
100
AcDbEntity
  8
16
  6
Continuous
 62
     3
370
    25
100
AcDbLine
 10
-101.2001195458456
 20
-72.97653236632262
 30
0.0
 11
-101.2001195458456
 21
-73.02253236784254
 31
0.0
  0
LINE
  5
2F8
330
1F
100
AcDbEntity
  8
16
  6
Continuous
 62
     3
370
    25
100
AcDbLine
 10
-101.2001195458456
 20
-73.02253236784254
 30
0.0
 11
-100.91211953011
 21
-73.16253236754451
 31
0.0
  0
ARC
  5
2F9
330
1F
100
AcDbEntity
  8
16
  6
Continuous
 62
     3
370
    25
100
AcDbCircle
 10
-100.945175974808
 20
-73.24327311327602
 30
0.0
 40
0.088000000834465
100
AcDbArc
 50
317.6699951171883
 51
68.08999023437599
  0
LINE
  5
2FA
330
1F
100
AcDbEntity
  8
16
  6
Continuous
 62
     3
370
    25
100
AcDbLine
 10
-100.8803386590023
 20
-73.30162930842503
 30
0.0
 11
-101.7443387062092
 21
-73.60562930914027
 31
0.0
  0
ARC
  5
2FB
330
1F
100
AcDbEntity
  8
16
  6
Continuous
 62
     3
370
    25
100
AcDbCircle
 10
-101.4861256763371
 20
-74.48865027227406
 30
0.0
 40
0.9199999946355817
100
AcDbArc
 50
106.3000000000002
 51
176.2199951171879
  0
LINE
  5
2FC
330
1F
100
AcDbEntity
  8
16
  6
Continuous
 62
     3
370
    25
100
AcDbLine
 10
-96.81999995142225
 20
-77.24199905309084
 30
0.0
 11
-96.81999995142225
 21
-74.42799907219413
 31
0.0
  0
ARC
  5
2FD
330
1F
100
AcDbEntity
  8
16
  6
Continuous
 62
     3
370
    25
100
AcDbCircle
 10
-97.73799852512357
 20
-74.48865060813345
 30
0.0
 40
0.9199999946355817
100
AcDbArc
 50
3.779999923706063
 51
73.70000000000016
  0
LINE
  5
2FE
330
1F
100
AcDbEntity
  8
16
  6
Continuous
 62
     3
370
    25
100
AcDbLine
 10
-97.479784918118
 20
-73.60562981376528
 30
0.0
 11
-98.34378496532487
 21
-73.30162981305003
 31
0.0
  0
ARC
  5
2FF
330
1F
100
AcDbEntity
  8
16
  6
Continuous
 62
     3
370
    25
100
AcDbCircle
 10
-98.27894782699838
 20
-73.24327368928333
 30
0.0
 40
0.088000000834465
100
AcDbArc
 50
111.909997558594
 51
222.330004882813
  0
LINE
  5
300
330
1F
100
AcDbEntity
  8
16
  6
Continuous
 62
     3
370
    25
100
AcDbLine
 10
-98.31200438789003
 20
-73.16253281599101
 30
0.0
 11
-98.02400437215442
 21
-73.02253281628903
 31
0.0
  0
LINE
  5
301
330
1F
100
AcDbEntity
  8
16
  6
Continuous
 62
     3
370
    25
100
AcDbLine
 10
-98.02400437215442
 20
-73.02253281628903
 30
0.0
 11
-98.02400437215442
 21
-72.97653281476913
 31
0.0
  0
ARC
  5
302
330
1F
100
AcDbEntity
  8
16
  6
Continuous
 62
     3
370
    25
100
AcDbCircle
 10
-98.31372837037286
 20
-72.98918243507954
 30
0.0
 40
0.2900000138580801
100
AcDbArc
 50
2.500000000000006
 51
85.55000000000018
  0
ARC
  5
303
330
1F
100
AcDbEntity
  8
16
  6
Continuous
 62
     3
370
    25
100
AcDbCircle
 10
-98.28199180046971
 20
-73.23997768871816
 30
0.0
 40
0.5400000175833704
100
AcDbArc
 50
90.97999877929706
 51
246.6800048828131
  0
LINE
  5
304
330
1F
100
AcDbEntity
  8
16
  6
Continuous
 62
     3
370
    25
100
AcDbLine
 10
-98.49575989077184
 20
-73.73586398874934
 30
0.0
 11
-97.5217598991463
 21
-74.07786400147494
 31
0.0
  0
ARC
  5
305
330
1F
100
AcDbEntity
  8
16
  6
Continuous
 62
     3
370
    25
100
AcDbCircle
 10
-97.64175988186095
 20
-74.41786401607806
 30
0.0
 40
0.3599999958276747
100
AcDbArc
 50
0.0
 51
70.57999877929703
  0
LINE
  5
306
330
1F
100
AcDbEntity
  8
16
  6
Continuous
 62
     3
370
    25
100
AcDbLine
 10
-97.2820632468444
 20
-74.41834567226623
 30
0.0
 11
-97.2820632468444
 21
-77.56234577252124
 31
0.0
  0
ARC
  5
307
330
1F
100
AcDbEntity
  8
16
  6
Continuous
 62
     3
370
    25
100
AcDbCircle
 10
-97.14206324714246
 20
-77.5623458640238
 30
0.0
 40
0.1399999997019767
100
AcDbArc
 50
180.0000000000004
 51
270.0000000000006
  0
LINE
  5
308
330
1F
100
AcDbEntity
  8
16
  6
Continuous
 62
     3
370
    25
100
AcDbLine
 10
-97.14206338439632
 20
-77.7023458637257
 30
0.0
 11
-96.50206336532283
 21
-77.7023458637257
 31
0.0
  0
ARC
  5
309
330
1F
100
AcDbEntity
  8
16
  6
Continuous
 62
     3
370
    25
100
AcDbCircle
 10
-96.50206322806896
 20
-77.5623458640238
 30
0.0
 40
0.1399999997019767
100
AcDbArc
 50
270.0000000000006
 51
0.0000000000008142
  0
LINE
  5
30A
330
1F
100
AcDbEntity
  8
16
  6
Continuous
 62
     3
370
    25
100
AcDbLine
 10
-96.36206322836712
 20
-77.56234604702894
 30
0.0
 11
-96.36206322836712
 21
-74.41834594677394
 31
0.0
  0
ARC
  5
30B
330
1F
100
AcDbEntity
  8
16
  6
Continuous
 62
     3
370
    25
100
AcDbCircle
 10
-96.00236685142401
 20
-74.417864381569
 30
0.0
 40
0.3599999958276747
100
AcDbArc
 50
109.4199951171877
 51
180.0000000000004
  0
LINE
  5
30C
330
1F
100
AcDbEntity
  8
16
  6
Continuous
 62
     3
370
    25
100
AcDbLine
 10
-96.1223668341386
 20
-74.07786413167358
 30
0.0
 11
-95.14836684251304
 21
-73.73586411894796
 31
0.0
  0
ARC
  5
30D
330
1F
100
AcDbEntity
  8
16
  6
Continuous
 62
     3
370
    25
100
AcDbCircle
 10
-95.3621339604961
 20
-73.23997739976781
 30
0.0
 40
0.5400000175833704
100
AcDbArc
 50
293.3199951171881
 51
89.02001953125101
  0
ARC
  5
30E
330
1F
100
AcDbEntity
  8
16
  6
Continuous
 62
     3
370
    25
100
AcDbCircle
 10
-95.33039669344956
 20
-72.98918217599366
 30
0.0
 40
0.2900000138580801
100
AcDbArc
 50
94.45000000000022
 51
177.5000000000004
  0
LINE
  5
30F
330
1F
100
AcDbEntity
  8
16
  6
Continuous
 62
     3
370
    25
100
AcDbLine
 10
-95.62012068340029
 20
-72.97653236632262
 30
0.0
 11
-95.62012068340029
 21
-73.02253236784254
 31
0.0
  0
LINE
  5
310
330
1F
100
AcDbEntity
  8
16
  6
Continuous
 62
     3
370
    25
100
AcDbLine
 10
-95.62012068340029
 20
-73.02253236784254
 30
0.0
 11
-95.33212066766467
 21
-73.16253236754451
 31
0.0
  0
ARC
  5
311
330
1F
100
AcDbEntity
  8
16
  6
Continuous
 62
     3
370
    25
100
AcDbCircle
 10
-95.36517711236272
 20
-73.24327311327602
 30
0.0
 40
0.088000000834465
100
AcDbArc
 50
317.6699951171883
 51
68.08999023437599
  0
LINE
  5
312
330
1F
100
AcDbEntity
  8
16
  6
Continuous
 62
     3
370
    25
100
AcDbLine
 10
-95.30033979655701
 20
-73.30162930842503
 30
0.0
 11
-96.1643398437639
 21
-73.60562930914027
 31
0.0
  0
ARC
  5
313
330
1F
100
AcDbEntity
  8
16
  6
Continuous
 62
     3
370
    25
100
AcDbCircle
 10
-95.90612681389177
 20
-74.48865027227406
 30
0.0
 40
0.9199999946355817
100
AcDbArc
 50
106.3000000000002
 51
176.2199951171879
  0
LINE
  5
314
330
1F
100
AcDbEntity
  8
16
  6
Continuous
 62
     3
370
    25
100
AcDbLine
 10
-91.24000108897691
 20
-77.24199905309084
 30
0.0
 11
-91.24000108897691
 21
-74.42799907219413
 31
0.0
  0
ARC
  5
315
330
1F
100
AcDbEntity
  8
16
  6
Continuous
 62
     3
370
    25
100
AcDbCircle
 10
-92.15799966267824
 20
-74.48865060813345
 30
0.0
 40
0.9199999946355817
100
AcDbArc
 50
3.779999923706063
 51
73.70000000000016
  0
LINE
  5
316
330
1F
100
AcDbEntity
  8
16
  6
Continuous
 62
     3
370
    25
100
AcDbLine
 10
-91.89978605567266
 20
-73.60562981376528
 30
0.0
 11
-92.76378610287954
 21
-73.30162981305003
 31
0.0
  0
ARC
  5
317
330
1F
100
AcDbEntity
  8
16
  6
Continuous
 62
     3
370
    25
100
AcDbCircle
 10
-92.69894896455304
 20
-73.24327368928333
 30
0.0
 40
0.088000000834465
100
AcDbArc
 50
111.909997558594
 51
222.330004882813
  0
LINE
  5
318
330
1F
100
AcDbEntity
  8
16
  6
Continuous
 62
     3
370
    25
100
AcDbLine
 10
-92.73200552544469
 20
-73.16253281599101
 30
0.0
 11
-92.44400550970909
 21
-73.02253281628903
 31
0.0
  0
LINE
  5
319
330
1F
100
AcDbEntity
  8
16
  6
Continuous
 62
     3
370
    25
100
AcDbLine
 10
-92.44400550970909
 20
-73.02253281628903
 30
0.0
 11
-92.44400550970909
 21
-72.97653281476913
 31
0.0
  0
ARC
  5
31A
330
1F
100
AcDbEntity
  8
16
  6
Continuous
 62
     3
370
    25
100
AcDbCircle
 10
-92.73372950792752
 20
-72.98918243507954
 30
0.0
 40
0.2900000138580801
100
AcDbArc
 50
2.500000000000006
 51
85.55000000000018
  0
ARC
  5
31B
330
1F
100
AcDbEntity
  8
16
  6
Continuous
 62
     3
370
    25
100
AcDbCircle
 10
-92.70199293802438
 20
-73.23997768871816
 30
0.0
 40
0.5400000175833704
100
AcDbArc
 50
90.97999877929706
 51
246.6800048828131
  0
LINE
  5
31C
330
1F
100
AcDbEntity
  8
16
  6
Continuous
 62
     3
370
    25
100
AcDbLine
 10
-92.9157610283265
 20
-73.73586398874934
 30
0.0
 11
-91.94176103670095
 21
-74.07786400147494
 31
0.0
  0
ARC
  5
31D
330
1F
100
AcDbEntity
  8
16
  6
Continuous
 62
     3
370
    25
100
AcDbCircle
 10
-92.06176101941561
 20
-74.41786401607806
 30
0.0
 40
0.3599999958276747
100
AcDbArc
 50
0.0
 51
70.57999877929703
  0
LINE
  5
31E
330
1F
100
AcDbEntity
  8
16
  6
Continuous
 62
     3
370
    25
100
AcDbLine
 10
-91.70206438439907
 20
-74.41834567226623
 30
0.0
 11
-91.70206438439907
 21
-77.56234577252124
 31
0.0
  0
ARC
  5
31F
330
1F
100
AcDbEntity
  8
16
  6
Continuous
 62
     3
370
    25
100
AcDbCircle
 10
-91.56206438469712
 20
-77.5623458640238
 30
0.0
 40
0.1399999997019767
100
AcDbArc
 50
180.0000000000004
 51
270.0000000000006
  0
LINE
  5
320
330
1F
100
AcDbEntity
  8
16
  6
Continuous
 62
     3
370
    25
100
AcDbLine
 10
-91.56206452195097
 20
-77.7023458637257
 30
0.0
 11
-90.92206450287749
 21
-77.7023458637257
 31
0.0
  0
ARC
  5
321
330
1F
100
AcDbEntity
  8
16
  6
Continuous
 62
     3
370
    25
100
AcDbCircle
 10
-90.92206436562364
 20
-77.5623458640238
 30
0.0
 40
0.1399999997019767
100
AcDbArc
 50
270.0000000000006
 51
0.0000000000008142
  0
LINE
  5
322
330
1F
100
AcDbEntity
  8
16
  6
Continuous
 62
     3
370
    25
100
AcDbLine
 10
-90.78206436592178
 20
-77.56234604702894
 30
0.0
 11
-90.78206436592178
 21
-74.41834594677394
 31
0.0
  0
ARC
  5
323
330
1F
100
AcDbEntity
  8
16
  6
Continuous
 62
     3
370
    25
100
AcDbCircle
 10
-90.42236798897868
 20
-74.417864381569
 30
0.0
 40
0.3599999958276747
100
AcDbArc
 50
109.4199951171877
 51
180.0000000000004
  0
LINE
  5
324
330
1F
100
AcDbEntity
  8
16
  6
Continuous
 62
     3
370
    25
100
AcDbLine
 10
-90.54236797169325
 20
-74.07786413167358
 30
0.0
 11
-89.5683679800677
 21
-73.73586411894796
 31
0.0
  0
ARC
  5
325
330
1F
100
AcDbEntity
  8
16
  6
Continuous
 62
     3
370
    25
100
AcDbCircle
 10
-89.78213509805076
 20
-73.23997739976781
 30
0.0
 40
0.5400000175833704
100
AcDbArc
 50
293.3199951171881
 51
89.02001953125101
  0
ARC
  5
326
330
1F
100
AcDbEntity
  8
16
  6
Continuous
 62
     3
370
    25
100
AcDbCircle
 10
-89.75039783100422
 20
-72.98918217599366
 30
0.0
 40
0.2900000138580801
100
AcDbArc
 50
94.45000000000022
 51
177.5000000000004
  0
LINE
  5
327
330
1F
100
AcDbEntity
  8
16
  6
Continuous
 62
     3
370
    25
100
AcDbLine
 10
-90.04012182095495
 20
-72.97653236632262
 30
0.0
 11
-90.04012182095495
 21
-73.02253236784254
 31
0.0
  0
LINE
  5
328
330
1F
100
AcDbEntity
  8
16
  6
Continuous
 62
     3
370
    25
100
AcDbLine
 10
-90.04012182095495
 20
-73.02253236784254
 30
0.0
 11
-89.75212180521933
 21
-73.16253236754451
 31
0.0
  0
ARC
  5
329
330
1F
100
AcDbEntity
  8
16
  6
Continuous
 62
     3
370
    25
100
AcDbCircle
 10
-89.78517824991738
 20
-73.24327311327602
 30
0.0
 40
0.088000000834465
100
AcDbArc
 50
317.6699951171883
 51
68.08999023437599
  0
LINE
  5
32A
330
1F
100
AcDbEntity
  8
16
  6
Continuous
 62
     3
370
    25
100
AcDbLine
 10
-89.72034093411169
 20
-73.30162930842503
 30
0.0
 11
-90.58434098131856
 21
-73.60562930914027
 31
0.0
  0
ARC
  5
32B
330
1F
100
AcDbEntity
  8
16
  6
Continuous
 62
     3
370
    25
100
AcDbCircle
 10
-90.32612795144644
 20
-74.48865027227406
 30
0.0
 40
0.9199999946355817
100
AcDbArc
 50
106.3000000000002
 51
176.2199951171879
  0
LINE
  5
32C
330
1F
100
AcDbEntity
  8
16
  6
Continuous
 62
     3
370
    25
100
AcDbLine
 10
-85.65999612301586
 20
-77.24199905309084
 30
0.0
 11
-85.65999612301586
 21
-74.42799907219413
 31
0.0
  0
ARC
  5
32D
330
1F
100
AcDbEntity
  8
16
  6
Continuous
 62
     3
370
    25
100
AcDbCircle
 10
-86.57799469671718
 20
-74.48865060813345
 30
0.0
 40
0.9199999946355817
100
AcDbArc
 50
3.779999923706063
 51
73.70000000000016
  0
LINE
  5
32E
330
1F
100
AcDbEntity
  8
16
  6
Continuous
 62
     3
370
    25
100
AcDbLine
 10
-86.31978108971161
 20
-73.60562981376528
 30
0.0
 11
-87.18378113691848
 21
-73.30162981305003
 31
0.0
  0
ARC
  5
32F
330
1F
100
AcDbEntity
  8
16
  6
Continuous
 62
     3
370
    25
100
AcDbCircle
 10
-87.11894399859199
 20
-73.24327368928333
 30
0.0
 40
0.088000000834465
100
AcDbArc
 50
111.909997558594
 51
222.330004882813
  0
LINE
  5
330
330
1F
100
AcDbEntity
  8
16
  6
Continuous
 62
     3
370
    25
100
AcDbLine
 10
-87.15200055948367
 20
-73.16253281599101
 30
0.0
 11
-86.86400054374803
 21
-73.02253281628903
 31
0.0
  0
LINE
  5
331
330
1F
100
AcDbEntity
  8
16
  6
Continuous
 62
     3
370
    25
100
AcDbLine
 10
-86.86400054374803
 20
-73.02253281628903
 30
0.0
 11
-86.86400054374803
 21
-72.97653281476913
 31
0.0
  0
ARC
  5
332
330
1F
100
AcDbEntity
  8
16
  6
Continuous
 62
     3
370
    25
100
AcDbCircle
 10
-87.15372454196648
 20
-72.98918243507954
 30
0.0
 40
0.2900000138580801
100
AcDbArc
 50
2.500000000000006
 51
85.55000000000018
  0
ARC
  5
333
330
1F
100
AcDbEntity
  8
16
  6
Continuous
 62
     3
370
    25
100
AcDbCircle
 10
-87.12198797206332
 20
-73.23997768871816
 30
0.0
 40
0.5400000175833704
100
AcDbArc
 50
90.97999877929706
 51
246.6800048828131
  0
LINE
  5
334
330
1F
100
AcDbEntity
  8
16
  6
Continuous
 62
     3
370
    25
100
AcDbLine
 10
-87.33575606236548
 20
-73.73586398874934
 30
0.0
 11
-86.3617560707399
 21
-74.07786400147494
 31
0.0
  0
ARC
  5
335
330
1F
100
AcDbEntity
  8
16
  6
Continuous
 62
     3
370
    25
100
AcDbCircle
 10
-86.48175605345456
 20
-74.41786401607806
 30
0.0
 40
0.3599999958276747
100
AcDbArc
 50
0.0
 51
70.57999877929703
  0
LINE
  5
336
330
1F
100
AcDbEntity
  8
16
  6
Continuous
 62
     3
370
    25
100
AcDbLine
 10
-86.12205941843801
 20
-74.41834567226623
 30
0.0
 11
-86.12205941843801
 21
-77.56234577252124
 31
0.0
  0
ARC
  5
337
330
1F
100
AcDbEntity
  8
16
  6
Continuous
 62
     3
370
    25
100
AcDbCircle
 10
-85.98205941873607
 20
-77.5623458640238
 30
0.0
 40
0.1399999997019767
100
AcDbArc
 50
180.0000000000004
 51
270.0000000000006
  0
LINE
  5
338
330
1F
100
AcDbEntity
  8
16
  6
Continuous
 62
     3
370
    25
100
AcDbLine
 10
-85.98205955598992
 20
-77.7023458637257
 30
0.0
 11
-85.34205953691644
 21
-77.7023458637257
 31
0.0
  0
ARC
  5
339
330
1F
100
AcDbEntity
  8
16
  6
Continuous
 62
     3
370
    25
100
AcDbCircle
 10
-85.34205939966259
 20
-77.5623458640238
 30
0.0
 40
0.1399999997019767
100
AcDbArc
 50
270.0000000000006
 51
0.0000000000008142
  0
LINE
  5
33A
330
1F
100
AcDbEntity
  8
16
  6
Continuous
 62
     3
370
    25
100
AcDbLine
 10
-85.20205939996073
 20
-77.56234604702894
 30
0.0
 11
-85.20205939996073
 21
-74.41834594677394
 31
0.0
  0
ARC
  5
33B
330
1F
100
AcDbEntity
  8
16
  6
Continuous
 62
     3
370
    25
100
AcDbCircle
 10
-84.84236302301763
 20
-74.417864381569
 30
0.0
 40
0.3599999958276747
100
AcDbArc
 50
109.4199951171877
 51
180.0000000000004
  0
LINE
  5
33C
330
1F
100
AcDbEntity
  8
16
  6
Continuous
 62
     3
370
    25
100
AcDbLine
 10
-84.9623630057322
 20
-74.07786413167358
 30
0.0
 11
-83.98836301410665
 21
-73.73586411894796
 31
0.0
  0
ARC
  5
33D
330
1F
100
AcDbEntity
  8
16
  6
Continuous
 62
     3
370
    25
100
AcDbCircle
 10
-84.2021301320897
 20
-73.23997739976781
 30
0.0
 40
0.5400000175833704
100
AcDbArc
 50
293.3199951171881
 51
89.02001953125101
  0
ARC
  5
33E
330
1F
100
AcDbEntity
  8
16
  6
Continuous
 62
     3
370
    25
100
AcDbCircle
 10
-84.17039286504317
 20
-72.98918217599366
 30
0.0
 40
0.2900000138580801
100
AcDbArc
 50
94.45000000000022
 51
177.5000000000004
  0
LINE
  5
33F
330
1F
100
AcDbEntity
  8
16
  6
Continuous
 62
     3
370
    25
100
AcDbLine
 10
-84.4601168549939
 20
-72.97653236632262
 30
0.0
 11
-84.4601168549939
 21
-73.02253236784254
 31
0.0
  0
LINE
  5
340
330
1F
100
AcDbEntity
  8
16
  6
Continuous
 62
     3
370
    25
100
AcDbLine
 10
-84.4601168549939
 20
-73.02253236784254
 30
0.0
 11
-84.17211683925828
 21
-73.16253236754451
 31
0.0
  0
ARC
  5
341
330
1F
100
AcDbEntity
  8
16
  6
Continuous
 62
     3
370
    25
100
AcDbCircle
 10
-84.20517328395633
 20
-73.24327311327602
 30
0.0
 40
0.088000000834465
100
AcDbArc
 50
317.6699951171883
 51
68.08999023437599
  0
LINE
  5
342
330
1F
100
AcDbEntity
  8
16
  6
Continuous
 62
     3
370
    25
100
AcDbLine
 10
-84.14033596815062
 20
-73.30162930842503
 30
0.0
 11
-85.00433601535751
 21
-73.60562930914027
 31
0.0
  0
ARC
  5
343
330
1F
100
AcDbEntity
  8
16
  6
Continuous
 62
     3
370
    25
100
AcDbCircle
 10
-84.74612298548539
 20
-74.48865027227406
 30
0.0
 40
0.9199999946355817
100
AcDbArc
 50
106.3000000000002
 51
176.2199951171879
  0
LINE
  5
344
330
1F
100
AcDbEntity
  8
16
  6
Continuous
 62
     3
370
    25
100
AcDbLine
 10
-80.07999726057052
 20
-77.24199905309084
 30
0.0
 11
-80.07999726057052
 21
-74.42799907219413
 31
0.0
  0
ARC
  5
345
330
1F
100
AcDbEntity
  8
16
  6
Continuous
 62
     3
370
    25
100
AcDbCircle
 10
-80.99799583427185
 20
-74.48865060813345
 30
0.0
 40
0.9199999946355817
100
AcDbArc
 50
3.779999923706063
 51
73.70000000000016
  0
LINE
  5
346
330
1F
100
AcDbEntity
  8
16
  6
Continuous
 62
     3
370
    25
100
AcDbLine
 10
-80.73978222726626
 20
-73.60562981376528
 30
0.0
 11
-81.60378227447315
 21
-73.30162981305003
 31
0.0
  0
ARC
  5
347
330
1F
100
AcDbEntity
  8
16
  6
Continuous
 62
     3
370
    25
100
AcDbCircle
 10
-81.53894513614665
 20
-73.24327368928333
 30
0.0
 40
0.088000000834465
100
AcDbArc
 50
111.909997558594
 51
222.330004882813
  0
LINE
  5
348
330
1F
100
AcDbEntity
  8
16
  6
Continuous
 62
     3
370
    25
100
AcDbLine
 10
-81.5720016970383
 20
-73.16253281599101
 30
0.0
 11
-81.2840016813027
 21
-73.02253281628903
 31
0.0
  0
LINE
  5
349
330
1F
100
AcDbEntity
  8
16
  6
Continuous
 62
     3
370
    25
100
AcDbLine
 10
-81.2840016813027
 20
-73.02253281628903
 30
0.0
 11
-81.2840016813027
 21
-72.97653281476913
 31
0.0
  0
ARC
  5
34A
330
1F
100
AcDbEntity
  8
16
  6
Continuous
 62
     3
370
    25
100
AcDbCircle
 10
-81.57372567952113
 20
-72.98918243507954
 30
0.0
 40
0.2900000138580801
100
AcDbArc
 50
2.500000000000006
 51
85.55000000000018
  0
ARC
  5
34B
330
1F
100
AcDbEntity
  8
16
  6
Continuous
 62
     3
370
    25
100
AcDbCircle
 10
-81.54198910961799
 20
-73.23997768871816
 30
0.0
 40
0.5400000175833704
100
AcDbArc
 50
90.97999877929706
 51
246.6800048828131
  0
LINE
  5
34C
330
1F
100
AcDbEntity
  8
16
  6
Continuous
 62
     3
370
    25
100
AcDbLine
 10
-81.75575719992011
 20
-73.73586398874934
 30
0.0
 11
-80.78175720829456
 21
-74.07786400147494
 31
0.0
  0
ARC
  5
34D
330
1F
100
AcDbEntity
  8
16
  6
Continuous
 62
     3
370
    25
100
AcDbCircle
 10
-80.90175719100922
 20
-74.41786401607806
 30
0.0
 40
0.3599999958276747
100
AcDbArc
 50
0.0
 51
70.57999877929703
  0
LINE
  5
34E
330
1F
100
AcDbEntity
  8
16
  6
Continuous
 62
     3
370
    25
100
AcDbLine
 10
-80.54206055599268
 20
-74.41834567226623
 30
0.0
 11
-80.54206055599268
 21
-77.56234577252124
 31
0.0
  0
ARC
  5
34F
330
1F
100
AcDbEntity
  8
16
  6
Continuous
 62
     3
370
    25
100
AcDbCircle
 10
-80.40206055629073
 20
-77.5623458640238
 30
0.0
 40
0.1399999997019767
100
AcDbArc
 50
180.0000000000004
 51
270.0000000000006
  0
LINE
  5
350
330
1F
100
AcDbEntity
  8
16
  6
Continuous
 62
     3
370
    25
100
AcDbLine
 10
-80.40206069354458
 20
-77.7023458637257
 30
0.0
 11
-79.7620606744711
 21
-77.7023458637257
 31
0.0
  0
ARC
  5
351
330
1F
100
AcDbEntity
  8
16
  6
Continuous
 62
     3
370
    25
100
AcDbCircle
 10
-79.76206053721725
 20
-77.5623458640238
 30
0.0
 40
0.1399999997019767
100
AcDbArc
 50
270.0000000000006
 51
0.0000000000008142
  0
LINE
  5
352
330
1F
100
AcDbEntity
  8
16
  6
Continuous
 62
     3
370
    25
100
AcDbLine
 10
-79.62206053751538
 20
-77.56234604702894
 30
0.0
 11
-79.62206053751538
 21
-74.41834594677394
 31
0.0
  0
ARC
  5
353
330
1F
100
AcDbEntity
  8
16
  6
Continuous
 62
     3
370
    25
100
AcDbCircle
 10
-79.2623641605723
 20
-74.417864381569
 30
0.0
 40
0.3599999958276747
100
AcDbArc
 50
109.4199951171877
 51
180.0000000000004
  0
LINE
  5
354
330
1F
100
AcDbEntity
  8
16
  6
Continuous
 62
     3
370
    25
100
AcDbLine
 10
-79.38236414328686
 20
-74.07786413167358
 30
0.0
 11
-78.40836415166132
 21
-73.73586411894796
 31
0.0
  0
ARC
  5
355
330
1F
100
AcDbEntity
  8
16
  6
Continuous
 62
     3
370
    25
100
AcDbCircle
 10
-78.62213126964437
 20
-73.23997739976781
 30
0.0
 40
0.5400000175833704
100
AcDbArc
 50
293.3199951171881
 51
89.02001953125101
  0
ARC
  5
356
330
1F
100
AcDbEntity
  8
16
  6
Continuous
 62
     3
370
    25
100
AcDbCircle
 10
-78.59039400259783
 20
-72.98918217599366
 30
0.0
 40
0.2900000138580801
100
AcDbArc
 50
94.45000000000022
 51
177.5000000000004
  0
LINE
  5
357
330
1F
100
AcDbEntity
  8
16
  6
Continuous
 62
     3
370
    25
100
AcDbLine
 10
-78.88011799254856
 20
-72.97653236632262
 30
0.0
 11
-78.88011799254856
 21
-73.02253236784254
 31
0.0
  0
LINE
  5
358
330
1F
100
AcDbEntity
  8
16
  6
Continuous
 62
     3
370
    25
100
AcDbLine
 10
-78.88011799254856
 20
-73.02253236784254
 30
0.0
 11
-78.59211797681294
 21
-73.16253236754451
 31
0.0
  0
ARC
  5
359
330
1F
100
AcDbEntity
  8
16
  6
Continuous
 62
     3
370
    25
100
AcDbCircle
 10
-78.62517442151099
 20
-73.24327311327602
 30
0.0
 40
0.088000000834465
100
AcDbArc
 50
317.6699951171883
 51
68.08999023437599
  0
LINE
  5
35A
330
1F
100
AcDbEntity
  8
16
  6
Continuous
 62
     3
370
    25
100
AcDbLine
 10
-78.5603371057053
 20
-73.30162930842503
 30
0.0
 11
-79.42433715291217
 21
-73.60562930914027
 31
0.0
  0
ARC
  5
35B
330
1F
100
AcDbEntity
  8
16
  6
Continuous
 62
     3
370
    25
100
AcDbCircle
 10
-79.16612412304002
 20
-74.48865027227406
 30
0.0
 40
0.9199999946355817
100
AcDbArc
 50
106.3000000000002
 51
176.2199951171879
  0
LINE
  5
35C
330
1F
100
AcDbEntity
  8
16
  6
Continuous
 62
     3
370
    25
100
AcDbLine
 10
-74.49999839812519
 20
-77.24199905309084
 30
0.0
 11
-74.49999839812519
 21
-74.42799907219413
 31
0.0
  0
ARC
  5
35D
330
1F
100
AcDbEntity
  8
16
  6
Continuous
 62
     3
370
    25
100
AcDbCircle
 10
-75.41799697182651
 20
-74.48865060813345
 30
0.0
 40
0.9199999946355817
100
AcDbArc
 50
3.779999923706063
 51
73.70000000000016
  0
LINE
  5
35E
330
1F
100
AcDbEntity
  8
16
  6
Continuous
 62
     3
370
    25
100
AcDbLine
 10
-75.15978336482094
 20
-73.60562981376528
 30
0.0
 11
-76.02378341202781
 21
-73.30162981305003
 31
0.0
  0
ARC
  5
35F
330
1F
100
AcDbEntity
  8
16
  6
Continuous
 62
     3
370
    25
100
AcDbCircle
 10
-75.95894627370132
 20
-73.24327368928333
 30
0.0
 40
0.088000000834465
100
AcDbArc
 50
111.909997558594
 51
222.330004882813
  0
LINE
  5
360
330
1F
100
AcDbEntity
  8
16
  6
Continuous
 62
     3
370
    25
100
AcDbLine
 10
-75.99200283459297
 20
-73.16253281599101
 30
0.0
 11
-75.70400281885735
 21
-73.02253281628903
 31
0.0
  0
LINE
  5
361
330
1F
100
AcDbEntity
  8
16
  6
Continuous
 62
     3
370
    25
100
AcDbLine
 10
-75.70400281885735
 20
-73.02253281628903
 30
0.0
 11
-75.70400281885735
 21
-72.97653281476913
 31
0.0
  0
ARC
  5
362
330
1F
100
AcDbEntity
  8
16
  6
Continuous
 62
     3
370
    25
100
AcDbCircle
 10
-75.9937268170758
 20
-72.98918243507954
 30
0.0
 40
0.2900000138580801
100
AcDbArc
 50
2.500000000000006
 51
85.55000000000018
  0
ARC
  5
363
330
1F
100
AcDbEntity
  8
16
  6
Continuous
 62
     3
370
    25
100
AcDbCircle
 10
-75.96199024717265
 20
-73.23997768871816
 30
0.0
 40
0.5400000175833704
100
AcDbArc
 50
90.97999877929706
 51
246.6800048828131
  0
LINE
  5
364
330
1F
100
AcDbEntity
  8
16
  6
Continuous
 62
     3
370
    25
100
AcDbLine
 10
-76.17575833747478
 20
-73.73586398874934
 30
0.0
 11
-75.20175834584924
 21
-74.07786400147494
 31
0.0
  0
ARC
  5
365
330
1F
100
AcDbEntity
  8
16
  6
Continuous
 62
     3
370
    25
100
AcDbCircle
 10
-75.32175832856389
 20
-74.41786401607806
 30
0.0
 40
0.3599999958276747
100
AcDbArc
 50
0.0
 51
70.57999877929703
  0
LINE
  5
366
330
1F
100
AcDbEntity
  8
16
  6
Continuous
 62
     3
370
    25
100
AcDbLine
 10
-74.96206169354734
 20
-74.41834567226623
 30
0.0
 11
-74.96206169354734
 21
-77.56234577252124
 31
0.0
  0
ARC
  5
367
330
1F
100
AcDbEntity
  8
16
  6
Continuous
 62
     3
370
    25
100
AcDbCircle
 10
-74.8220616938454
 20
-77.5623458640238
 30
0.0
 40
0.1399999997019767
100
AcDbArc
 50
180.0000000000004
 51
270.0000000000006
  0
LINE
  5
368
330
1F
100
AcDbEntity
  8
16
  6
Continuous
 62
     3
370
    25
100
AcDbLine
 10
-74.82206183109926
 20
-77.7023458637257
 30
0.0
 11
-74.18206181202576
 21
-77.7023458637257
 31
0.0
  0
ARC
  5
369
330
1F
100
AcDbEntity
  8
16
  6
Continuous
 62
     3
370
    25
100
AcDbCircle
 10
-74.1820616747719
 20
-77.5623458640238
 30
0.0
 40
0.1399999997019767
100
AcDbArc
 50
270.0000000000006
 51
0.0000000000008142
  0
LINE
  5
36A
330
1F
100
AcDbEntity
  8
16
  6
Continuous
 62
     3
370
    25
100
AcDbLine
 10
-74.04206167507006
 20
-77.56234604702894
 30
0.0
 11
-74.04206167507006
 21
-74.41834594677394
 31
0.0
  0
ARC
  5
36B
330
1F
100
AcDbEntity
  8
16
  6
Continuous
 62
     3
370
    25
100
AcDbCircle
 10
-73.68236529812695
 20
-74.417864381569
 30
0.0
 40
0.3599999958276747
100
AcDbArc
 50
109.4199951171877
 51
180.0000000000004
  0
LINE
  5
36C
330
1F
100
AcDbEntity
  8
16
  6
Continuous
 62
     3
370
    25
100
AcDbLine
 10
-73.80236528084154
 20
-74.07786413167358
 30
0.0
 11
-72.82836528921598
 21
-73.73586411894796
 31
0.0
  0
ARC
  5
36D
330
1F
100
AcDbEntity
  8
16
  6
Continuous
 62
     3
370
    25
100
AcDbCircle
 10
-73.04213240719903
 20
-73.23997739976781
 30
0.0
 40
0.5400000175833704
100
AcDbArc
 50
293.3199951171881
 51
89.02001953125101
  0
ARC
  5
36E
330
1F
100
AcDbEntity
  8
16
  6
Continuous
 62
     3
370
    25
100
AcDbCircle
 10
-73.0103951401525
 20
-72.98918217599366
 30
0.0
 40
0.2900000138580801
100
AcDbArc
 50
94.45000000000022
 51
177.5000000000004
  0
LINE
  5
36F
330
1F
100
AcDbEntity
  8
16
  6
Continuous
 62
     3
370
    25
100
AcDbLine
 10
-73.30011913010323
 20
-72.97653236632262
 30
0.0
 11
-73.30011913010323
 21
-73.02253236784254
 31
0.0
  0
LINE
  5
370
330
1F
100
AcDbEntity
  8
16
  6
Continuous
 62
     3
370
    25
100
AcDbLine
 10
-73.30011913010323
 20
-73.02253236784254
 30
0.0
 11
-73.01211911436761
 21
-73.16253236754451
 31
0.0
  0
ARC
  5
371
330
1F
100
AcDbEntity
  8
16
  6
Continuous
 62
     3
370
    25
100
AcDbCircle
 10
-73.04517555906565
 20
-73.24327311327602
 30
0.0
 40
0.088000000834465
100
AcDbArc
 50
317.6699951171883
 51
68.08999023437599
  0
LINE
  5
372
330
1F
100
AcDbEntity
  8
16
  6
Continuous
 62
     3
370
    25
100
AcDbLine
 10
-72.98033824325995
 20
-73.30162930842503
 30
0.0
 11
-73.84433829046684
 21
-73.60562930914027
 31
0.0
  0
ARC
  5
373
330
1F
100
AcDbEntity
  8
16
  6
Continuous
 62
     3
370
    25
100
AcDbCircle
 10
-73.5861252605947
 20
-74.48865027227406
 30
0.0
 40
0.9199999946355817
100
AcDbArc
 50
106.3000000000002
 51
176.2199951171879
  0
LINE
  5
374
330
1F
100
AcDbEntity
  8
16
  6
Continuous
 62
     3
370
    25
100
AcDbLine
 10
-68.91999343216413
 20
-77.24199905309084
 30
0.0
 11
-68.91999343216413
 21
-74.42799907219413
 31
0.0
  0
ARC
  5
375
330
1F
100
AcDbEntity
  8
16
  6
Continuous
 62
     3
370
    25
100
AcDbCircle
 10
-69.83799200586546
 20
-74.48865060813345
 30
0.0
 40
0.9199999946355817
100
AcDbArc
 50
3.779999923706063
 51
73.70000000000016
  0
LINE
  5
376
330
1F
100
AcDbEntity
  8
16
  6
Continuous
 62
     3
370
    25
100
AcDbLine
 10
-69.57977839885989
 20
-73.60562981376528
 30
0.0
 11
-70.44377844606676
 21
-73.30162981305003
 31
0.0
  0
ARC
  5
377
330
1F
100
AcDbEntity
  8
16
  6
Continuous
 62
     3
370
    25
100
AcDbCircle
 10
-70.37894130774026
 20
-73.24327368928333
 30
0.0
 40
0.088000000834465
100
AcDbArc
 50
111.909997558594
 51
222.330004882813
  0
LINE
  5
378
330
1F
100
AcDbEntity
  8
16
  6
Continuous
 62
     3
370
    25
100
AcDbLine
 10
-70.41199786863191
 20
-73.16253281599101
 30
0.0
 11
-70.12399785289628
 21
-73.02253281628903
 31
0.0
  0
LINE
  5
379
330
1F
100
AcDbEntity
  8
16
  6
Continuous
 62
     3
370
    25
100
AcDbLine
 10
-70.12399785289628
 20
-73.02253281628903
 30
0.0
 11
-70.12399785289628
 21
-72.97653281476913
 31
0.0
  0
ARC
  5
37A
330
1F
100
AcDbEntity
  8
16
  6
Continuous
 62
     3
370
    25
100
AcDbCircle
 10
-70.41372185111474
 20
-72.98918243507954
 30
0.0
 40
0.2900000138580801
100
AcDbArc
 50
2.500000000000006
 51
85.55000000000018
  0
ARC
  5
37B
330
1F
100
AcDbEntity
  8
16
  6
Continuous
 62
     3
370
    25
100
AcDbCircle
 10
-70.3819852812116
 20
-73.23997768871816
 30
0.0
 40
0.5400000175833704
100
AcDbArc
 50
90.97999877929706
 51
246.6800048828131
  0
LINE
  5
37C
330
1F
100
AcDbEntity
  8
16
  6
Continuous
 62
     3
370
    25
100
AcDbLine
 10
-70.59575337151372
 20
-73.73586398874934
 30
0.0
 11
-69.62175337988818
 21
-74.07786400147494
 31
0.0
  0
ARC
  5
37D
330
1F
100
AcDbEntity
  8
16
  6
Continuous
 62
     3
370
    25
100
AcDbCircle
 10
-69.74175336260284
 20
-74.41786401607806
 30
0.0
 40
0.3599999958276747
100
AcDbArc
 50
0.0
 51
70.57999877929703
  0
LINE
  5
37E
330
1F
100
AcDbEntity
  8
16
  6
Continuous
 62
     3
370
    25
100
AcDbLine
 10
-69.38205672758629
 20
-74.41834567226623
 30
0.0
 11
-69.38205672758629
 21
-77.56234577252124
 31
0.0
  0
ARC
  5
37F
330
1F
100
AcDbEntity
  8
16
  6
Continuous
 62
     3
370
    25
100
AcDbCircle
 10
-69.24205672788435
 20
-77.5623458640238
 30
0.0
 40
0.1399999997019767
100
AcDbArc
 50
180.0000000000004
 51
270.0000000000006
  0
LINE
  5
380
330
1F
100
AcDbEntity
  8
16
  6
Continuous
 62
     3
370
    25
100
AcDbLine
 10
-69.2420568651382
 20
-77.7023458637257
 30
0.0
 11
-68.60205684606471
 21
-77.7023458637257
 31
0.0
  0
ARC
  5
381
330
1F
100
AcDbEntity
  8
16
  6
Continuous
 62
     3
370
    25
100
AcDbCircle
 10
-68.60205670881086
 20
-77.5623458640238
 30
0.0
 40
0.1399999997019767
100
AcDbArc
 50
270.0000000000006
 51
0.0000000000008142
  0
LINE
  5
382
330
1F
100
AcDbEntity
  8
16
  6
Continuous
 62
     3
370
    25
100
AcDbLine
 10
-68.46205670910899
 20
-77.56234604702894
 30
0.0
 11
-68.46205670910899
 21
-74.41834594677394
 31
0.0
  0
ARC
  5
383
330
1F
100
AcDbEntity
  8
16
  6
Continuous
 62
     3
370
    25
100
AcDbCircle
 10
-68.1023603321659
 20
-74.417864381569
 30
0.0
 40
0.3599999958276747
100
AcDbArc
 50
109.4199951171877
 51
180.0000000000004
  0
LINE
  5
384
330
1F
100
AcDbEntity
  8
16
  6
Continuous
 62
     3
370
    25
100
AcDbLine
 10
-68.22236031488048
 20
-74.07786413167358
 30
0.0
 11
-67.24836032325494
 21
-73.73586411894796
 31
0.0
  0
ARC
  5
385
330
1F
100
AcDbEntity
  8
16
  6
Continuous
 62
     3
370
    25
100
AcDbCircle
 10
-67.46212744123798
 20
-73.23997739976781
 30
0.0
 40
0.5400000175833704
100
AcDbArc
 50
293.3199951171881
 51
89.02001953125101
  0
ARC
  5
386
330
1F
100
AcDbEntity
  8
16
  6
Continuous
 62
     3
370
    25
100
AcDbCircle
 10
-67.43039017419144
 20
-72.98918217599366
 30
0.0
 40
0.2900000138580801
100
AcDbArc
 50
94.45000000000022
 51
177.5000000000004
  0
LINE
  5
387
330
1F
100
AcDbEntity
  8
16
  6
Continuous
 62
     3
370
    25
100
AcDbLine
 10
-67.72011416414217
 20
-72.97653236632262
 30
0.0
 11
-67.72011416414217
 21
-73.02253236784254
 31
0.0
  0
LINE
  5
388
330
1F
100
AcDbEntity
  8
16
  6
Continuous
 62
     3
370
    25
100
AcDbLine
 10
-67.72011416414217
 20
-73.02253236784254
 30
0.0
 11
-67.43211414840654
 21
-73.16253236754451
 31
0.0
  0
ARC
  5
389
330
1F
100
AcDbEntity
  8
16
  6
Continuous
 62
     3
370
    25
100
AcDbCircle
 10
-67.4651705931046
 20
-73.24327311327602
 30
0.0
 40
0.088000000834465
100
AcDbArc
 50
317.6699951171883
 51
68.08999023437599
  0
LINE
  5
38A
330
1F
100
AcDbEntity
  8
16
  6
Continuous
 62
     3
370
    25
100
AcDbLine
 10
-67.40033327729891
 20
-73.30162930842503
 30
0.0
 11
-68.26433332450578
 21
-73.60562930914027
 31
0.0
  0
ARC
  5
38B
330
1F
100
AcDbEntity
  8
16
  6
Continuous
 62
     3
370
    25
100
AcDbCircle
 10
-68.00612029463365
 20
-74.48865027227406
 30
0.0
 40
0.9199999946355817
100
AcDbArc
 50
106.3000000000002
 51
176.2199951171879
  0
LINE
  5
38C
330
1F
100
AcDbEntity
  8
16
  6
Continuous
 62
     3
370
    25
100
AcDbLine
 10
-63.34000067323453
 20
-77.24199905309084
 30
0.0
 11
-63.34000067323453
 21
-74.42799907219413
 31
0.0
  0
ARC
  5
38D
330
1F
100
AcDbEntity
  8
16
  6
Continuous
 62
     3
370
    25
100
AcDbCircle
 10
-64.25799924693584
 20
-74.48865060813345
 30
0.0
 40
0.9199999946355817
100
AcDbArc
 50
3.779999923706063
 51
73.70000000000016
  0
LINE
  5
38E
330
1F
100
AcDbEntity
  8
16
  6
Continuous
 62
     3
370
    25
100
AcDbLine
 10
-63.99978563993026
 20
-73.60562981376528
 30
0.0
 11
-64.86378568713714
 21
-73.30162981305003
 31
0.0
  0
ARC
  5
38F
330
1F
100
AcDbEntity
  8
16
  6
Continuous
 62
     3
370
    25
100
AcDbCircle
 10
-64.79894854881064
 20
-73.24327368928333
 30
0.0
 40
0.088000000834465
100
AcDbArc
 50
111.909997558594
 51
222.330004882813
  0
LINE
  5
390
330
1F
100
AcDbEntity
  8
16
  6
Continuous
 62
     3
370
    25
100
AcDbLine
 10
-64.8320051097023
 20
-73.16253281599101
 30
0.0
 11
-64.54400509396667
 21
-73.02253281628903
 31
0.0
  0
LINE
  5
391
330
1F
100
AcDbEntity
  8
16
  6
Continuous
 62
     3
370
    25
100
AcDbLine
 10
-64.54400509396667
 20
-73.02253281628903
 30
0.0
 11
-64.54400509396667
 21
-72.97653281476913
 31
0.0
  0
ARC
  5
392
330
1F
100
AcDbEntity
  8
16
  6
Continuous
 62
     3
370
    25
100
AcDbCircle
 10
-64.83372909218512
 20
-72.98918243507954
 30
0.0
 40
0.2900000138580801
100
AcDbArc
 50
2.500000000000006
 51
85.55000000000018
  0
ARC
  5
393
330
1F
100
AcDbEntity
  8
16
  6
Continuous
 62
     3
370
    25
100
AcDbCircle
 10
-64.80199252228198
 20
-73.23997768871816
 30
0.0
 40
0.5400000175833704
100
AcDbArc
 50
90.97999877929706
 51
246.6800048828131
  0
LINE
  5
394
330
1F
100
AcDbEntity
  8
16
  6
Continuous
 62
     3
370
    25
100
AcDbLine
 10
-65.0157606125841
 20
-73.73586398874934
 30
0.0
 11
-64.04176062095856
 21
-74.07786400147494
 31
0.0
  0
ARC
  5
395
330
1F
100
AcDbEntity
  8
16
  6
Continuous
 62
     3
370
    25
100
AcDbCircle
 10
-64.16176060367322
 20
-74.41786401607806
 30
0.0
 40
0.3599999958276747
100
AcDbArc
 50
0.0
 51
70.57999877929703
  0
LINE
  5
396
330
1F
100
AcDbEntity
  8
16
  6
Continuous
 62
     3
370
    25
100
AcDbLine
 10
-63.80206396865666
 20
-74.41834567226623
 30
0.0
 11
-63.80206396865666
 21
-77.56234577252124
 31
0.0
  0
ARC
  5
397
330
1F
100
AcDbEntity
  8
16
  6
Continuous
 62
     3
370
    25
100
AcDbCircle
 10
-63.66206396895473
 20
-77.5623458640238
 30
0.0
 40
0.1399999997019767
100
AcDbArc
 50
180.0000000000004
 51
270.0000000000006
  0
LINE
  5
398
330
1F
100
AcDbEntity
  8
16
  6
Continuous
 62
     3
370
    25
100
AcDbLine
 10
-63.66206410620858
 20
-77.7023458637257
 30
0.0
 11
-63.0220640871351
 21
-77.7023458637257
 31
0.0
  0
ARC
  5
399
330
1F
100
AcDbEntity
  8
16
  6
Continuous
 62
     3
370
    25
100
AcDbCircle
 10
-63.02206394988124
 20
-77.5623458640238
 30
0.0
 40
0.1399999997019767
100
AcDbArc
 50
270.0000000000006
 51
0.0000000000008142
  0
LINE
  5
39A
330
1F
100
AcDbEntity
  8
16
  6
Continuous
 62
     3
370
    25
100
AcDbLine
 10
-62.88206395017937
 20
-77.56234604702894
 30
0.0
 11
-62.88206395017937
 21
-74.41834594677394
 31
0.0
  0
ARC
  5
39B
330
1F
100
AcDbEntity
  8
16
  6
Continuous
 62
     3
370
    25
100
AcDbCircle
 10
-62.52236757323629
 20
-74.417864381569
 30
0.0
 40
0.3599999958276747
100
AcDbArc
 50
109.4199951171877
 51
180.0000000000004
  0
LINE
  5
39C
330
1F
100
AcDbEntity
  8
16
  6
Continuous
 62
     3
370
    25
100
AcDbLine
 10
-62.64236755595086
 20
-74.07786413167358
 30
0.0
 11
-61.66836756432531
 21
-73.73586411894796
 31
0.0
  0
ARC
  5
39D
330
1F
100
AcDbEntity
  8
16
  6
Continuous
 62
     3
370
    25
100
AcDbCircle
 10
-61.88213468230836
 20
-73.23997739976781
 30
0.0
 40
0.5400000175833704
100
AcDbArc
 50
293.3199951171881
 51
89.02001953125101
  0
ARC
  5
39E
330
1F
100
AcDbEntity
  8
16
  6
Continuous
 62
     3
370
    25
100
AcDbCircle
 10
-61.85039741526182
 20
-72.98918217599366
 30
0.0
 40
0.2900000138580801
100
AcDbArc
 50
94.45000000000022
 51
177.5000000000004
  0
LINE
  5
39F
330
1F
100
AcDbEntity
  8
16
  6
Continuous
 62
     3
370
    25
100
AcDbLine
 10
-62.14012140521255
 20
-72.97653236632262
 30
0.0
 11
-62.14012140521255
 21
-73.02253236784254
 31
0.0
  0
LINE
  5
3A0
330
1F
100
AcDbEntity
  8
16
  6
Continuous
 62
     3
370
    25
100
AcDbLine
 10
-62.14012140521255
 20
-73.02253236784254
 30
0.0
 11
-61.85212138947693
 21
-73.16253236754451
 31
0.0
  0
ARC
  5
3A1
330
1F
100
AcDbEntity
  8
16
  6
Continuous
 62
     3
370
    25
100
AcDbCircle
 10
-61.88517783417498
 20
-73.24327311327602
 30
0.0
 40
0.088000000834465
100
AcDbArc
 50
317.6699951171883
 51
68.08999023437599
  0
LINE
  5
3A2
330
1F
100
AcDbEntity
  8
16
  6
Continuous
 62
     3
370
    25
100
AcDbLine
 10
-61.82034051836928
 20
-73.30162930842503
 30
0.0
 11
-62.68434056557616
 21
-73.60562930914027
 31
0.0
  0
ARC
  5
3A3
330
1F
100
AcDbEntity
  8
16
  6
Continuous
 62
     3
370
    25
100
AcDbCircle
 10
-62.42612753570403
 20
-74.48865027227406
 30
0.0
 40
0.9199999946355817
100
AcDbArc
 50
106.3000000000002
 51
176.2199951171879
  0
LINE
  5
3A4
330
1F
100
AcDbEntity
  8
16
  6
Continuous
 62
     3
370
    25
100
AcDbLine
 10
-57.75999570727345
 20
-77.24199905309084
 30
0.0
 11
-57.75999570727345
 21
-74.42799907219413
 31
0.0
  0
ARC
  5
3A5
330
1F
100
AcDbEntity
  8
16
  6
Continuous
 62
     3
370
    25
100
AcDbCircle
 10
-58.67799428097479
 20
-74.48865060813345
 30
0.0
 40
0.9199999946355817
100
AcDbArc
 50
3.779999923706063
 51
73.70000000000016
  0
LINE
  5
3A6
330
1F
100
AcDbEntity
  8
16
  6
Continuous
 62
     3
370
    25
100
AcDbLine
 10
-58.41978067396921
 20
-73.60562981376528
 30
0.0
 11
-59.28378072117609
 21
-73.30162981305003
 31
0.0
  0
ARC
  5
3A7
330
1F
100
AcDbEntity
  8
16
  6
Continuous
 62
     3
370
    25
100
AcDbCircle
 10
-59.21894358284959
 20
-73.24327368928333
 30
0.0
 40
0.088000000834465
100
AcDbArc
 50
111.909997558594
 51
222.330004882813
  0
LINE
  5
3A8
330
1F
100
AcDbEntity
  8
16
  6
Continuous
 62
     3
370
    25
100
AcDbLine
 10
-59.25200014374125
 20
-73.16253281599101
 30
0.0
 11
-58.96400012800562
 21
-73.02253281628903
 31
0.0
  0
LINE
  5
3A9
330
1F
100
AcDbEntity
  8
16
  6
Continuous
 62
     3
370
    25
100
AcDbLine
 10
-58.96400012800562
 20
-73.02253281628903
 30
0.0
 11
-58.96400012800562
 21
-72.97653281476913
 31
0.0
  0
ARC
  5
3AA
330
1F
100
AcDbEntity
  8
16
  6
Continuous
 62
     3
370
    25
100
AcDbCircle
 10
-59.25372412622408
 20
-72.98918243507954
 30
0.0
 40
0.2900000138580801
100
AcDbArc
 50
2.500000000000006
 51
85.55000000000018
  0
ARC
  5
3AB
330
1F
100
AcDbEntity
  8
16
  6
Continuous
 62
     3
370
    25
100
AcDbCircle
 10
-59.22198755632093
 20
-73.23997768871816
 30
0.0
 40
0.5400000175833704
100
AcDbArc
 50
90.97999877929706
 51
246.6800048828131
  0
LINE
  5
3AC
330
1F
100
AcDbEntity
  8
16
  6
Continuous
 62
     3
370
    25
100
AcDbLine
 10
-59.43575564662306
 20
-73.73586398874934
 30
0.0
 11
-58.46175565499752
 21
-74.07786400147494
 31
0.0
  0
ARC
  5
3AD
330
1F
100
AcDbEntity
  8
16
  6
Continuous
 62
     3
370
    25
100
AcDbCircle
 10
-58.58175563771215
 20
-74.41786401607806
 30
0.0
 40
0.3599999958276747
100
AcDbArc
 50
0.0
 51
70.57999877929703
  0
LINE
  5
3AE
330
1F
100
AcDbEntity
  8
16
  6
Continuous
 62
     3
370
    25
100
AcDbLine
 10
-58.22205900269561
 20
-74.41834567226623
 30
0.0
 11
-58.22205900269561
 21
-77.56234577252124
 31
0.0
  0
ARC
  5
3AF
330
1F
100
AcDbEntity
  8
16
  6
Continuous
 62
     3
370
    25
100
AcDbCircle
 10
-58.08205900299367
 20
-77.5623458640238
 30
0.0
 40
0.1399999997019767
100
AcDbArc
 50
180.0000000000004
 51
270.0000000000006
  0
LINE
  5
3B0
330
1F
100
AcDbEntity
  8
16
  6
Continuous
 62
     3
370
    25
100
AcDbLine
 10
-58.08205914024754
 20
-77.7023458637257
 30
0.0
 11
-57.44205912117403
 21
-77.7023458637257
 31
0.0
  0
ARC
  5
3B1
330
1F
100
AcDbEntity
  8
16
  6
Continuous
 62
     3
370
    25
100
AcDbCircle
 10
-57.44205898392019
 20
-77.5623458640238
 30
0.0
 40
0.1399999997019767
100
AcDbArc
 50
270.0000000000006
 51
0.0000000000008142
  0
LINE
  5
3B2
330
1F
100
AcDbEntity
  8
16
  6
Continuous
 62
     3
370
    25
100
AcDbLine
 10
-57.30205898421832
 20
-77.56234604702894
 30
0.0
 11
-57.30205898421832
 21
-74.41834594677394
 31
0.0
  0
ARC
  5
3B3
330
1F
100
AcDbEntity
  8
16
  6
Continuous
 62
     3
370
    25
100
AcDbCircle
 10
-56.94236260727522
 20
-74.417864381569
 30
0.0
 40
0.3599999958276747
100
AcDbArc
 50
109.4199951171877
 51
180.0000000000004
  0
LINE
  5
3B4
330
1F
100
AcDbEntity
  8
16
  6
Continuous
 62
     3
370
    25
100
AcDbLine
 10
-57.06236258998982
 20
-74.07786413167358
 30
0.0
 11
-56.08836259836426
 21
-73.73586411894796
 31
0.0
  0
ARC
  5
3B5
330
1F
100
AcDbEntity
  8
16
  6
Continuous
 62
     3
370
    25
100
AcDbCircle
 10
-56.30212971634731
 20
-73.23997739976781
 30
0.0
 40
0.5400000175833704
100
AcDbArc
 50
293.3199951171881
 51
89.02001953125101
  0
ARC
  5
3B6
330
1F
100
AcDbEntity
  8
16
  6
Continuous
 62
     3
370
    25
100
AcDbCircle
 10
-56.27039244930077
 20
-72.98918217599366
 30
0.0
 40
0.2900000138580801
100
AcDbArc
 50
94.45000000000022
 51
177.5000000000004
  0
LINE
  5
3B7
330
1F
100
AcDbEntity
  8
16
  6
Continuous
 62
     3
370
    25
100
AcDbLine
 10
-56.56011643925152
 20
-72.97653236632262
 30
0.0
 11
-56.56011643925152
 21
-73.02253236784254
 31
0.0
  0
LINE
  5
3B8
330
1F
100
AcDbEntity
  8
16
  6
Continuous
 62
     3
370
    25
100
AcDbLine
 10
-56.56011643925152
 20
-73.02253236784254
 30
0.0
 11
-56.27211642351588
 21
-73.16253236754451
 31
0.0
  0
ARC
  5
3B9
330
1F
100
AcDbEntity
  8
16
  6
Continuous
 62
     3
370
    25
100
AcDbCircle
 10
-56.30517286821393
 20
-73.24327311327602
 30
0.0
 40
0.088000000834465
100
AcDbArc
 50
317.6699951171883
 51
68.08999023437599
  0
LINE
  5
3BA
330
1F
100
AcDbEntity
  8
16
  6
Continuous
 62
     3
370
    25
100
AcDbLine
 10
-56.24033555240824
 20
-73.30162930842503
 30
0.0
 11
-57.10433559961512
 21
-73.60562930914027
 31
0.0
  0
ARC
  5
3BB
330
1F
100
AcDbEntity
  8
16
  6
Continuous
 62
     3
370
    25
100
AcDbCircle
 10
-56.84612256974297
 20
-74.48865027227406
 30
0.0
 40
0.9199999946355817
100
AcDbArc
 50
106.3000000000002
 51
176.2199951171879
  0
LINE
  5
3BC
330
1F
100
AcDbEntity
  8
16
  6
Continuous
 62
     3
370
    25
100
AcDbLine
 10
-55.75999567747114
 20
-72.69999916851523
 30
0.0
 11
-55.75999567747114
 21
-77.69999924302104
 31
0.0
  0
LINE
  5
3BD
330
1F
100
AcDbEntity
  8
16
  6
Continuous
 62
     3
370
    25
100
AcDbLine
 10
-55.75999567747114
 20
-77.69999924302104
 30
0.0
 11
-54.55999565958975
 21
-77.69999924302104
 31
0.0
  0
LINE
  5
3BE
330
1F
100
AcDbEntity
  8
16
  6
Continuous
 62
     3
370
    25
100
AcDbLine
 10
-54.55999565958975
 20
-77.69999924302104
 30
0.0
 11
-54.55999565958975
 21
-72.69999916851523
 31
0.0
  0
LINE
  5
3BF
330
1F
100
AcDbEntity
  8
16
  6
Continuous
 62
     3
370
    25
100
AcDbLine
 10
-54.55999565958975
 20
-72.69999916851523
 30
0.0
 11
-55.75999567747114
 21
-72.69999916851523
 31
0.0
  0
LINE
  5
3C0
330
1F
100
AcDbEntity
  8
16
  6
Continuous
 62
     3
370
    25
100
AcDbLine
 10
-54.55999565958975
 20
-72.69999916851523
 30
0.0
 11
-53.29999159723513
 21
-72.69999916851523
 31
0.0
  0
LINE
  5
3C1
330
1F
100
AcDbEntity
  8
16
  6
Continuous
 62
     3
370
    25
100
AcDbLine
 10
-53.29999159723513
 20
-72.69999916851523
 30
0.0
 11
-53.29999159723513
 21
-73.96000323086984
 31
0.0
  0
LINE
  5
3C2
330
1F
100
AcDbEntity
  8
16
  6
Continuous
 62
     3
370
    25
100
AcDbLine
 10
-53.29999159723513
 20
-73.96000323086984
 30
0.0
 11
-54.55999565958975
 21
-73.96000323086984
 31
0.0
  0
LINE
  5
3C3
330
1F
100
AcDbEntity
  8
16
  6
Continuous
 62
     3
370
    25
100
AcDbLine
 10
-132.2999992594123
 20
-72.69999916851523
 30
0.0
 11
-53.29999808222057
 21
-72.69999916851523
 31
0.0
  0
LINE
  5
3C4
330
1F
100
AcDbEntity
  8
16
  6
Continuous
 62
     3
370
    25
100
AcDbLine
 10
-132.2999992594123
 20
-72.69999916851523
 30
0.0
 11
-132.2999992594123
 21
-77.69999924302104
 31
0.0
  0
LINE
  5
3C5
330
1F
100
AcDbEntity
  8
16
  6
Continuous
 62
     3
370
    25
100
AcDbLine
 10
-132.2999992594123
 20
-77.69999924302104
 30
0.0
 11
-54.55999565958975
 21
-77.69999924302104
 31
0.0
  0
LINE
  5
3C6
330
1F
100
AcDbEntity
  8
16
  6
Continuous
 62
     3
370
    25
100
AcDbLine
 10
-54.55999565958975
 20
-77.69999924302104
 30
0.0
 11
-54.55999565958975
 21
-72.69999916851523
 31
0.0
  0
LINE
  5
3C7
330
1F
100
AcDbEntity
  8
16
  6
Continuous
 62
     3
370
    25
100
AcDbLine
 10
-129.8499992229044
 20
-75.29999920725825
 30
0.0
 11
-129.6499992199242
 21
-75.09999920427802
 31
0.0
  0
LINE
  5
3C8
330
1F
100
AcDbEntity
  8
16
  6
Continuous
 62
     3
370
    25
100
AcDbLine
 10
-129.6499992199242
 20
-75.09999920427802
 30
0.0
 11
-125.3699992324412
 21
-75.09999920427802
 31
0.0
  0
LINE
  5
3C9
330
1F
100
AcDbEntity
  8
16
  6
Continuous
 62
     3
370
    25
100
AcDbLine
 10
-125.3699992324412
 20
-75.09999920427802
 30
0.0
 11
-125.1699992294609
 21
-75.29999920725825
 31
0.0
  0
LINE
  5
3CA
330
1F
100
AcDbEntity
  8
16
  6
Continuous
 62
     3
370
    25
100
AcDbLine
 10
-125.1699992294609
 20
-76.89999923110011
 30
0.0
 11
-125.3699992324412
 21
-77.09999923408034
 31
0.0
  0
LINE
  5
3CB
330
1F
100
AcDbEntity
  8
16
  6
Continuous
 62
     3
370
    25
100
AcDbLine
 10
-125.3699992324412
 20
-77.09999923408034
 30
0.0
 11
-129.6499992199242
 21
-77.09999923408034
 31
0.0
  0
LINE
  5
3CC
330
1F
100
AcDbEntity
  8
16
  6
Continuous
 62
     3
370
    25
100
AcDbLine
 10
-129.6499992199242
 20
-77.09999923408034
 30
0.0
 11
-129.8499992229044
 21
-76.89999923110011
 31
0.0
  0
LINE
  5
3CD
330
1F
100
AcDbEntity
  8
16
  6
Continuous
 62
     3
370
    25
100
AcDbLine
 10
-124.2700003604591
 20
-75.29999920725825
 30
0.0
 11
-124.0700003574789
 21
-75.09999920427802
 31
0.0
  0
LINE
  5
3CE
330
1F
100
AcDbEntity
  8
16
  6
Continuous
 62
     3
370
    25
100
AcDbLine
 10
-124.0700003574789
 20
-75.09999920427802
 30
0.0
 11
-119.7900003699958
 21
-75.09999920427802
 31
0.0
  0
LINE
  5
3CF
330
1F
100
AcDbEntity
  8
16
  6
Continuous
 62
     3
370
    25
100
AcDbLine
 10
-119.7900003699958
 20
-75.09999920427802
 30
0.0
 11
-119.5900003670156
 21
-75.29999920725825
 31
0.0
  0
LINE
  5
3D0
330
1F
100
AcDbEntity
  8
16
  6
Continuous
 62
     3
370
    25
100
AcDbLine
 10
-119.5900003670156
 20
-76.89999923110011
 30
0.0
 11
-119.7900003699958
 21
-77.09999923408034
 31
0.0
  0
LINE
  5
3D1
330
1F
100
AcDbEntity
  8
16
  6
Continuous
 62
     3
370
    25
100
AcDbLine
 10
-119.7900003699958
 20
-77.09999923408034
 30
0.0
 11
-124.0700003574789
 21
-77.09999923408034
 31
0.0
  0
LINE
  5
3D2
330
1F
100
AcDbEntity
  8
16
  6
Continuous
 62
     3
370
    25
100
AcDbLine
 10
-124.0700003574789
 20
-77.09999923408034
 30
0.0
 11
-124.2700003604591
 21
-76.89999923110011
 31
0.0
  0
LINE
  5
3D3
330
1F
100
AcDbEntity
  8
16
  6
Continuous
 62
     3
370
    25
100
AcDbLine
 10
-118.6900014980138
 20
-75.29999920725825
 30
0.0
 11
-118.4900014950335
 21
-75.09999920427802
 31
0.0
  0
LINE
  5
3D4
330
1F
100
AcDbEntity
  8
16
  6
Continuous
 62
     3
370
    25
100
AcDbLine
 10
-118.4900014950335
 20
-75.09999920427802
 30
0.0
 11
-114.2100015075505
 21
-75.09999920427802
 31
0.0
  0
LINE
  5
3D5
330
1F
100
AcDbEntity
  8
16
  6
Continuous
 62
     3
370
    25
100
AcDbLine
 10
-114.2100015075505
 20
-75.09999920427802
 30
0.0
 11
-114.0100015045703
 21
-75.29999920725825
 31
0.0
  0
LINE
  5
3D6
330
1F
100
AcDbEntity
  8
16
  6
Continuous
 62
     3
370
    25
100
AcDbLine
 10
-114.0100015045703
 20
-76.89999923110011
 30
0.0
 11
-114.2100015075505
 21
-77.09999923408034
 31
0.0
  0
LINE
  5
3D7
330
1F
100
AcDbEntity
  8
16
  6
Continuous
 62
     3
370
    25
100
AcDbLine
 10
-114.2100015075505
 20
-77.09999923408034
 30
0.0
 11
-118.4900014950335
 21
-77.09999923408034
 31
0.0
  0
LINE
  5
3D8
330
1F
100
AcDbEntity
  8
16
  6
Continuous
 62
     3
370
    25
100
AcDbLine
 10
-118.4900014950335
 20
-77.09999923408034
 30
0.0
 11
-118.6900014980138
 21
-76.89999923110011
 31
0.0
  0
LINE
  5
3D9
330
1F
100
AcDbEntity
  8
16
  6
Continuous
 62
     3
370
    25
100
AcDbLine
 10
-113.1099965320527
 20
-75.29999920725825
 30
0.0
 11
-112.9099965290725
 21
-75.09999920427802
 31
0.0
  0
LINE
  5
3DA
330
1F
100
AcDbEntity
  8
16
  6
Continuous
 62
     3
370
    25
100
AcDbLine
 10
-112.9099965290725
 20
-75.09999920427802
 30
0.0
 11
-108.6299965415894
 21
-75.09999920427802
 31
0.0
  0
LINE
  5
3DB
330
1F
100
AcDbEntity
  8
16
  6
Continuous
 62
     3
370
    25
100
AcDbLine
 10
-108.6299965415894
 20
-75.09999920427802
 30
0.0
 11
-108.4299965386092
 21
-75.29999920725825
 31
0.0
  0
LINE
  5
3DC
330
1F
100
AcDbEntity
  8
16
  6
Continuous
 62
     3
370
    25
100
AcDbLine
 10
-108.4299965386092
 20
-76.89999923110011
 30
0.0
 11
-108.6299965415894
 21
-77.09999923408034
 31
0.0
  0
LINE
  5
3DD
330
1F
100
AcDbEntity
  8
16
  6
Continuous
 62
     3
370
    25
100
AcDbLine
 10
-108.6299965415894
 20
-77.09999923408034
 30
0.0
 11
-112.9099965290725
 21
-77.09999923408034
 31
0.0
  0
LINE
  5
3DE
330
1F
100
AcDbEntity
  8
16
  6
Continuous
 62
     3
370
    25
100
AcDbLine
 10
-112.9099965290725
 20
-77.09999923408034
 30
0.0
 11
-113.1099965320527
 21
-76.89999923110011
 31
0.0
  0
LINE
  5
3DF
330
1F
100
AcDbEntity
  8
16
  6
Continuous
 62
     3
370
    25
100
AcDbLine
 10
-107.5299976696074
 20
-75.29999920725825
 30
0.0
 11
-107.3299976666271
 21
-75.09999920427802
 31
0.0
  0
LINE
  5
3E0
330
1F
100
AcDbEntity
  8
16
  6
Continuous
 62
     3
370
    25
100
AcDbLine
 10
-107.3299976666271
 20
-75.09999920427802
 30
0.0
 11
-103.0499976791441
 21
-75.09999920427802
 31
0.0
  0
LINE
  5
3E1
330
1F
100
AcDbEntity
  8
16
  6
Continuous
 62
     3
370
    25
100
AcDbLine
 10
-103.0499976791441
 20
-75.09999920427802
 30
0.0
 11
-102.8499976761639
 21
-75.29999920725825
 31
0.0
  0
LINE
  5
3E2
330
1F
100
AcDbEntity
  8
16
  6
Continuous
 62
     3
370
    25
100
AcDbLine
 10
-102.8499976761639
 20
-76.89999923110011
 30
0.0
 11
-103.0499976791441
 21
-77.09999923408034
 31
0.0
  0
LINE
  5
3E3
330
1F
100
AcDbEntity
  8
16
  6
Continuous
 62
     3
370
    25
100
AcDbLine
 10
-103.0499976791441
 20
-77.09999923408034
 30
0.0
 11
-107.3299976666271
 21
-77.09999923408034
 31
0.0
  0
LINE
  5
3E4
330
1F
100
AcDbEntity
  8
16
  6
Continuous
 62
     3
370
    25
100
AcDbLine
 10
-107.3299976666271
 20
-77.09999923408034
 30
0.0
 11
-107.5299976696074
 21
-76.89999923110011
 31
0.0
  0
LINE
  5
3E5
330
1F
100
AcDbEntity
  8
16
  6
Continuous
 62
     3
370
    25
100
AcDbLine
 10
-101.949998807162
 20
-75.29999920725825
 30
0.0
 11
-101.7499988041818
 21
-75.09999920427802
 31
0.0
  0
LINE
  5
3E6
330
1F
100
AcDbEntity
  8
16
  6
Continuous
 62
     3
370
    25
100
AcDbLine
 10
-101.7499988041818
 20
-75.09999920427802
 30
0.0
 11
-97.4699988166988
 21
-75.09999920427802
 31
0.0
  0
LINE
  5
3E7
330
1F
100
AcDbEntity
  8
16
  6
Continuous
 62
     3
370
    25
100
AcDbLine
 10
-97.4699988166988
 20
-75.09999920427802
 30
0.0
 11
-97.26999881371857
 21
-75.29999920725825
 31
0.0
  0
LINE
  5
3E8
330
1F
100
AcDbEntity
  8
16
  6
Continuous
 62
     3
370
    25
100
AcDbLine
 10
-97.26999881371857
 20
-76.89999923110011
 30
0.0
 11
-97.4699988166988
 21
-77.09999923408034
 31
0.0
  0
LINE
  5
3E9
330
1F
100
AcDbEntity
  8
16
  6
Continuous
 62
     3
370
    25
100
AcDbLine
 10
-97.4699988166988
 20
-77.09999923408034
 30
0.0
 11
-101.7499988041818
 21
-77.09999923408034
 31
0.0
  0
LINE
  5
3EA
330
1F
100
AcDbEntity
  8
16
  6
Continuous
 62
     3
370
    25
100
AcDbLine
 10
-101.7499988041818
 20
-77.09999923408034
 30
0.0
 11
-101.949998807162
 21
-76.89999923110011
 31
0.0
  0
LINE
  5
3EB
330
1F
100
AcDbEntity
  8
16
  6
Continuous
 62
     3
370
    25
100
AcDbLine
 10
-96.36999994471672
 20
-75.29999920725825
 30
0.0
 11
-96.16999994173649
 21
-75.09999920427802
 31
0.0
  0
LINE
  5
3EC
330
1F
100
AcDbEntity
  8
16
  6
Continuous
 62
     3
370
    25
100
AcDbLine
 10
-96.16999994173649
 20
-75.09999920427802
 30
0.0
 11
-91.88999995425347
 21
-75.09999920427802
 31
0.0
  0
LINE
  5
3ED
330
1F
100
AcDbEntity
  8
16
  6
Continuous
 62
     3
370
    25
100
AcDbLine
 10
-91.88999995425347
 20
-75.09999920427802
 30
0.0
 11
-91.68999995127324
 21
-75.29999920725825
 31
0.0
  0
LINE
  5
3EE
330
1F
100
AcDbEntity
  8
16
  6
Continuous
 62
     3
370
    25
100
AcDbLine
 10
-91.68999995127324
 20
-76.89999923110011
 30
0.0
 11
-91.88999995425347
 21
-77.09999923408034
 31
0.0
  0
LINE
  5
3EF
330
1F
100
AcDbEntity
  8
16
  6
Continuous
 62
     3
370
    25
100
AcDbLine
 10
-91.88999995425347
 20
-77.09999923408034
 30
0.0
 11
-96.16999994173649
 21
-77.09999923408034
 31
0.0
  0
LINE
  5
3F0
330
1F
100
AcDbEntity
  8
16
  6
Continuous
 62
     3
370
    25
100
AcDbLine
 10
-96.16999994173649
 20
-77.09999923408034
 30
0.0
 11
-96.36999994471672
 21
-76.89999923110011
 31
0.0
  0
LINE
  5
3F1
330
1F
100
AcDbEntity
  8
16
  6
Continuous
 62
     3
370
    25
100
AcDbLine
 10
-90.79000108227139
 20
-75.29999920725825
 30
0.0
 11
-90.59000107929116
 21
-75.09999920427802
 31
0.0
  0
LINE
  5
3F2
330
1F
100
AcDbEntity
  8
16
  6
Continuous
 62
     3
370
    25
100
AcDbLine
 10
-90.59000107929116
 20
-75.09999920427802
 30
0.0
 11
-86.31000109180813
 21
-75.09999920427802
 31
0.0
  0
LINE
  5
3F3
330
1F
100
AcDbEntity
  8
16
  6
Continuous
 62
     3
370
    25
100
AcDbLine
 10
-86.31000109180813
 20
-75.09999920427802
 30
0.0
 11
-86.1100010888279
 21
-75.29999920725825
 31
0.0
  0
LINE
  5
3F4
330
1F
100
AcDbEntity
  8
16
  6
Continuous
 62
     3
370
    25
100
AcDbLine
 10
-86.1100010888279
 20
-76.89999923110011
 30
0.0
 11
-86.31000109180813
 21
-77.09999923408034
 31
0.0
  0
LINE
  5
3F5
330
1F
100
AcDbEntity
  8
16
  6
Continuous
 62
     3
370
    25
100
AcDbLine
 10
-86.31000109180813
 20
-77.09999923408034
 30
0.0
 11
-90.59000107929116
 21
-77.09999923408034
 31
0.0
  0
LINE
  5
3F6
330
1F
100
AcDbEntity
  8
16
  6
Continuous
 62
     3
370
    25
100
AcDbLine
 10
-90.59000107929116
 20
-77.09999923408034
 30
0.0
 11
-90.79000108227139
 21
-76.89999923110011
 31
0.0
  0
LINE
  5
3F7
330
1F
100
AcDbEntity
  8
16
  6
Continuous
 62
     3
370
    25
100
AcDbLine
 10
-85.20999611631034
 20
-75.29999920725825
 30
0.0
 11
-85.0099961133301
 21
-75.09999920427802
 31
0.0
  0
LINE
  5
3F8
330
1F
100
AcDbEntity
  8
16
  6
Continuous
 62
     3
370
    25
100
AcDbLine
 10
-85.0099961133301
 20
-75.09999920427802
 30
0.0
 11
-80.72999612584708
 21
-75.09999920427802
 31
0.0
  0
LINE
  5
3F9
330
1F
100
AcDbEntity
  8
16
  6
Continuous
 62
     3
370
    25
100
AcDbLine
 10
-80.72999612584708
 20
-75.09999920427802
 30
0.0
 11
-80.52999612286685
 21
-75.29999920725825
 31
0.0
  0
LINE
  5
3FA
330
1F
100
AcDbEntity
  8
16
  6
Continuous
 62
     3
370
    25
100
AcDbLine
 10
-80.52999612286685
 20
-76.89999923110011
 30
0.0
 11
-80.72999612584708
 21
-77.09999923408034
 31
0.0
  0
LINE
  5
3FB
330
1F
100
AcDbEntity
  8
16
  6
Continuous
 62
     3
370
    25
100
AcDbLine
 10
-80.72999612584708
 20
-77.09999923408034
 30
0.0
 11
-85.0099961133301
 21
-77.09999923408034
 31
0.0
  0
LINE
  5
3FC
330
1F
100
AcDbEntity
  8
16
  6
Continuous
 62
     3
370
    25
100
AcDbLine
 10
-85.0099961133301
 20
-77.09999923408034
 30
0.0
 11
-85.20999611631034
 21
-76.89999923110011
 31
0.0
  0
LINE
  5
3FD
330
1F
100
AcDbEntity
  8
16
  6
Continuous
 62
     3
370
    25
100
AcDbLine
 10
-79.63000335738072
 20
-75.29999920725825
 30
0.0
 11
-79.43000335440048
 21
-75.09999920427802
 31
0.0
  0
LINE
  5
3FE
330
1F
100
AcDbEntity
  8
16
  6
Continuous
 62
     3
370
    25
100
AcDbLine
 10
-79.43000335440048
 20
-75.09999920427802
 30
0.0
 11
-75.15000336691746
 21
-75.09999920427802
 31
0.0
  0
LINE
  5
3FF
330
1F
100
AcDbEntity
  8
16
  6
Continuous
 62
     3
370
    25
100
AcDbLine
 10
-75.15000336691746
 20
-75.09999920427802
 30
0.0
 11
-74.95000336393723
 21
-75.29999920725825
 31
0.0
  0
LINE
  5
400
330
1F
100
AcDbEntity
  8
16
  6
Continuous
 62
     3
370
    25
100
AcDbLine
 10
-74.95000336393723
 20
-76.89999923110011
 30
0.0
 11
-75.15000336691746
 21
-77.09999923408034
 31
0.0
  0
LINE
  5
401
330
1F
100
AcDbEntity
  8
16
  6
Continuous
 62
     3
370
    25
100
AcDbLine
 10
-75.15000336691746
 20
-77.09999923408034
 30
0.0
 11
-79.43000335440048
 21
-77.09999923408034
 31
0.0
  0
LINE
  5
402
330
1F
100
AcDbEntity
  8
16
  6
Continuous
 62
     3
370
    25
100
AcDbLine
 10
-79.43000335440048
 20
-77.09999923408034
 30
0.0
 11
-79.63000335738072
 21
-76.89999923110011
 31
0.0
  0
LINE
  5
403
330
1F
100
AcDbEntity
  8
16
  6
Continuous
 62
     3
370
    25
100
AcDbLine
 10
-74.04999839141966
 20
-75.29999920725825
 30
0.0
 11
-73.84999838843943
 21
-75.09999920427802
 31
0.0
  0
LINE
  5
404
330
1F
100
AcDbEntity
  8
16
  6
Continuous
 62
     3
370
    25
100
AcDbLine
 10
-73.84999838843943
 20
-75.09999920427802
 30
0.0
 11
-69.56999840095641
 21
-75.09999920427802
 31
0.0
  0
LINE
  5
405
330
1F
100
AcDbEntity
  8
16
  6
Continuous
 62
     3
370
    25
100
AcDbLine
 10
-69.56999840095641
 20
-75.09999920427802
 30
0.0
 11
-69.36999839797618
 21
-75.29999920725825
 31
0.0
  0
LINE
  5
406
330
1F
100
AcDbEntity
  8
16
  6
Continuous
 62
     3
370
    25
100
AcDbLine
 10
-69.36999839797618
 20
-76.89999923110011
 30
0.0
 11
-69.56999840095641
 21
-77.09999923408034
 31
0.0
  0
LINE
  5
407
330
1F
100
AcDbEntity
  8
16
  6
Continuous
 62
     3
370
    25
100
AcDbLine
 10
-69.56999840095641
 20
-77.09999923408034
 30
0.0
 11
-73.84999838843943
 21
-77.09999923408034
 31
0.0
  0
LINE
  5
408
330
1F
100
AcDbEntity
  8
16
  6
Continuous
 62
     3
370
    25
100
AcDbLine
 10
-73.84999838843943
 20
-77.09999923408034
 30
0.0
 11
-74.04999839141966
 21
-76.89999923110011
 31
0.0
  0
LINE
  5
409
330
1F
100
AcDbEntity
  8
16
  6
Continuous
 62
     3
370
    25
100
AcDbLine
 10
-68.46999342545861
 20
-75.29999920725825
 30
0.0
 11
-68.26999342247838
 21
-75.09999920427802
 31
0.0
  0
LINE
  5
40A
330
1F
100
AcDbEntity
  8
16
  6
Continuous
 62
     3
370
    25
100
AcDbLine
 10
-68.26999342247838
 20
-75.09999920427802
 30
0.0
 11
-63.98999343499535
 21
-75.09999920427802
 31
0.0
  0
LINE
  5
40B
330
1F
100
AcDbEntity
  8
16
  6
Continuous
 62
     3
370
    25
100
AcDbLine
 10
-63.98999343499535
 20
-75.09999920427802
 30
0.0
 11
-63.78999343201513
 21
-75.29999920725825
 31
0.0
  0
LINE
  5
40C
330
1F
100
AcDbEntity
  8
16
  6
Continuous
 62
     3
370
    25
100
AcDbLine
 10
-63.78999343201513
 20
-76.89999923110011
 30
0.0
 11
-63.98999343499535
 21
-77.09999923408034
 31
0.0
  0
LINE
  5
40D
330
1F
100
AcDbEntity
  8
16
  6
Continuous
 62
     3
370
    25
100
AcDbLine
 10
-63.98999343499535
 20
-77.09999923408034
 30
0.0
 11
-68.26999342247838
 21
-77.09999923408034
 31
0.0
  0
LINE
  5
40E
330
1F
100
AcDbEntity
  8
16
  6
Continuous
 62
     3
370
    25
100
AcDbLine
 10
-68.26999342247838
 20
-77.09999923408034
 30
0.0
 11
-68.46999342545861
 21
-76.89999923110011
 31
0.0
  0
LINE
  5
40F
330
1F
100
AcDbEntity
  8
16
  6
Continuous
 62
     3
370
    25
100
AcDbLine
 10
-62.89000066652898
 20
-75.29999920725825
 30
0.0
 11
-62.69000066354876
 21
-75.09999920427802
 31
0.0
  0
LINE
  5
410
330
1F
100
AcDbEntity
  8
16
  6
Continuous
 62
     3
370
    25
100
AcDbLine
 10
-62.69000066354876
 20
-75.09999920427802
 30
0.0
 11
-58.41000067606573
 21
-75.09999920427802
 31
0.0
  0
LINE
  5
411
330
1F
100
AcDbEntity
  8
16
  6
Continuous
 62
     3
370
    25
100
AcDbLine
 10
-58.41000067606573
 20
-75.09999920427802
 30
0.0
 11
-58.21000067308551
 21
-75.29999920725825
 31
0.0
  0
LINE
  5
412
330
1F
100
AcDbEntity
  8
16
  6
Continuous
 62
     3
370
    25
100
AcDbLine
 10
-58.21000067308551
 20
-76.89999923110011
 30
0.0
 11
-58.41000067606573
 21
-77.09999923408034
 31
0.0
  0
LINE
  5
413
330
1F
100
AcDbEntity
  8
16
  6
Continuous
 62
     3
370
    25
100
AcDbLine
 10
-58.41000067606573
 20
-77.09999923408034
 30
0.0
 11
-62.69000066354876
 21
-77.09999923408034
 31
0.0
  0
LINE
  5
414
330
1F
100
AcDbEntity
  8
16
  6
Continuous
 62
     3
370
    25
100
AcDbLine
 10
-62.69000066354876
 20
-77.09999923408034
 30
0.0
 11
-62.89000066652898
 21
-76.89999923110011
 31
0.0
  0
LINE
  5
415
330
1F
100
AcDbEntity
  8
22
  6
Continuous
 62
     4
370
    25
100
AcDbLine
 10
-182.0
 20
-128.5
 30
0.0
 11
-178.9999999552965
 21
-128.5
 31
0.0
  0
LINE
  5
416
330
1F
100
AcDbEntity
  8
22
  6
Continuous
 62
     4
370
    25
100
AcDbLine
 10
-178.9999999552965
 20
-128.5
 30
0.0
 11
-178.9999999552965
 21
-125.4999999552965
 31
0.0
  0
LINE
  5
417
330
1F
100
AcDbEntity
  8
22
  6
Continuous
 62
     4
370
    25
100
AcDbLine
 10
-178.9999999552965
 20
-125.4999999552965
 30
0.0
 11
-182.0
 21
-125.4999999552965
 31
0.0
  0
LINE
  5
418
330
1F
100
AcDbEntity
  8
22
  6
Continuous
 62
     4
370
    25
100
AcDbLine
 10
-182.0
 20
-125.4999999552965
 30
0.0
 11
-182.0
 21
-128.5
 31
0.0
  0
LINE
  5
419
330
1F
100
AcDbEntity
  8
22
  6
Continuous
 62
     4
370
    25
100
AcDbLine
 10
-182.0
 20
-128.5
 30
0.0
 11
-178.9999999552965
 21
-128.5
 31
0.0
  0
LINE
  5
41A
330
1F
100
AcDbEntity
  8
22
  6
Continuous
 62
     4
370
    25
100
AcDbLine
 10
-178.9999999552965
 20
-128.5
 30
0.0
 11
-178.9999999552965
 21
-125.4999999552965
 31
0.0
  0
LINE
  5
41B
330
1F
100
AcDbEntity
  8
22
  6
Continuous
 62
     4
370
    25
100
AcDbLine
 10
-178.9999999552965
 20
-125.4999999552965
 30
0.0
 11
-182.0
 21
-125.4999999552965
 31
0.0
  0
LINE
  5
41C
330
1F
100
AcDbEntity
  8
22
  6
Continuous
 62
     4
370
    25
100
AcDbLine
 10
-182.0
 20
-125.4999999552965
 30
0.0
 11
-182.0
 21
-128.5
 31
0.0
  0
LINE
  5
41D
330
1F
100
AcDbEntity
  8
22
  6
Continuous
 62
     4
370
    25
100
AcDbLine
 10
-182.0
 20
-128.5
 30
0.0
 11
-178.9999999552965
 21
-128.5
 31
0.0
  0
LINE
  5
41E
330
1F
100
AcDbEntity
  8
22
  6
Continuous
 62
     4
370
    25
100
AcDbLine
 10
-178.9999999552965
 20
-128.5
 30
0.0
 11
-178.9999999552965
 21
-125.4999999552965
 31
0.0
  0
LINE
  5
41F
330
1F
100
AcDbEntity
  8
22
  6
Continuous
 62
     4
370
    25
100
AcDbLine
 10
-178.9999999552965
 20
-125.4999999552965
 30
0.0
 11
-182.0
 21
-125.4999999552965
 31
0.0
  0
LINE
  5
420
330
1F
100
AcDbEntity
  8
22
  6
Continuous
 62
     4
370
    25
100
AcDbLine
 10
-182.0
 20
-125.4999999552965
 30
0.0
 11
-182.0
 21
-128.5
 31
0.0
  0
LINE
  5
421
330
1F
100
AcDbEntity
  8
22
  6
Continuous
 62
     4
370
    25
100
AcDbLine
 10
91.20000407099724
 20
95.90000334382057
 30
0.0
 11
86.20000399649143
 21
95.90000334382057
 31
0.0
  0
LINE
  5
422
330
1F
100
AcDbEntity
  8
22
  6
Continuous
 62
     4
370
    25
100
AcDbLine
 10
86.20000399649143
 20
95.90000334382057
 30
0.0
 11
86.20000399649143
 21
91.90000328421593
 31
0.0
  0
LINE
  5
423
330
1F
100
AcDbEntity
  8
22
  6
Continuous
 62
     4
370
    25
100
AcDbLine
 10
86.20000399649143
 20
91.90000328421593
 30
0.0
 11
144.2000048607588
 21
91.90000328421593
 31
0.0
  0
LINE
  5
424
330
1F
100
AcDbEntity
  8
22
  6
Continuous
 62
     4
370
    25
100
AcDbLine
 10
144.2000048607588
 20
91.90000328421593
 30
0.0
 11
144.2000048607588
 21
95.90000334382057
 31
0.0
  0
LINE
  5
425
330
1F
100
AcDbEntity
  8
22
  6
Continuous
 62
     4
370
    25
100
AcDbLine
 10
144.2000048607588
 20
95.90000334382057
 30
0.0
 11
139.200004786253
 21
95.90000334382057
 31
0.0
  0
LINE
  5
426
330
1F
100
AcDbEntity
  8
22
  6
Continuous
 62
     4
370
    25
100
AcDbLine
 10
68.20000372827052
 20
22.40000224858523
 30
0.0
 11
67.20000371336936
 21
22.40000224858523
 31
0.0
  0
LINE
  5
427
330
1F
100
AcDbEntity
  8
22
  6
Continuous
 62
     4
370
    25
100
AcDbLine
 10
67.20000371336936
 20
22.40000224858523
 30
0.0
 11
67.20000371336936
 21
19.90000221133232
 31
0.0
  0
LINE
  5
428
330
1F
100
AcDbEntity
  8
22
  6
Continuous
 62
     4
370
    25
100
AcDbLine
 10
67.20000371336936
 20
19.90000221133232
 30
0.0
 11
81.20000392198563
 21
19.90000221133232
 31
0.0
  0
LINE
  5
429
330
1F
100
AcDbEntity
  8
22
  6
Continuous
 62
     4
370
    25
100
AcDbLine
 10
81.20000392198563
 20
19.90000221133232
 30
0.0
 11
81.20000392198563
 21
22.40000224858523
 31
0.0
  0
LINE
  5
42A
330
1F
100
AcDbEntity
  8
22
  6
Continuous
 62
     4
370
    25
100
AcDbLine
 10
81.20000392198563
 20
22.40000224858523
 30
0.0
 11
80.20000390708447
 21
22.40000224858523
 31
0.0
  0
LINE
  5
42B
330
1F
100
AcDbEntity
  8
22
  6
Continuous
 62
     4
370
    25
100
AcDbLine
 10
79.2000038921833
 20
12.40000209957361
 30
0.0
 11
93.20000410079956
 21
12.40000209957361
 31
0.0
  0
LINE
  5
42C
330
1F
100
AcDbEntity
  8
22
  6
Continuous
 62
     4
370
    25
100
AcDbLine
 10
98.70000418275595
 20
12.40000209957361
 30
0.0
 11
127.7000046148896
 21
12.40000209957361
 31
0.0
  0
LINE
  5
42D
330
1F
100
AcDbEntity
  8
22
  6
Continuous
 62
     4
370
    25
100
AcDbLine
 10
82.20000393688679
 20
-59.09999896585941
 30
0.0
 11
130.2000046521425
 21
-59.09999896585941
 31
0.0
  0
ARC
  5
42E
330
1F
100
AcDbEntity
  8
22
  6
Continuous
 62
     4
370
    25
100
AcDbCircle
 10
59.20000359416007
 20
102.9000034481287
 30
0.0
 40
5.000000074505806
100
AcDbArc
 50
270.0000000000006
 51
0.0000000000008142
  0
LINE
  5
42F
330
1F
100
AcDbEntity
  8
22
  6
Continuous
 62
     4
370
    25
100
AcDbLine
 10
59.20000522813459
 20
97.90000337362318
 30
0.0
 11
59.20000359416007
 21
-57.09999893605709
 31
0.0
  0
ARC
  5
430
330
1F
100
AcDbEntity
  8
22
  6
Continuous
 62
     4
370
    25
100
AcDbCircle
 10
59.20000196018556
 20
-62.09999901056264
 30
0.0
 40
5.000000074505806
100
AcDbArc
 50
0.0
 51
90.0000000000002
  0
LINE
  5
431
330
1F
100
AcDbEntity
  8
22
  6
Continuous
 62
     4
370
    25
100
AcDbLine
 10
64.20000203469137
 20
-62.09999901056264
 30
0.0
 11
164.200005158782
 21
-62.09999901056291
 31
0.0
  0
ARC
  5
432
330
1F
100
AcDbEntity
  8
22
  6
Continuous
 62
     4
370
    25
100
AcDbCircle
 10
169.2000052332868
 20
-62.10000227851191
 30
0.0
 40
5.000000074505806
100
AcDbArc
 50
90.0000000000002
 51
180.0000000000004
  0
LINE
  5
433
330
1F
100
AcDbEntity
  8
22
  6
Continuous
 62
     4
370
    25
100
AcDbLine
 10
169.2000068672613
 20
-57.10000220400638
 30
0.0
 11
169.2000052332878
 21
97.9000033736229
 31
0.0
  0
ARC
  5
434
330
1F
100
AcDbEntity
  8
22
  6
Continuous
 62
     4
370
    25
100
AcDbCircle
 10
169.2000101352113
 20
102.9000034481263
 30
0.0
 40
5.000000074505806
100
AcDbArc
 50
180.0000000000004
 51
270.0000000000006
  0
LINE
  5
435
330
1F
100
AcDbEntity
  8
22
  6
Continuous
 62
     4
370
    25
100
AcDbLine
 10
164.2000100607066
 20
102.9000067160753
 30
0.0
 11
64.20000366866587
 21
102.9000034481287
 31
0.0
  0
LINE
  5
436
330
1F
100
AcDbEntity
  8
22
  6
Continuous
 62
     4
370
    25
100
AcDbLine
 10
-150.2999995276332
 20
32.30000239610669
 30
0.0
 11
-150.6999995335936
 21
30.80000237375495
 31
0.0
  0
LINE
  5
437
330
1F
100
AcDbEntity
  8
22
  6
Continuous
 62
     4
370
    25
100
AcDbLine
 10
-149.8999995216727
 20
30.80000237375495
 30
0.0
 11
-150.2999995276332
 21
32.30000239610669
 31
0.0
  0
LINE
  5
438
330
1F
100
AcDbEntity
  8
22
  6
Continuous
 62
     4
370
    25
100
AcDbLine
 10
-150.2999995276332
 20
32.30000239610669
 30
0.0
 11
-150.2999995276332
 21
2.300001949071855
 31
0.0
  0
LINE
  5
439
330
1F
100
AcDbEntity
  8
22
  6
Continuous
 62
     4
370
    25
100
AcDbLine
 10
-150.2999995276332
 20
2.300001949071855
 30
0.0
 11
-150.6999995335936
 21
3.800001971423598
 31
0.0
  0
LINE
  5
43A
330
1F
100
AcDbEntity
  8
22
  6
Continuous
 62
     4
370
    25
100
AcDbLine
 10
-149.8999995216727
 20
3.800001971423598
 30
0.0
 11
-150.2999995276332
 21
2.300001949071855
 31
0.0
  0
LINE
  5
43B
330
1F
100
AcDbEntity
  8
22
  6
Continuous
 62
     4
370
    25
100
AcDbLine
 10
-128.2999991998076
 20
26.90000231564042
 30
0.0
 11
-127.9999991953373
 21
28.36000237554309
 31
0.0
  0
LINE
  5
43C
330
1F
100
AcDbEntity
  8
22
  6
Continuous
 62
     4
370
    25
100
AcDbLine
 10
-128.2999991998076
 20
26.90000231564042
 30
0.0
 11
-127.2999991849065
 21
28.00000233203171
 31
0.0
  0
LINE
  5
43D
330
1F
100
AcDbEntity
  8
22
  6
Continuous
 62
     4
370
    25
100
AcDbLine
 10
-128.2999991998076
 20
26.90000231564042
 30
0.0
 11
-99.54999877139927
 21
84.4000031724572
 31
0.0
  0
LINE
  5
43E
330
1F
100
AcDbEntity
  8
22
  6
Continuous
 62
     4
370
    25
100
AcDbLine
 10
-99.54999877139927
 20
84.4000031724572
 30
0.0
 11
-51.54999805614354
 21
84.4000031724572
 31
0.0
  0
LINE
  5
43F
330
1F
100
AcDbEntity
  8
22
  6
Continuous
 62
     4
370
    25
100
AcDbLine
 10
-116.3499990217388
 20
36.90000246465203
 30
0.0
 11
-116.0499990172684
 21
38.3600025245547
 31
0.0
  0
LINE
  5
440
330
1F
100
AcDbEntity
  8
22
  6
Continuous
 62
     4
370
    25
100
AcDbLine
 10
-116.3499990217388
 20
36.90000246465203
 30
0.0
 11
-115.3499990068376
 21
38.00000248104331
 31
0.0
  0
LINE
  5
441
330
1F
100
AcDbEntity
  8
22
  6
Continuous
 62
     4
370
    25
100
AcDbLine
 10
-116.3499990217388
 20
36.90000246465203
 30
0.0
 11
-94.69999869912864
 21
80.20000310987233
 31
0.0
  0
LINE
  5
442
330
1F
100
AcDbEntity
  8
22
  6
Continuous
 62
     4
370
    25
100
AcDbLine
 10
-94.69999869912864
 20
80.20000310987233
 30
0.0
 11
-50.69999804347754
 21
80.20000310987233
 31
0.0
  0
LINE
  5
443
330
1F
100
AcDbEntity
  8
22
  6
Continuous
 62
     4
370
    25
100
AcDbLine
 10
-99.60999633088706
 20
56.40000275522468
 30
0.0
 11
-99.30999632641671
 21
57.86000281512734
 31
0.0
  0
LINE
  5
444
330
1F
100
AcDbEntity
  8
22
  6
Continuous
 62
     4
370
    25
100
AcDbLine
 10
-99.60999633088706
 20
56.40000275522468
 30
0.0
 11
-98.6099963159859
 21
57.50000277161596
 31
0.0
  0
LINE
  5
445
330
1F
100
AcDbEntity
  8
22
  6
Continuous
 62
     4
370
    25
100
AcDbLine
 10
-99.60999633088706
 20
56.40000275522468
 30
0.0
 11
-90.05999618858097
 21
75.50000303983687
 31
0.0
  0
LINE
  5
446
330
1F
100
AcDbEntity
  8
22
  6
Continuous
 62
     4
370
    25
100
AcDbLine
 10
-90.05999618858097
 20
75.50000303983687
 30
0.0
 11
-48.05999556273219
 21
75.50000303983687
 31
0.0
  0
LINE
  5
447
330
1F
100
AcDbEntity
  8
22
  6
Continuous
 62
     4
370
    25
100
AcDbLine
 10
-132.2999992594123
 20
-61.19999899715188
 30
0.0
 11
-130.7999992370605
 21
-60.79999899119144
 31
0.0
  0
LINE
  5
448
330
1F
100
AcDbEntity
  8
22
  6
Continuous
 62
     4
370
    25
100
AcDbLine
 10
-130.7999992370605
 20
-61.59999900311234
 30
0.0
 11
-132.2999992594123
 21
-61.19999899715188
 31
0.0
  0
LINE
  5
449
330
1F
100
AcDbEntity
  8
22
  6
Continuous
 62
     4
370
    25
100
AcDbLine
 10
-132.2999992594123
 20
-61.19999899715188
 30
0.0
 11
-54.55999565958975
 21
-61.19999899715188
 31
0.0
  0
LINE
  5
44A
330
1F
100
AcDbEntity
  8
22
  6
Continuous
 62
     4
370
    25
100
AcDbLine
 10
-54.55999565958975
 20
-61.19999899715188
 30
0.0
 11
-56.05999568194149
 21
-60.79999899119144
 31
0.0
  0
LINE
  5
44B
330
1F
100
AcDbEntity
  8
22
  6
Continuous
 62
     4
370
    25
100
AcDbLine
 10
-56.05999568194149
 20
-61.59999900311234
 30
0.0
 11
-54.55999565958975
 21
-61.19999899715188
 31
0.0
  0
LINE
  5
44C
330
1F
100
AcDbEntity
  8
22
  6
Continuous
 62
     4
370
    25
100
AcDbLine
 10
-54.55999565958975
 20
-61.19999899715188
 30
0.0
 11
-53.29999560266731
 21
-61.19999899715188
 31
0.0
  0
LINE
  5
44D
330
1F
100
AcDbEntity
  8
22
  6
Continuous
 62
     4
370
    25
100
AcDbLine
 10
-53.29999560266731
 20
-61.19999899715188
 30
0.0
 11
-51.79999558031557
 21
-60.79999899119144
 31
0.0
  0
LINE
  5
44E
330
1F
100
AcDbEntity
  8
22
  6
Continuous
 62
     4
370
    25
100
AcDbLine
 10
-51.79999558031557
 20
-61.59999900311234
 30
0.0
 11
-53.29999560266731
 21
-61.19999899715188
 31
0.0
  0
LINE
  5
44F
330
1F
100
AcDbEntity
  8
22
  6
Continuous
 62
     4
370
    25
100
AcDbLine
 10
-53.29999560266731
 20
-61.19999899715188
 30
0.0
 11
-48.79999553561208
 21
-61.19999899715188
 31
0.0
  0
LINE
  5
450
330
1F
100
AcDbEntity
  8
22
  6
Continuous
 62
     4
370
    25
100
AcDbLine
 10
-134.7999992966652
 20
-54.19999889284375
 30
0.0
 11
-136.2999993190169
 21
-53.79999888688329
 31
0.0
  0
LINE
  5
451
330
1F
100
AcDbEntity
  8
22
  6
Continuous
 62
     4
370
    25
100
AcDbLine
 10
-136.2999993190169
 20
-54.59999889880422
 30
0.0
 11
-134.7999992966652
 21
-54.19999889284375
 31
0.0
  0
LINE
  5
452
330
1F
100
AcDbEntity
  8
22
  6
Continuous
 62
     4
370
    25
100
AcDbLine
 10
-146.7999994754791
 20
-54.19999889284375
 30
0.0
 11
-134.7999992966652
 21
-54.19999889284375
 31
0.0
  0
LINE
  5
453
330
1F
100
AcDbEntity
  8
22
  6
Continuous
 62
     4
370
    25
100
AcDbLine
 10
-134.7999992966652
 20
-54.19999889284375
 30
0.0
 11
-132.2999992594123
 21
-54.19999889284375
 31
0.0
  0
LINE
  5
454
330
1F
100
AcDbEntity
  8
22
  6
Continuous
 62
     4
370
    25
100
AcDbLine
 10
-132.2999992594123
 20
-54.19999889284375
 30
0.0
 11
-130.7999992370605
 21
-53.79999888688329
 31
0.0
  0
LINE
  5
455
330
1F
100
AcDbEntity
  8
22
  6
Continuous
 62
     4
370
    25
100
AcDbLine
 10
-130.7999992370605
 20
-54.59999889880422
 30
0.0
 11
-132.2999992594123
 21
-54.19999889284375
 31
0.0
  0
LINE
  5
456
330
1F
100
AcDbEntity
  8
22
  6
Continuous
 62
     4
370
    25
100
AcDbLine
 10
-132.2999992594123
 20
-54.19999889284375
 30
0.0
 11
-53.29999808222057
 21
-54.19999889284375
 31
0.0
  0
LINE
  5
457
330
1F
100
AcDbEntity
  8
22
  6
Continuous
 62
     4
370
    25
100
AcDbLine
 10
-53.29999808222057
 20
-54.19999889284375
 30
0.0
 11
-54.79999810457231
 21
-53.79999888688329
 31
0.0
  0
LINE
  5
458
330
1F
100
AcDbEntity
  8
22
  6
Continuous
 62
     4
370
    25
100
AcDbLine
 10
-54.79999810457231
 20
-54.59999889880422
 30
0.0
 11
-53.29999808222057
 21
-54.19999889284375
 31
0.0
  0
LINE
  5
459
330
1F
100
AcDbEntity
  8
22
  6
Continuous
 62
     4
370
    25
100
AcDbLine
 10
-53.29999808222057
 20
-54.19999889284375
 30
0.0
 11
-50.79999804496766
 21
-54.19999889284375
 31
0.0
  0
LINE
  5
45A
330
1F
100
AcDbEntity
  8
22
  6
Continuous
 62
     4
370
    25
100
AcDbLine
 10
-50.79999804496766
 20
-54.19999889284375
 30
0.0
 11
-49.29999802261592
 21
-53.79999888688329
 31
0.0
  0
LINE
  5
45B
330
1F
100
AcDbEntity
  8
22
  6
Continuous
 62
     4
370
    25
100
AcDbLine
 10
-49.29999802261592
 20
-54.59999889880422
 30
0.0
 11
-50.79999804496766
 21
-54.19999889284375
 31
0.0
  0
LINE
  5
45C
330
1F
100
AcDbEntity
  8
22
  6
Continuous
 62
     4
370
    25
100
AcDbLine
 10
-50.79999804496766
 20
-54.19999889284375
 30
0.0
 11
-38.79999786615372
 21
-54.19999889284375
 31
0.0
  0
LINE
  5
45D
330
1F
100
AcDbEntity
  8
22
  6
Continuous
 62
     4
370
    25
100
AcDbLine
 10
-50.79999804496766
 20
-56.69999893009668
 30
0.0
 11
-50.79999804496766
 21
-53.19999887794259
 31
0.0
  0
LINE
  5
45E
330
1F
100
AcDbEntity
  8
22
  6
Continuous
 62
     4
370
    25
100
AcDbLine
 10
-134.7999992966652
 20
-47.19999878853562
 30
0.0
 11
-133.2999992743134
 21
-46.79999878257516
 31
0.0
  0
LINE
  5
45F
330
1F
100
AcDbEntity
  8
22
  6
Continuous
 62
     4
370
    25
100
AcDbLine
 10
-133.2999992743134
 20
-47.59999879449609
 30
0.0
 11
-134.7999992966652
 21
-47.19999878853562
 31
0.0
  0
LINE
  5
460
330
1F
100
AcDbEntity
  8
22
  6
Continuous
 62
     4
370
    25
100
AcDbLine
 10
-134.7999992966652
 20
-47.19999878853562
 30
0.0
 11
-50.79999804496766
 21
-47.19999878853562
 31
0.0
  0
LINE
  5
461
330
1F
100
AcDbEntity
  8
22
  6
Continuous
 62
     4
370
    25
100
AcDbLine
 10
-50.79999804496766
 20
-47.19999878853562
 30
0.0
 11
-52.29999806731941
 21
-46.79999878257516
 31
0.0
  0
LINE
  5
462
330
1F
100
AcDbEntity
  8
22
  6
Continuous
 62
     4
370
    25
100
AcDbLine
 10
-52.29999806731941
 20
-47.59999879449609
 30
0.0
 11
-50.79999804496766
 21
-47.19999878853562
 31
0.0
  0
LINE
  5
463
330
1F
100
AcDbEntity
  8
22
  6
Continuous
 62
     4
370
    25
100
AcDbLine
 10
-50.79999804496766
 20
-56.69999893009668
 30
0.0
 11
-50.79999804496766
 21
-46.19999877363446
 31
0.0
  0
LINE
  5
464
330
1F
100
AcDbEntity
  8
22
  6
Continuous
 62
     4
370
    25
100
AcDbLine
 10
-108.3999989032745
 20
-60.19999898225072
 30
0.0
 11
-110.8999989405274
 21
-55.19999890774491
 31
0.0
  0
LINE
  5
465
330
1F
100
AcDbEntity
  8
22
  6
Continuous
 62
     4
370
    25
100
AcDbLine
 10
-111.8999989554286
 20
-53.19999887794259
 30
0.0
 11
-114.3999989926815
 21
-48.19999880343679
 31
0.0
  0
LINE
  5
466
330
1F
100
AcDbEntity
  8
22
  6
Continuous
 62
     4
370
    25
100
AcDbLine
 10
-115.3999990075826
 20
-46.19999877363446
 30
0.0
 11
-117.8999990448356
 21
-41.19999869912866
 31
0.0
  0
LINE
  5
467
330
1F
100
AcDbEntity
  8
22
  6
Continuous
 62
     4
370
    25
100
AcDbLine
 10
-139.8999993726611
 20
-41.19999869912866
 30
0.0
 11
-117.8999990448356
 21
-41.19999869912866
 31
0.0
  0
LINE
  5
468
330
1F
100
AcDbEntity
  8
22
  6
Continuous
 62
     4
370
    25
100
AcDbLine
 10
-3.799997344613082
 20
56.40000275522468
 30
0.0
 11
-8.799997419118888
 21
56.40000275522468
 31
0.0
  0
LINE
  5
469
330
1F
100
AcDbEntity
  8
22
  6
Continuous
 62
     4
370
    25
100
AcDbLine
 10
-7.799997404217727
 20
56.40000275522468
 30
0.0
 11
-8.199997410178192
 21
54.90000273287292
 31
0.0
  0
LINE
  5
46A
330
1F
100
AcDbEntity
  8
22
  6
Continuous
 62
     4
370
    25
100
AcDbLine
 10
-7.399997398257263
 20
54.90000273287292
 30
0.0
 11
-7.799997404217727
 21
56.40000275522468
 31
0.0
  0
LINE
  5
46B
330
1F
100
AcDbEntity
  8
22
  6
Continuous
 62
     4
370
    25
100
AcDbLine
 10
-7.799997404217727
 20
56.40000275522468
 30
0.0
 11
-7.799997404217727
 21
36.40000245720145
 31
0.0
  0
LINE
  5
46C
330
1F
100
AcDbEntity
  8
22
  6
Continuous
 62
     4
370
    25
100
AcDbLine
 10
-7.799997404217727
 20
36.40000245720145
 30
0.0
 11
-8.199997410178192
 21
37.90000247955319
 31
0.0
  0
LINE
  5
46D
330
1F
100
AcDbEntity
  8
22
  6
Continuous
 62
     4
370
    25
100
AcDbLine
 10
-7.399997398257263
 20
37.90000247955319
 30
0.0
 11
-7.799997404217727
 21
36.40000245720145
 31
0.0
  0
LINE
  5
46E
330
1F
100
AcDbEntity
  8
22
  6
Continuous
 62
     4
370
    25
100
AcDbLine
 10
-8.799997419118888
 20
36.40000245720145
 30
0.0
 11
-3.799997344613082
 21
36.40000245720145
 31
0.0
  0
LINE
  5
46F
330
1F
100
AcDbEntity
  8
22
  6
Continuous
 62
     4
370
    25
100
AcDbLine
 10
-7.799997404217727
 20
36.40000245720145
 30
0.0
 11
-8.199997410178192
 21
34.90000243484971
 31
0.0
  0
LINE
  5
470
330
1F
100
AcDbEntity
  8
22
  6
Continuous
 62
     4
370
    25
100
AcDbLine
 10
-7.399997398257263
 20
34.90000243484971
 30
0.0
 11
-7.799997404217727
 21
36.40000245720145
 31
0.0
  0
LINE
  5
471
330
1F
100
AcDbEntity
  8
22
  6
Continuous
 62
     4
370
    25
100
AcDbLine
 10
-7.799997404217727
 20
36.40000245720145
 30
0.0
 11
-7.799997404217727
 21
16.40000215917823
 31
0.0
  0
LINE
  5
472
330
1F
100
AcDbEntity
  8
22
  6
Continuous
 62
     4
370
    25
100
AcDbLine
 10
-7.799997404217727
 20
16.40000215917823
 30
0.0
 11
-8.199997410178192
 21
17.90000218152997
 31
0.0
  0
LINE
  5
473
330
1F
100
AcDbEntity
  8
22
  6
Continuous
 62
     4
370
    25
100
AcDbLine
 10
-7.399997398257263
 20
17.90000218152997
 30
0.0
 11
-7.799997404217727
 21
16.40000215917823
 31
0.0
  0
LINE
  5
474
330
1F
100
AcDbEntity
  8
22
  6
Continuous
 62
     4
370
    25
100
AcDbLine
 10
-8.799997419118888
 20
16.40000215917823
 30
0.0
 11
-3.799997344613082
 21
16.40000215917823
 31
0.0
  0
LINE
  5
475
330
1F
100
AcDbEntity
  8
22
  6
Continuous
 62
     4
370
    25
100
AcDbLine
 10
-3.799997344613082
 20
58.40000278502701
 30
0.0
 11
-15.79999752342702
 21
58.40000278502701
 31
0.0
  0
LINE
  5
476
330
1F
100
AcDbEntity
  8
22
  6
Continuous
 62
     4
370
    25
100
AcDbLine
 10
-14.79999750852586
 20
58.40000278502701
 30
0.0
 11
-15.19999751448632
 21
59.90000280737875
 31
0.0
  0
LINE
  5
477
330
1F
100
AcDbEntity
  8
22
  6
Continuous
 62
     4
370
    25
100
AcDbLine
 10
-14.39999750256539
 20
59.90000280737875
 30
0.0
 11
-14.79999750852586
 21
58.40000278502701
 31
0.0
  0
LINE
  5
478
330
1F
100
AcDbEntity
  8
22
  6
Continuous
 62
     4
370
    25
100
AcDbLine
 10
-14.79999750852586
 20
58.40000278502701
 30
0.0
 11
-14.79999750852586
 21
65.40000288933514
 31
0.0
  0
LINE
  5
479
330
1F
100
AcDbEntity
  8
22
  6
Continuous
 62
     4
370
    25
100
AcDbLine
 10
-14.79999750852586
 20
58.40000278502701
 30
0.0
 11
-14.79999750852586
 21
56.40000275522468
 31
0.0
  0
LINE
  5
47A
330
1F
100
AcDbEntity
  8
22
  6
Continuous
 62
     4
370
    25
100
AcDbLine
 10
-15.79999752342702
 20
56.40000275522468
 30
0.0
 11
-3.799997344613082
 21
56.40000275522468
 31
0.0
  0
LINE
  5
47B
330
1F
100
AcDbEntity
  8
22
  6
Continuous
 62
     4
370
    25
100
AcDbLine
 10
-15.19999751448632
 20
54.90000273287292
 30
0.0
 11
-14.79999750852586
 21
56.40000275522468
 31
0.0
  0
LINE
  5
47C
330
1F
100
AcDbEntity
  8
22
  6
Continuous
 62
     4
370
    25
100
AcDbLine
 10
-14.39999750256539
 20
54.90000273287292
 30
0.0
 11
-14.79999750852586
 21
56.40000275522468
 31
0.0
  0
LINE
  5
47D
330
1F
100
AcDbEntity
  8
22
  6
Continuous
 62
     4
370
    25
100
AcDbLine
 10
-14.79999750852586
 20
-23.59999843686822
 30
0.0
 11
-14.79999750852586
 21
56.40000275522468
 31
0.0
  0
LINE
  5
47E
330
1F
100
AcDbEntity
  8
22
  6
Continuous
 62
     4
370
    25
100
AcDbLine
 10
-14.79999750852586
 20
-23.59999843686822
 30
0.0
 11
-15.19999751448632
 21
-22.09999841451648
 31
0.0
  0
LINE
  5
47F
330
1F
100
AcDbEntity
  8
22
  6
Continuous
 62
     4
370
    25
100
AcDbLine
 10
-14.79999750852586
 20
-23.59999843686822
 30
0.0
 11
-14.39999750256539
 21
-22.09999841451648
 31
0.0
  0
LINE
  5
480
330
1F
100
AcDbEntity
  8
22
  6
Continuous
 62
     4
370
    25
100
AcDbLine
 10
-15.79999752342702
 20
-23.59999843686822
 30
0.0
 11
-3.799997344613082
 21
-23.59999843686822
 31
0.0
  0
LINE
  5
481
330
1F
100
AcDbEntity
  8
22
  6
Continuous
 62
     4
370
    25
100
AcDbLine
 10
-14.79999750852586
 20
-25.59999846667054
 30
0.0
 11
-14.79999750852586
 21
-23.59999843686822
 31
0.0
  0
LINE
  5
482
330
1F
100
AcDbEntity
  8
22
  6
Continuous
 62
     4
370
    25
100
AcDbLine
 10
-15.19999751448632
 20
-27.09999848902228
 30
0.0
 11
-14.79999750852586
 21
-25.59999846667054
 31
0.0
  0
LINE
  5
483
330
1F
100
AcDbEntity
  8
22
  6
Continuous
 62
     4
370
    25
100
AcDbLine
 10
-14.39999750256539
 20
-27.09999848902228
 30
0.0
 11
-14.79999750852586
 21
-25.59999846667054
 31
0.0
  0
LINE
  5
484
330
1F
100
AcDbEntity
  8
22
  6
Continuous
 62
     4
370
    25
100
AcDbLine
 10
-14.79999750852586
 20
-32.59999857097867
 30
0.0
 11
-14.79999750852586
 21
-25.59999846667054
 31
0.0
  0
LINE
  5
485
330
1F
100
AcDbEntity
  8
22
  6
Continuous
 62
     4
370
    25
100
AcDbLine
 10
-15.79999752342702
 20
-25.59999846667054
 30
0.0
 11
-3.799997344613082
 21
-25.59999846667054
 31
0.0
  0
LINE
  5
486
330
1F
100
AcDbEntity
  8
22
  6
Continuous
 62
     4
370
    25
100
AcDbLine
 10
-22.79999762773515
 20
58.40000278502701
 30
0.0
 11
-3.799997344613082
 21
58.40000278502701
 31
0.0
  0
LINE
  5
487
330
1F
100
AcDbEntity
  8
22
  6
Continuous
 62
     4
370
    25
100
AcDbLine
 10
-22.19999761879445
 20
56.90000276267526
 30
0.0
 11
-21.79999761283398
 21
58.40000278502701
 31
0.0
  0
LINE
  5
488
330
1F
100
AcDbEntity
  8
22
  6
Continuous
 62
     4
370
    25
100
AcDbLine
 10
-21.39999760687352
 20
56.90000276267526
 30
0.0
 11
-21.79999761283398
 21
58.40000278502701
 31
0.0
  0
LINE
  5
489
330
1F
100
AcDbEntity
  8
22
  6
Continuous
 62
     4
370
    25
100
AcDbLine
 10
-21.79999761283398
 20
-25.59999846667054
 30
0.0
 11
-21.79999761283398
 21
58.40000278502701
 31
0.0
  0
LINE
  5
48A
330
1F
100
AcDbEntity
  8
22
  6
Continuous
 62
     4
370
    25
100
AcDbLine
 10
-21.79999761283398
 20
-25.59999846667054
 30
0.0
 11
-22.19999761879445
 21
-24.0999984443188
 31
0.0
  0
LINE
  5
48B
330
1F
100
AcDbEntity
  8
22
  6
Continuous
 62
     4
370
    25
100
AcDbLine
 10
-21.79999761283398
 20
-25.59999846667054
 30
0.0
 11
-21.39999760687352
 21
-24.0999984443188
 31
0.0
  0
LINE
  5
48C
330
1F
100
AcDbEntity
  8
22
  6
Continuous
 62
     4
370
    25
100
AcDbLine
 10
-22.79999762773515
 20
-25.59999846667054
 30
0.0
 11
-3.799997344613082
 21
-25.59999846667054
 31
0.0
  0
LINE
  5
48D
330
1F
100
AcDbEntity
  8
22
  6
Continuous
 62
     4
370
    25
100
AcDbLine
 10
3.900002770125859
 20
58.40000278502701
 30
0.0
 11
29.70000315457582
 21
58.40000278502701
 31
0.0
  0
LINE
  5
48E
330
1F
100
AcDbEntity
  8
22
  6
Continuous
 62
     4
370
    25
100
AcDbLine
 10
28.30000313371419
 20
56.90000276267526
 30
0.0
 11
28.70000313967466
 21
58.40000278502701
 31
0.0
  0
LINE
  5
48F
330
1F
100
AcDbEntity
  8
22
  6
Continuous
 62
     4
370
    25
100
AcDbLine
 10
29.10000314563512
 20
56.90000276267526
 30
0.0
 11
28.70000313967466
 21
58.40000278502701
 31
0.0
  0
LINE
  5
490
330
1F
100
AcDbEntity
  8
22
  6
Continuous
 62
     4
370
    25
100
AcDbLine
 10
28.70000313967466
 20
46.40000260621306
 30
0.0
 11
28.70000313967466
 21
58.40000278502701
 31
0.0
  0
LINE
  5
491
330
1F
100
AcDbEntity
  8
22
  6
Continuous
 62
     4
370
    25
100
AcDbLine
 10
28.70000313967466
 20
46.40000260621306
 30
0.0
 11
28.30000313371419
 21
47.90000262856481
 31
0.0
  0
LINE
  5
492
330
1F
100
AcDbEntity
  8
22
  6
Continuous
 62
     4
370
    25
100
AcDbLine
 10
28.70000313967466
 20
46.40000260621306
 30
0.0
 11
29.10000314563512
 21
47.90000262856481
 31
0.0
  0
LINE
  5
493
330
1F
100
AcDbEntity
  8
22
  6
Continuous
 62
     4
370
    25
100
AcDbLine
 10
3.900002770125859
 20
46.40000260621306
 30
0.0
 11
29.70000315457582
 21
46.40000260621306
 31
0.0
  0
LINE
  5
494
330
1F
100
AcDbEntity
  8
22
  6
Continuous
 62
     4
370
    25
100
AcDbLine
 10
28.30000313371419
 20
44.90000258386132
 30
0.0
 11
28.70000313967466
 21
46.40000260621306
 31
0.0
  0
LINE
  5
495
330
1F
100
AcDbEntity
  8
22
  6
Continuous
 62
     4
370
    25
100
AcDbLine
 10
29.10000314563512
 20
44.90000258386132
 30
0.0
 11
28.70000313967466
 21
46.40000260621306
 31
0.0
  0
LINE
  5
496
330
1F
100
AcDbEntity
  8
22
  6
Continuous
 62
     4
370
    25
100
AcDbLine
 10
28.70000313967466
 20
-13.59999828785661
 30
0.0
 11
28.70000313967466
 21
46.40000260621306
 31
0.0
  0
LINE
  5
497
330
1F
100
AcDbEntity
  8
22
  6
Continuous
 62
     4
370
    25
100
AcDbLine
 10
28.70000313967466
 20
-13.59999828785661
 30
0.0
 11
28.30000313371419
 21
-12.09999826550487
 31
0.0
  0
LINE
  5
498
330
1F
100
AcDbEntity
  8
22
  6
Continuous
 62
     4
370
    25
100
AcDbLine
 10
28.70000313967466
 20
-13.59999828785661
 30
0.0
 11
29.10000314563512
 21
-12.09999826550487
 31
0.0
  0
LINE
  5
499
330
1F
100
AcDbEntity
  8
22
  6
Continuous
 62
     4
370
    25
100
AcDbLine
 10
3.900002770125859
 20
-13.59999828785661
 30
0.0
 11
29.70000315457582
 21
-13.59999828785661
 31
0.0
  0
LINE
  5
49A
330
1F
100
AcDbEntity
  8
22
  6
Continuous
 62
     4
370
    25
100
AcDbLine
 10
28.30000313371419
 20
-15.09999831020835
 30
0.0
 11
28.70000313967466
 21
-13.59999828785661
 31
0.0
  0
LINE
  5
49B
330
1F
100
AcDbEntity
  8
22
  6
Continuous
 62
     4
370
    25
100
AcDbLine
 10
29.10000314563512
 20
-15.09999831020835
 30
0.0
 11
28.70000313967466
 21
-13.59999828785661
 31
0.0
  0
LINE
  5
49C
330
1F
100
AcDbEntity
  8
22
  6
Continuous
 62
     4
370
    25
100
AcDbLine
 10
28.70000313967466
 20
-25.59999846667054
 30
0.0
 11
28.70000313967466
 21
-13.59999828785661
 31
0.0
  0
LINE
  5
49D
330
1F
100
AcDbEntity
  8
22
  6
Continuous
 62
     4
370
    25
100
AcDbLine
 10
28.70000313967466
 20
-25.59999846667054
 30
0.0
 11
28.30000313371419
 21
-24.0999984443188
 31
0.0
  0
LINE
  5
49E
330
1F
100
AcDbEntity
  8
22
  6
Continuous
 62
     4
370
    25
100
AcDbLine
 10
28.70000313967466
 20
-25.59999846667054
 30
0.0
 11
29.10000314563512
 21
-24.0999984443188
 31
0.0
  0
LINE
  5
49F
330
1F
100
AcDbEntity
  8
22
  6
Continuous
 62
     4
370
    25
100
AcDbLine
 10
3.900002770125859
 20
-25.59999846667054
 30
0.0
 11
29.70000315457582
 21
-25.59999846667054
 31
0.0
  0
LINE
  5
4A0
330
1F
100
AcDbEntity
  8
22
  6
Continuous
 62
     4
370
    25
100
AcDbLine
 10
23.10000305622815
 20
70.00000295788048
 30
0.0
 11
23.4000030606985
 21
71.46000301778314
 31
0.0
  0
LINE
  5
4A1
330
1F
100
AcDbEntity
  8
22
  6
Continuous
 62
     4
370
    25
100
AcDbLine
 10
23.10000305622815
 20
70.00000295788048
 30
0.0
 11
24.10000307112931
 21
71.10000297427176
 31
0.0
  0
LINE
  5
4A2
330
1F
100
AcDbEntity
  8
22
  6
Continuous
 62
     4
370
    25
100
AcDbLine
 10
23.10000305622815
 20
70.00000295788048
 30
0.0
 11
27.30000311881303
 21
78.40000308305024
 31
0.0
  0
LINE
  5
4A3
330
1F
100
AcDbEntity
  8
22
  6
Continuous
 62
     4
370
    25
100
AcDbLine
 10
11.30000288039445
 20
78.40000308305024
 30
0.0
 11
27.30000311881303
 21
78.40000308305024
 31
0.0
  0
LINE
  5
4A4
330
1F
100
AcDbEntity
  8
22
  6
Continuous
 62
     4
370
    25
100
AcDbLine
 10
-3.299997337162502
 20
-42.0999987125397
 30
0.0
 11
-3.299997337162502
 21
-26.09999847412112
 31
0.0
  0
LINE
  5
4A5
330
1F
100
AcDbEntity
  8
22
  6
Continuous
 62
     4
370
    25
100
AcDbLine
 10
-3.299997337162502
 20
-41.09999869763854
 30
0.0
 11
-4.799997359514244
 21
-40.69999869167808
 31
0.0
  0
LINE
  5
4A6
330
1F
100
AcDbEntity
  8
22
  6
Continuous
 62
     4
370
    25
100
AcDbLine
 10
-4.799997359514244
 20
-41.499998703599
 30
0.0
 11
-3.299997337162502
 21
-41.09999869763854
 31
0.0
  0
LINE
  5
4A7
330
1F
100
AcDbEntity
  8
22
  6
Continuous
 62
     4
370
    25
100
AcDbLine
 10
-10.29999744147063
 20
-41.09999869763854
 30
0.0
 11
-3.299997337162502
 21
-41.09999869763854
 31
0.0
  0
LINE
  5
4A8
330
1F
100
AcDbEntity
  8
22
  6
Continuous
 62
     4
370
    25
100
AcDbLine
 10
-3.299997337162502
 20
-41.09999869763854
 30
0.0
 11
1.700002737343304
 21
-41.09999869763854
 31
0.0
  0
LINE
  5
4A9
330
1F
100
AcDbEntity
  8
22
  6
Continuous
 62
     4
370
    25
100
AcDbLine
 10
1.700002737343304
 20
-41.09999869763854
 30
0.0
 11
3.200002759695046
 21
-40.69999869167808
 31
0.0
  0
LINE
  5
4AA
330
1F
100
AcDbEntity
  8
22
  6
Continuous
 62
     4
370
    25
100
AcDbLine
 10
3.200002759695046
 20
-41.499998703599
 30
0.0
 11
1.700002737343304
 21
-41.09999869763854
 31
0.0
  0
LINE
  5
4AB
330
1F
100
AcDbEntity
  8
22
  6
Continuous
 62
     4
370
    25
100
AcDbLine
 10
1.700002737343304
 20
-41.09999869763854
 30
0.0
 11
4.700002782046788
 21
-41.09999869763854
 31
0.0
  0
LINE
  5
4AC
330
1F
100
AcDbEntity
  8
22
  6
Continuous
 62
     4
370
    25
100
AcDbLine
 10
1.700002737343304
 20
-42.0999987125397
 30
0.0
 11
1.700002737343304
 21
-27.99999850243333
 31
0.0
  0
LINE
  5
4AD
330
1F
100
AcDbEntity
  8
22
  6
Continuous
 62
     4
370
    25
100
AcDbLine
 10
-3.299997337162502
 20
-49.09999881684783
 30
0.0
 11
-3.299997337162502
 21
-26.09999847412112
 31
0.0
  0
LINE
  5
4AE
330
1F
100
AcDbEntity
  8
22
  6
Continuous
 62
     4
370
    25
100
AcDbLine
 10
-3.299997337162502
 20
-48.09999880194667
 30
0.0
 11
-4.799997359514244
 21
-47.6999987959862
 31
0.0
  0
LINE
  5
4AF
330
1F
100
AcDbEntity
  8
22
  6
Continuous
 62
     4
370
    25
100
AcDbLine
 10
-4.799997359514244
 20
-48.49999880790713
 30
0.0
 11
-3.299997337162502
 21
-48.09999880194667
 31
0.0
  0
LINE
  5
4B0
330
1F
100
AcDbEntity
  8
22
  6
Continuous
 62
     4
370
    25
100
AcDbLine
 10
-10.29999744147063
 20
-48.09999880194667
 30
0.0
 11
-3.299997337162502
 21
-48.09999880194667
 31
0.0
  0
LINE
  5
4B1
330
1F
100
AcDbEntity
  8
22
  6
Continuous
 62
     4
370
    25
100
AcDbLine
 10
-3.299997337162502
 20
-48.09999880194667
 30
0.0
 11
2.900002755224699
 21
-48.09999880194667
 31
0.0
  0
LINE
  5
4B2
330
1F
100
AcDbEntity
  8
22
  6
Continuous
 62
     4
370
    25
100
AcDbLine
 10
2.900002755224699
 20
-48.09999880194667
 30
0.0
 11
4.400002777576439
 21
-47.6999987959862
 31
0.0
  0
LINE
  5
4B3
330
1F
100
AcDbEntity
  8
22
  6
Continuous
 62
     4
370
    25
100
AcDbLine
 10
4.400002777576439
 20
-48.49999880790713
 30
0.0
 11
2.900002755224699
 21
-48.09999880194667
 31
0.0
  0
LINE
  5
4B4
330
1F
100
AcDbEntity
  8
22
  6
Continuous
 62
     4
370
    25
100
AcDbLine
 10
2.900002755224699
 20
-48.09999880194667
 30
0.0
 11
5.900002799928181
 21
-48.09999880194667
 31
0.0
  0
LINE
  5
4B5
330
1F
100
AcDbEntity
  8
22
  6
Continuous
 62
     4
370
    25
100
AcDbLine
 10
2.900002755224699
 20
-49.09999881684783
 30
0.0
 11
2.900002755224699
 21
-42.0999987125397
 31
0.0
  0
LINE
  5
4B6
330
1F
100
AcDbEntity
  8
22
  6
Continuous
 62
     4
370
    25
100
AcDbLine
 10
2.900002755224699
 20
-40.09999868273738
 30
0.0
 11
2.900002755224699
 21
-27.99999850243333
 31
0.0
  0
LINE
  5
4B7
330
1F
100
AcDbEntity
  8
22
  6
Continuous
 62
     4
370
    25
100
AcDbLine
 10
-5.099997363984592
 20
-26.89999848604205
 30
0.0
 11
-3.799997344613082
 21
-26.09999847412112
 31
0.0
  0
LINE
  5
4B8
330
1F
100
AcDbEntity
  8
22
  6
Continuous
 62
     4
370
    25
100
AcDbLine
 10
-4.59999735653401
 20
-27.39999849349263
 30
0.0
 11
-3.799997344613082
 21
-26.09999847412112
 31
0.0
  0
LINE
  5
4B9
330
1F
100
AcDbEntity
  8
22
  6
Continuous
 62
     4
370
    25
100
AcDbLine
 10
-18.7999975681305
 20
-41.09999869763854
 30
0.0
 11
-3.799997344613082
 21
-26.09999847412112
 31
0.0
  0
LINE
  5
4BA
330
1F
100
AcDbEntity
  8
22
  6
Continuous
 62
     4
370
    25
100
AcDbLine
 10
-38.79999786615372
 20
-41.09999869763854
 30
0.0
 11
-18.7999975681305
 21
-41.09999869763854
 31
0.0
  0
LINE
  5
4BB
330
1F
100
AcDbEntity
  8
22
  6
Continuous
 62
     4
370
    25
100
AcDbLine
 10
-96.81999995142225
 20
-72.19999916106465
 30
0.0
 11
-96.81999995142225
 21
-67.19999908655885
 31
0.0
  0
LINE
  5
4BC
330
1F
100
AcDbEntity
  8
22
  6
Continuous
 62
     4
370
    25
100
AcDbLine
 10
-96.81999995142225
 20
-68.19999910146001
 30
0.0
 11
-98.31999997377399
 21
-67.79999909549954
 31
0.0
  0
LINE
  5
4BD
330
1F
100
AcDbEntity
  8
22
  6
Continuous
 62
     4
370
    25
100
AcDbLine
 10
-98.31999997377399
 20
-68.59999910742047
 30
0.0
 11
-96.81999995142225
 21
-68.19999910146001
 31
0.0
  0
LINE
  5
4BE
330
1F
100
AcDbEntity
  8
22
  6
Continuous
 62
     4
370
    25
100
AcDbLine
 10
-96.81999995142225
 20
-68.19999910146001
 30
0.0
 11
-99.81999999612573
 21
-68.19999910146001
 31
0.0
  0
LINE
  5
4BF
330
1F
100
AcDbEntity
  8
22
  6
Continuous
 62
     4
370
    25
100
AcDbLine
 10
-96.81999995142225
 20
-68.19999910146001
 30
0.0
 11
-91.23999994456771
 21
-68.19999910146001
 31
0.0
  0
LINE
  5
4C0
330
1F
100
AcDbEntity
  8
22
  6
Continuous
 62
     4
370
    25
100
AcDbLine
 10
-91.23999994456771
 20
-68.19999910146001
 30
0.0
 11
-89.73999992221597
 21
-67.79999909549954
 31
0.0
  0
LINE
  5
4C1
330
1F
100
AcDbEntity
  8
22
  6
Continuous
 62
     4
370
    25
100
AcDbLine
 10
-89.73999992221597
 20
-68.59999910742047
 30
0.0
 11
-91.23999994456771
 21
-68.19999910146001
 31
0.0
  0
LINE
  5
4C2
330
1F
100
AcDbEntity
  8
22
  6
Continuous
 62
     4
370
    25
100
AcDbLine
 10
-91.23999994456771
 20
-68.19999910146001
 30
0.0
 11
-79.23999976575378
 21
-68.19999910146001
 31
0.0
  0
LINE
  5
4C3
330
1F
100
AcDbEntity
  8
22
  6
Continuous
 62
     4
370
    25
100
AcDbLine
 10
-91.23999994456771
 20
-67.19999908655885
 30
0.0
 11
-91.23999994456771
 21
-72.19999916106465
 31
0.0
  0
LINE
  5
4C4
330
1F
100
AcDbEntity
  8
22
  6
Continuous
 62
     4
370
    25
100
AcDbLine
 10
-132.2999992594123
 20
-72.19999916106465
 30
0.0
 11
-132.2999992594123
 21
-60.19999898225072
 31
0.0
  0
LINE
  5
4C5
330
1F
100
AcDbEntity
  8
22
  6
Continuous
 62
     4
370
    25
100
AcDbLine
 10
-54.55999565958975
 20
-72.19999916106465
 30
0.0
 11
-54.55999565958975
 21
-60.19999898225072
 31
0.0
  0
LINE
  5
4C6
330
1F
100
AcDbEntity
  8
22
  6
Continuous
 62
     4
370
    25
100
AcDbLine
 10
-53.29999560266731
 20
-72.19999916106465
 30
0.0
 11
-53.29999560266731
 21
-60.19999898225072
 31
0.0
  0
LINE
  5
4C7
330
1F
100
AcDbEntity
  8
22
  6
Continuous
 62
     4
370
    25
100
AcDbLine
 10
-134.7999992966652
 20
-72.19999916106465
 30
0.0
 11
-134.7999992966652
 21
-53.19999887794259
 31
0.0
  0
LINE
  5
4C8
330
1F
100
AcDbEntity
  8
22
  6
Continuous
 62
     4
370
    25
100
AcDbLine
 10
-132.2999992594123
 20
-72.19999916106465
 30
0.0
 11
-132.2999992594123
 21
-53.19999887794259
 31
0.0
  0
LINE
  5
4C9
330
1F
100
AcDbEntity
  8
22
  6
Continuous
 62
     4
370
    25
100
AcDbLine
 10
-53.29999808222057
 20
-72.19999916106465
 30
0.0
 11
-53.29999808222057
 21
-53.19999887794259
 31
0.0
  0
LINE
  5
4CA
330
1F
100
AcDbEntity
  8
22
  6
Continuous
 62
     4
370
    25
100
AcDbLine
 10
-50.79999804496766
 20
-72.19999916106465
 30
0.0
 11
-50.79999804496766
 21
-62.19999901205304
 31
0.0
  0
LINE
  5
4CB
330
1F
100
AcDbEntity
  8
22
  6
Continuous
 62
     4
370
    25
100
AcDbLine
 10
-134.7999992966652
 20
-72.19999916106465
 30
0.0
 11
-134.7999992966652
 21
-46.19999877363446
 31
0.0
  0
LINE
  5
4CC
330
1F
100
AcDbEntity
  8
22
  6
Continuous
 62
     4
370
    25
100
AcDbLine
 10
-50.79999804496766
 20
-72.19999916106465
 30
0.0
 11
-50.79999804496766
 21
-62.19999901205304
 31
0.0
  0
LINE
  5
4CD
330
1F
100
AcDbEntity
  8
22
  6
Continuous
 62
     4
370
    25
100
AcDbLine
 10
-134.7999992966652
 20
-105.199999652803
 30
0.0
 11
-134.7999992966652
 21
-79.39999926835301
 31
0.0
  0
LINE
  5
4CE
330
1F
100
AcDbEntity
  8
22
  6
Continuous
 62
     4
370
    25
100
AcDbLine
 10
-134.7999992966652
 20
-104.1999996379018
 30
0.0
 11
-133.2999992743134
 21
-103.7999996319413
 31
0.0
  0
LINE
  5
4CF
330
1F
100
AcDbEntity
  8
22
  6
Continuous
 62
     4
370
    25
100
AcDbLine
 10
-133.2999992743134
 20
-104.5999996438623
 30
0.0
 11
-134.7999992966652
 21
-104.1999996379018
 31
0.0
  0
LINE
  5
4D0
330
1F
100
AcDbEntity
  8
22
  6
Continuous
 62
     4
370
    25
100
AcDbLine
 10
-134.7999992966652
 20
-104.1999996379018
 30
0.0
 11
-122.7999991178512
 21
-104.1999996379018
 31
0.0
  0
LINE
  5
4D1
330
1F
100
AcDbEntity
  8
22
  6
Continuous
 62
     4
370
    25
100
AcDbLine
 10
-122.7999991178512
 20
-104.1999996379018
 30
0.0
 11
-124.299999140203
 21
-103.7999996319413
 31
0.0
  0
LINE
  5
4D2
330
1F
100
AcDbEntity
  8
22
  6
Continuous
 62
     4
370
    25
100
AcDbLine
 10
-124.299999140203
 20
-104.5999996438623
 30
0.0
 11
-122.7999991178512
 21
-104.1999996379018
 31
0.0
  0
LINE
  5
4D3
330
1F
100
AcDbEntity
  8
22
  6
Continuous
 62
     4
370
    25
100
AcDbLine
 10
-122.7999991178512
 20
-105.199999652803
 30
0.0
 11
-122.7999991178512
 21
-99.5999995693565
 31
0.0
  0
LINE
  5
4D4
330
1F
100
AcDbEntity
  8
22
  6
Continuous
 62
     4
370
    25
100
AcDbLine
 10
-122.7999991178512
 20
-104.1999996379018
 30
0.0
 11
-121.2999990954995
 21
-103.7999996319413
 31
0.0
  0
LINE
  5
4D5
330
1F
100
AcDbEntity
  8
22
  6
Continuous
 62
     4
370
    25
100
AcDbLine
 10
-121.2999990954995
 20
-104.5999996438623
 30
0.0
 11
-122.7999991178512
 21
-104.1999996379018
 31
0.0
  0
LINE
  5
4D6
330
1F
100
AcDbEntity
  8
22
  6
Continuous
 62
     4
370
    25
100
AcDbLine
 10
-122.7999991178512
 20
-104.1999996379018
 30
0.0
 11
-62.7999982237816
 21
-104.1999996379018
 31
0.0
  0
LINE
  5
4D7
330
1F
100
AcDbEntity
  8
22
  6
Continuous
 62
     4
370
    25
100
AcDbLine
 10
-62.7999982237816
 20
-104.1999996379018
 30
0.0
 11
-64.29999824613333
 21
-103.7999996319413
 31
0.0
  0
LINE
  5
4D8
330
1F
100
AcDbEntity
  8
22
  6
Continuous
 62
     4
370
    25
100
AcDbLine
 10
-64.29999824613333
 20
-104.5999996438623
 30
0.0
 11
-62.7999982237816
 21
-104.1999996379018
 31
0.0
  0
LINE
  5
4D9
330
1F
100
AcDbEntity
  8
22
  6
Continuous
 62
     4
370
    25
100
AcDbLine
 10
-62.7999982237816
 20
-105.199999652803
 30
0.0
 11
-62.7999982237816
 21
-99.5999995693565
 31
0.0
  0
LINE
  5
4DA
330
1F
100
AcDbEntity
  8
22
  6
Continuous
 62
     4
370
    25
100
AcDbLine
 10
-62.7999982237816
 20
-104.1999996379018
 30
0.0
 11
-61.29999820142986
 21
-103.7999996319413
 31
0.0
  0
LINE
  5
4DB
330
1F
100
AcDbEntity
  8
22
  6
Continuous
 62
     4
370
    25
100
AcDbLine
 10
-61.29999820142986
 20
-104.5999996438623
 30
0.0
 11
-62.7999982237816
 21
-104.1999996379018
 31
0.0
  0
LINE
  5
4DC
330
1F
100
AcDbEntity
  8
22
  6
Continuous
 62
     4
370
    25
100
AcDbLine
 10
-62.7999982237816
 20
-104.1999996379018
 30
0.0
 11
-50.79999804496766
 21
-104.1999996379018
 31
0.0
  0
LINE
  5
4DD
330
1F
100
AcDbEntity
  8
22
  6
Continuous
 62
     4
370
    25
100
AcDbLine
 10
-50.79999804496766
 20
-104.1999996379018
 30
0.0
 11
-52.29999806731941
 21
-103.7999996319413
 31
0.0
  0
LINE
  5
4DE
330
1F
100
AcDbEntity
  8
22
  6
Continuous
 62
     4
370
    25
100
AcDbLine
 10
-52.29999806731941
 20
-104.5999996438623
 30
0.0
 11
-50.79999804496766
 21
-104.1999996379018
 31
0.0
  0
LINE
  5
4DF
330
1F
100
AcDbEntity
  8
22
  6
Continuous
 62
     4
370
    25
100
AcDbLine
 10
-50.79999804496766
 20
-105.199999652803
 30
0.0
 11
-50.79999804496766
 21
-79.39999926835301
 31
0.0
  0
LINE
  5
4E0
330
1F
100
AcDbEntity
  8
22
  6
Continuous
 62
     4
370
    25
100
AcDbLine
 10
-102.3999988138676
 20
-72.19999916106465
 30
0.0
 11
-102.6999988183379
 21
-70.739999101162
 31
0.0
  0
LINE
  5
4E1
330
1F
100
AcDbEntity
  8
22
  6
Continuous
 62
     4
370
    25
100
AcDbLine
 10
-102.3999988138676
 20
-72.19999916106465
 30
0.0
 11
-103.3999988287687
 21
-71.09999914467338
 31
0.0
  0
LINE
  5
4E2
330
1F
100
AcDbEntity
  8
22
  6
Continuous
 62
     4
370
    25
100
AcDbLine
 10
-102.3999988138676
 20
-72.19999916106465
 30
0.0
 11
-107.3999988883734
 21
-62.19999901205304
 31
0.0
  0
LINE
  5
4E3
330
1F
100
AcDbEntity
  8
32
  6
Continuous
 62
     4
370
    25
100
AcDbLine
 10
-7.466664016246803
 20
-94.66999930351972
 30
0.0
 11
-7.466664016246803
 21
-89.97999926547209
 31
0.0
  0
ARC
  5
4E4
330
1F
100
AcDbEntity
  8
32
  6
Continuous
 62
     4
370
    25
100
AcDbCircle
 10
-8.996661661881088
 20
-90.08108516021062
 30
0.0
 40
1.533333347241083
100
AcDbArc
 50
3.779999923706063
 51
73.70000000000016
  0
LINE
  5
4E5
330
1F
100
AcDbEntity
  8
32
  6
Continuous
 62
     4
370
    25
100
AcDbLine
 10
-8.566305643792326
 20
-88.60938381433357
 30
0.0
 11
-10.00630574392813
 21
-88.10271713892489
 31
0.0
  0
ARC
  5
4E6
330
1F
100
AcDbEntity
  8
32
  6
Continuous
 62
     4
370
    25
100
AcDbCircle
 10
-9.89824384510705
 20
-88.00545693119776
 30
0.0
 40
0.1466666702429453
100
AcDbArc
 50
111.909997558594
 51
222.330004882813
  0
LINE
  5
4E7
330
1F
100
AcDbEntity
  8
32
  6
Continuous
 62
     4
370
    25
100
AcDbLine
 10
-9.953338114080776
 20
-87.8708888070387
 30
0.0
 11
-9.473338080702174
 21
-87.63755547072513
 31
0.0
  0
LINE
  5
4E8
330
1F
100
AcDbEntity
  8
32
  6
Continuous
 62
     4
370
    25
100
AcDbLine
 10
-9.473338080702174
 20
-87.63755547072513
 30
0.0
 11
-9.473338080702174
 21
-87.56088880038284
 31
0.0
  0
ARC
  5
4E9
330
1F
100
AcDbEntity
  8
32
  6
Continuous
 62
     4
370
    25
100
AcDbCircle
 10
-9.956211418261642
 20
-87.58197150121437
 30
0.0
 40
0.4833333636323616
100
AcDbArc
 50
2.500000000000005
 51
85.55000000000018
  0
ARC
  5
4EA
330
1F
100
AcDbEntity
  8
32
  6
Continuous
 62
     4
370
    25
100
AcDbCircle
 10
-9.903317134301542
 20
-87.99996359684062
 30
0.0
 40
0.9000000427166626
100
AcDbArc
 50
90.97999877929706
 51
246.6800048828131
  0
LINE
  5
4EB
330
1F
100
AcDbEntity
  8
32
  6
Continuous
 62
     4
370
    25
100
AcDbLine
 10
-10.25959729011408
 20
-88.82644077587474
 30
0.0
 11
-8.636263946548617
 21
-89.39644080557773
 31
0.0
  0
ARC
  5
4EC
330
1F
100
AcDbEntity
  8
32
  6
Continuous
 62
     4
370
    25
100
AcDbCircle
 10
-8.836263920719936
 20
-89.96310750502694
 30
0.0
 40
0.600000001986821
100
AcDbArc
 50
0.0
 51
70.57999877929703
  0
LINE
  5
4ED
330
1F
100
AcDbEntity
  8
32
  6
Continuous
 62
     4
370
    25
100
AcDbLine
 10
-8.236769520092537
 20
-89.96391026535248
 30
0.0
 11
-8.236769520092537
 21
-95.20391051052626
 31
0.0
  0
ARC
  5
4EE
330
1F
100
AcDbEntity
  8
32
  6
Continuous
 62
     4
370
    25
100
AcDbCircle
 10
-8.003436183779023
 20
-95.20391066303054
 30
0.0
 40
0.2333333363135655
100
AcDbArc
 50
180.0000000000004
 51
270.0000000000006
  0
LINE
  5
4EF
330
1F
100
AcDbEntity
  8
32
  6
Continuous
 62
     4
370
    25
100
AcDbLine
 10
-8.003436412535454
 20
-95.43724399934399
 30
0.0
 11
-6.936769698185071
 21
-95.43724399934399
 31
0.0
  0
ARC
  5
4F0
330
1F
100
AcDbEntity
  8
32
  6
Continuous
 62
     4
370
    25
100
AcDbCircle
 10
-6.93676946942864
 20
-95.20391066303054
 30
0.0
 40
0.2333333363135655
100
AcDbArc
 50
270.0000000000006
 51
0.0000000000008142
  0
LINE
  5
4F1
330
1F
100
AcDbEntity
  8
32
  6
Continuous
 62
     4
370
    25
100
AcDbLine
 10
-6.703436133115275
 20
-95.20391096803911
 30
0.0
 11
-6.703436133115275
 21
-89.96391072286534
 31
0.0
  0
ARC
  5
4F2
330
1F
100
AcDbEntity
  8
32
  6
Continuous
 62
     4
370
    25
100
AcDbCircle
 10
-6.103942162610291
 20
-89.96310811417855
 30
0.0
 40
0.600000001986821
100
AcDbArc
 50
109.4199951171877
 51
180.0000000000004
  0
LINE
  5
4F3
330
1F
100
AcDbEntity
  8
32
  6
Continuous
 62
     4
370
    25
100
AcDbLine
 10
-6.303942136781483
 20
-89.39644102257544
 30
0.0
 11
-4.68060879321602
 21
-88.82644099287246
 31
0.0
  0
ARC
  5
4F4
330
1F
100
AcDbEntity
  8
32
  6
Continuous
 62
     4
370
    25
100
AcDbCircle
 10
-5.036887328496729
 20
-87.99996311525672
 30
0.0
 40
0.9000000427166626
100
AcDbArc
 50
293.3199951171881
 51
89.02001953125101
  0
ARC
  5
4F5
330
1F
100
AcDbEntity
  8
32
  6
Continuous
 62
     4
370
    25
100
AcDbCircle
 10
-4.983991882630964
 20
-87.58197106940462
 30
0.0
 40
0.4833333636323616
100
AcDbArc
 50
94.45000000000022
 51
177.5000000000004
  0
LINE
  5
4F6
330
1F
100
AcDbEntity
  8
32
  6
Continuous
 62
     4
370
    25
100
AcDbLine
 10
-5.46686520641089
 20
-87.560888052972
 30
0.0
 11
-5.46686520641089
 21
-87.6375547233143
 31
0.0
  0
LINE
  5
4F7
330
1F
100
AcDbEntity
  8
32
  6
Continuous
 62
     4
370
    25
100
AcDbLine
 10
-5.46686520641089
 20
-87.6375547233143
 30
0.0
 11
-4.986865173032289
 21
-87.87088805962786
 31
0.0
  0
ARC
  5
4F8
330
1F
100
AcDbEntity
  8
32
  6
Continuous
 62
     4
370
    25
100
AcDbCircle
 10
-5.04195924835
 20
-88.0054559711856
 30
0.0
 40
0.1466666702429453
100
AcDbArc
 50
317.6699951171883
 51
68.08999023437599
  0
LINE
  5
4F9
330
1F
100
AcDbEntity
  8
32
  6
Continuous
 62
     4
370
    25
100
AcDbLine
 10
-4.933897053730259
 20
-88.1027162978832
 30
0.0
 11
-6.373897153866064
 21
-88.60938297329189
 31
0.0
  0
ARC
  5
4FA
330
1F
100
AcDbEntity
  8
32
  6
Continuous
 62
     4
370
    25
100
AcDbCircle
 10
-5.94354209766637
 20
-90.08108460044492
 30
0.0
 40
1.533333347241083
100
AcDbArc
 50
106.3000000000002
 51
176.2199951171879
  0
LINE
  5
4FB
330
1F
100
AcDbEntity
  8
32
  6
Continuous
 62
     4
370
    25
100
AcDbLine
 10
-9.769997446835049
 20
-87.09999938309193
 30
0.0
 11
-5.086663910349216
 21
-87.09999938309193
 31
0.0
  0
LINE
  5
4FC
330
1F
100
AcDbEntity
  8
32
  6
Continuous
 62
     4
370
    25
100
AcDbLine
 10
-9.466667465368964
 20
-86.59999937564135
 30
0.0
 11
-9.466667465368964
 21
-82.5999993160367
 31
0.0
  0
LINE
  5
4FD
330
1F
100
AcDbEntity
  8
32
  6
Continuous
 62
     4
370
    25
100
AcDbLine
 10
-9.466667465368964
 20
-83.59999933093786
 30
0.0
 11
-11.46666749517129
 21
-83.29999932646751
 31
0.0
  0
LINE
  5
4FE
330
1F
100
AcDbEntity
  8
32
  6
Continuous
 62
     4
370
    25
100
AcDbLine
 10
-11.46666749517129
 20
-83.29999932646751
 30
0.0
 11
-11.46666749517129
 21
-83.89999933540821
 31
0.0
  0
LINE
  5
4FF
330
1F
100
AcDbEntity
  8
32
  6
Continuous
 62
     4
370
    25
100
AcDbLine
 10
-11.46666749517129
 20
-83.89999933540821
 30
0.0
 11
-9.466667465368964
 21
-83.59999933093786
 31
0.0
  0
LINE
  5
500
330
1F
100
AcDbEntity
  8
32
  6
Continuous
 62
     4
370
    25
100
AcDbLine
 10
-9.466667465368964
 20
-83.59999933093786
 30
0.0
 11
-12.46666751007245
 21
-83.59999933093786
 31
0.0
  0
LINE
  5
501
330
1F
100
AcDbEntity
  8
32
  6
Continuous
 62
     4
370
    25
100
AcDbLine
 10
-9.466667465368964
 20
-83.59999933093786
 30
0.0
 11
-5.466667405764319
 21
-83.59999933093786
 31
0.0
  0
LINE
  5
502
330
1F
100
AcDbEntity
  8
32
  6
Continuous
 62
     4
370
    25
100
AcDbLine
 10
-5.466667405764319
 20
-83.59999933093786
 30
0.0
 11
-3.466667375961997
 21
-83.29999932646751
 31
0.0
  0
LINE
  5
503
330
1F
100
AcDbEntity
  8
32
  6
Continuous
 62
     4
370
    25
100
AcDbLine
 10
-3.466667375961997
 20
-83.29999932646751
 30
0.0
 11
-3.466667375961997
 21
-83.89999933540821
 31
0.0
  0
LINE
  5
504
330
1F
100
AcDbEntity
  8
32
  6
Continuous
 62
     4
370
    25
100
AcDbLine
 10
-3.466667375961997
 20
-83.89999933540821
 30
0.0
 11
-5.466667405764319
 21
-83.59999933093786
 31
0.0
  0
LINE
  5
505
330
1F
100
AcDbEntity
  8
32
  6
Continuous
 62
     4
370
    25
100
AcDbLine
 10
-5.466667405764319
 20
-83.59999933093786
 30
0.0
 11
-2.466667361060836
 21
-83.59999933093786
 31
0.0
  0
LINE
  5
506
330
1F
100
AcDbEntity
  8
32
  6
Continuous
 62
     4
370
    25
100
AcDbLine
 10
-5.466667405764319
 20
-82.5999993160367
 30
0.0
 11
-5.466667405764319
 21
-86.59999937564135
 31
0.0
  0
LINE
  5
507
330
1F
100
AcDbEntity
  8
32
  6
Continuous
 62
     4
370
    25
100
AcDbLine
 10
-7.799997404217724
 20
-86.59999937564135
 30
0.0
 11
-8.166664418081453
 21
-85.03332931598023
 31
0.0
  0
LINE
  5
508
330
1F
100
AcDbEntity
  8
32
  6
Continuous
 62
     4
370
    25
100
AcDbLine
 10
-7.799997404217724
 20
-86.59999937564135
 30
0.0
 11
-8.96666745791838
 21
-84.59999934583902
 31
0.0
  0
LINE
  5
509
330
1F
100
AcDbEntity
  8
32
  6
Continuous
 62
     4
370
    25
100
AcDbLine
 10
-11.73333753546089
 20
-79.89999927580357
 30
0.0
 11
-12.90000758916155
 21
-77.89999924600124
 31
0.0
  0
LINE
  5
50A
330
1F
100
AcDbEntity
  8
32
  6
Continuous
 62
     4
370
    25
100
AcDbLine
 10
-21.23333748628706
 20
-77.89999924600124
 30
0.0
 11
-12.90000758916155
 21
-77.89999924600124
 31
0.0
  0
LINE
  5
50B
330
1F
100
AcDbEntity
  8
32
  6
Continuous
 62
     4
370
    25
100
AcDbLine
 10
-10.79999744892121
 20
-86.59999937564135
 30
0.0
 11
-10.79999744892121
 21
-84.39999934285879
 31
0.0
  0
LINE
  5
50C
330
1F
100
AcDbEntity
  8
32
  6
Continuous
 62
     4
370
    25
100
AcDbLine
 10
-10.79999744892121
 20
-82.79999931901693
 30
0.0
 11
-10.79999744892121
 21
-76.59999922662973
 31
0.0
  0
LINE
  5
50D
330
1F
100
AcDbEntity
  8
32
  6
Continuous
 62
     4
370
    25
100
AcDbLine
 10
-10.79999744892121
 20
-77.5999992415309
 30
0.0
 11
-8.799997419118888
 21
-77.29999923706055
 31
0.0
  0
LINE
  5
50E
330
1F
100
AcDbEntity
  8
32
  6
Continuous
 62
     4
370
    25
100
AcDbLine
 10
-8.799997419118888
 20
-77.89999924600124
 30
0.0
 11
-8.799997419118888
 21
-77.29999923706055
 31
0.0
  0
LINE
  5
50F
330
1F
100
AcDbEntity
  8
32
  6
Continuous
 62
     4
370
    25
100
AcDbLine
 10
-8.799997419118888
 20
-77.89999924600124
 30
0.0
 11
-10.79999744892121
 21
-77.5999992415309
 31
0.0
  0
LINE
  5
510
330
1F
100
AcDbEntity
  8
32
  6
Continuous
 62
     4
370
    25
100
AcDbLine
 10
-10.79999744892121
 20
-77.5999992415309
 30
0.0
 11
-4.133327122529302
 21
-77.5999992415309
 31
0.0
  0
LINE
  5
511
330
1F
100
AcDbEntity
  8
32
  6
Continuous
 62
     4
370
    25
100
AcDbLine
 10
-4.133327122529302
 20
-77.5999992415309
 30
0.0
 11
-6.133327152331624
 21
-77.29999923706055
 31
0.0
  0
LINE
  5
512
330
1F
100
AcDbEntity
  8
32
  6
Continuous
 62
     4
370
    25
100
AcDbLine
 10
-6.133327152331624
 20
-77.89999924600124
 30
0.0
 11
-6.133327152331624
 21
-77.29999923706055
 31
0.0
  0
LINE
  5
513
330
1F
100
AcDbEntity
  8
32
  6
Continuous
 62
     4
370
    25
100
AcDbLine
 10
-6.133327152331624
 20
-77.89999924600124
 30
0.0
 11
-4.133327122529302
 21
-77.5999992415309
 31
0.0
  0
LINE
  5
514
330
1F
100
AcDbEntity
  8
32
  6
Continuous
 62
     4
370
    25
100
AcDbLine
 10
-4.133327122529302
 20
-86.59999937564135
 30
0.0
 11
-4.133327122529302
 21
-84.39999934285879
 31
0.0
  0
LINE
  5
515
330
1F
100
AcDbEntity
  8
32
  6
Continuous
 62
     4
370
    25
100
AcDbLine
 10
-4.133327122529302
 20
-82.79999931901693
 30
0.0
 11
-4.133327122529302
 21
-76.59999922662973
 31
0.0
  0
LINE
  5
516
330
1F
100
AcDbEntity
  8
32
  6
Continuous
 62
     4
370
    25
100
AcDbLine
 10
-3.633327115078721
 20
-87.09999938309193
 30
0.0
 11
2.366672974328246
 21
-87.09999938309193
 31
0.0
  0
LINE
  5
517
330
1F
100
AcDbEntity
  8
32
  6
Continuous
 62
     4
370
    25
100
AcDbLine
 10
1.066672954956736
 20
-89.09999941289425
 30
0.0
 11
1.366672959427085
 21
-87.09999938309193
 31
0.0
  0
LINE
  5
518
330
1F
100
AcDbEntity
  8
32
  6
Continuous
 62
     4
370
    25
100
AcDbLine
 10
1.066672954956736
 20
-89.09999941289425
 30
0.0
 11
1.666672963897433
 21
-89.09999941289425
 31
0.0
  0
LINE
  5
519
330
1F
100
AcDbEntity
  8
32
  6
Continuous
 62
     4
370
    25
100
AcDbLine
 10
1.666672963897433
 20
-89.09999941289425
 30
0.0
 11
1.366672959427085
 21
-87.09999938309193
 31
0.0
  0
LINE
  5
51A
330
1F
100
AcDbEntity
  8
32
  6
Continuous
 62
     4
370
    25
100
AcDbLine
 10
1.366672959427085
 20
-95.43332928021744
 30
0.0
 11
1.366672959427085
 21
-87.09999938309193
 31
0.0
  0
LINE
  5
51B
330
1F
100
AcDbEntity
  8
32
  6
Continuous
 62
     4
370
    25
100
AcDbLine
 10
1.366672959427085
 20
-95.43332928021744
 30
0.0
 11
1.066672954956736
 21
-93.43332925041511
 31
0.0
  0
LINE
  5
51C
330
1F
100
AcDbEntity
  8
32
  6
Continuous
 62
     4
370
    25
100
AcDbLine
 10
1.066672954956736
 20
-93.43332925041511
 30
0.0
 11
1.666672963897433
 21
-93.43332925041511
 31
0.0
  0
LINE
  5
51D
330
1F
100
AcDbEntity
  8
32
  6
Continuous
 62
     4
370
    25
100
AcDbLine
 10
1.666672963897433
 20
-93.43332925041511
 30
0.0
 11
1.366672959427085
 21
-95.43332928021744
 31
0.0
  0
LINE
  5
51E
330
1F
100
AcDbEntity
  8
32
  6
Continuous
 62
     4
370
    25
100
AcDbLine
 10
-5.633327144881044
 20
-95.43332928021744
 30
0.0
 11
2.366672974328246
 21
-95.43332928021744
 31
0.0
  0
LINE
  5
51F
330
1F
100
AcDbEntity
  8
32
  6
Continuous
 62
     4
370
    25
100
AcDbLine
 10
-8.233327374358929
 20
-100.9333293621738
 30
0.0
 11
-8.233327374358929
 21
-95.93332928766802
 31
0.0
  0
LINE
  5
520
330
1F
100
AcDbEntity
  8
32
  6
Continuous
 62
     4
370
    25
100
AcDbLine
 10
-8.233327374358929
 20
-99.93332934727268
 30
0.0
 11
-10.23332740416125
 21
-99.63332934280227
 31
0.0
  0
LINE
  5
521
330
1F
100
AcDbEntity
  8
32
  6
Continuous
 62
     4
370
    25
100
AcDbLine
 10
-10.23332740416125
 20
-100.233329351743
 30
0.0
 11
-10.23332740416125
 21
-99.63332934280227
 31
0.0
  0
LINE
  5
522
330
1F
100
AcDbEntity
  8
32
  6
Continuous
 62
     4
370
    25
100
AcDbLine
 10
-10.23332740416125
 20
-100.233329351743
 30
0.0
 11
-8.233327374358929
 21
-99.93332934727268
 31
0.0
  0
LINE
  5
523
330
1F
100
AcDbEntity
  8
32
  6
Continuous
 62
     4
370
    25
100
AcDbLine
 10
-11.23332741906241
 20
-99.93332934727268
 30
0.0
 11
-8.233327374358929
 21
-99.93332934727268
 31
0.0
  0
LINE
  5
524
330
1F
100
AcDbEntity
  8
32
  6
Continuous
 62
     4
370
    25
100
AcDbLine
 10
-8.233327374358929
 20
-99.93332934727268
 30
0.0
 11
-6.69999738782645
 21
-99.93332934727268
 31
0.0
  0
LINE
  5
525
330
1F
100
AcDbEntity
  8
32
  6
Continuous
 62
     4
370
    25
100
AcDbLine
 10
-6.69999738782645
 20
-99.93332934727268
 30
0.0
 11
-4.699997358024127
 21
-99.63332934280227
 31
0.0
  0
LINE
  5
526
330
1F
100
AcDbEntity
  8
32
  6
Continuous
 62
     4
370
    25
100
AcDbLine
 10
-4.699997358024127
 20
-100.233329351743
 30
0.0
 11
-4.699997358024127
 21
-99.63332934280227
 31
0.0
  0
LINE
  5
527
330
1F
100
AcDbEntity
  8
32
  6
Continuous
 62
     4
370
    25
100
AcDbLine
 10
-4.699997358024127
 20
-100.233329351743
 30
0.0
 11
-6.69999738782645
 21
-99.93332934727268
 31
0.0
  0
LINE
  5
528
330
1F
100
AcDbEntity
  8
32
  6
Continuous
 62
     4
370
    25
100
AcDbLine
 10
-6.69999738782645
 20
-99.93332934727268
 30
0.0
 11
-3.699997343122966
 21
-99.93332934727268
 31
0.0
  0
LINE
  5
529
330
1F
100
AcDbEntity
  8
32
  6
Continuous
 62
     4
370
    25
100
AcDbLine
 10
-6.69999738782645
 20
-100.9333293621738
 30
0.0
 11
-6.69999738782645
 21
-95.93332928766802
 31
0.0
  0
TEXT
  5
52A
330
1F
100
AcDbEntity
  8
32
 62
     2
100
AcDbText
 10
-10.46666748043082
 20
-82.29999930807907
 30
0.0
 40
2.0
  1
12.5
 41
0.7500000028125
  7
dcStyle0
 72
     5
 11
-4.466667390430819
 21
-82.29999930807907
 31
0.0
100
AcDbText
  0
TEXT
  5
52B
330
1F
100
AcDbEntity
  8
32
 62
     2
100
AcDbText
 10
-20.73333748043082
 20
-77.59999923807906
 30
0.0
 40
2.0
  1
ｾﾗﾐｯｸ
 41
0.7500000029999999
  7
dcStyle0
 72
     5
 11
-13.23333736043082
 21
-77.59999923807906
 31
0.0
100
AcDbText
  0
TEXT
  5
52C
330
1F
100
AcDbEntity
  8
32
 62
     2
100
AcDbText
 10
-8.96665735043082
 20
-76.59999922807907
 30
0.0
 40
2.0
  1
20
 41
0.7500000025
  7
dcStyle0
 72
     5
 11
-5.96665731043082
 21
-76.59999922807907
 31
0.0
100
AcDbText
  0
TEXT
  5
52D
330
1F
100
AcDbEntity
  8
32
 62
     2
100
AcDbText
 10
0.8666729519730076
 20
-94.26665922487398
 30
0.0
 40
2.0
  1
 25 
 50
90.0000001836389
 41
0.7500000028125
  7
dcStyle0
 72
     5
 11
0.8666729327423867
 21
-88.26665913487398
 31
0.0
100
AcDbText
  0
TEXT
  5
52E
330
1F
100
AcDbEntity
  8
32
 62
     2
100
AcDbText
 10
-6.69999739043082
 20
-99.23332933807907
 30
0.0
 40
2.0
  1
 4.6 
 41
0.750000003
  7
dcStyle0
 72
     5
 11
0.8000027295691803
 21
-99.23332933807907
 31
0.0
100
AcDbText
  0
LINE
  5
52F
330
1F
100
AcDbEntity
  8
19
  6
Continuous
 62
     6
370
    25
100
AcDbLine
 10
-134.7999992966652
 20
58.40000278502701
 30
0.0
 11
-50.79999804496766
 21
58.40000278502701
 31
0.0
  0
LINE
  5
530
330
1F
100
AcDbEntity
  8
19
  6
Continuous
 62
     6
370
    25
100
AcDbLine
 10
-50.79999804496766
 20
-25.59999846667054
 30
0.0
 11
-50.79999804496766
 21
58.40000278502701
 31
0.0
  0
LINE
  5
531
330
1F
100
AcDbEntity
  8
19
  6
Continuous
 62
     6
370
    25
100
AcDbLine
 10
-134.7999992966652
 20
-25.59999846667054
 30
0.0
 11
-50.79999804496766
 21
-25.59999846667054
 31
0.0
  0
LINE
  5
532
330
1F
100
AcDbEntity
  8
19
  6
Continuous
 62
     6
370
    25
100
AcDbLine
 10
-134.7999992966652
 20
-25.59999846667054
 30
0.0
 11
-134.7999992966652
 21
58.40000278502701
 31
0.0
  0
LINE
  5
533
330
1F
100
AcDbEntity
  8
19
  6
Continuous
 62
     6
370
    25
100
AcDbLine
 10
-133.5999992787838
 20
57.20000276714559
 30
0.0
 11
-51.99999806284906
 21
57.20000276714559
 31
0.0
  0
LINE
  5
534
330
1F
100
AcDbEntity
  8
19
  6
Continuous
 62
     6
370
    25
100
AcDbLine
 10
-51.99999806284906
 20
-24.39999844878915
 30
0.0
 11
-51.99999806284906
 21
57.20000276714559
 31
0.0
  0
LINE
  5
535
330
1F
100
AcDbEntity
  8
19
  6
Continuous
 62
     6
370
    25
100
AcDbLine
 10
-133.5999992787838
 20
-24.39999844878915
 30
0.0
 11
-51.99999806284906
 21
-24.39999844878915
 31
0.0
  0
LINE
  5
536
330
1F
100
AcDbEntity
  8
19
  6
Continuous
 62
     6
370
    25
100
AcDbLine
 10
-133.5999992787838
 20
-24.39999844878915
 30
0.0
 11
-133.5999992787838
 21
57.20000276714559
 31
0.0
  0
LINE
  5
537
330
1F
100
AcDbEntity
  8
19
  6
Continuous
 62
     6
370
    25
100
AcDbLine
 10
-126.7200003969669
 20
50.32000388532876
 30
0.0
 11
-128.2999991998076
 21
51.90000268816946
 31
0.0
  0
LINE
  5
538
330
1F
100
AcDbEntity
  8
19
  6
Continuous
 62
     6
370
    25
100
AcDbLine
 10
-132.2999992594123
 20
55.90000274777408
 30
0.0
 11
-134.7999992966652
 21
58.40000278502701
 31
0.0
  0
LINE
  5
539
330
1F
100
AcDbEntity
  8
19
  6
Continuous
 62
     6
370
    25
100
AcDbLine
 10
-59.68000306010255
 20
49.51999776989211
 30
0.0
 11
-54.0999980941415
 21
55.10000273585317
 31
0.0
  0
LINE
  5
53A
330
1F
100
AcDbEntity
  8
19
  6
Continuous
 62
     6
370
    25
100
AcDbLine
 10
-53.29999808222057
 20
55.90000274777408
 30
0.0
 11
-50.79999804496766
 21
58.40000278502701
 31
0.0
  0
LINE
  5
53B
330
1F
100
AcDbEntity
  8
19
  6
Continuous
 62
     6
370
    25
100
AcDbLine
 10
-50.79999804496766
 20
-25.59999846667054
 30
0.0
 11
-53.29999808222057
 21
-23.09999842941764
 31
0.0
  0
LINE
  5
53C
330
1F
100
AcDbEntity
  8
19
  6
Continuous
 62
     6
370
    25
100
AcDbLine
 10
-54.0999980941415
 20
-22.29999841749671
 30
0.0
 11
-59.68000306010255
 21
-16.71999345153566
 31
0.0
  0
LINE
  5
53D
330
1F
100
AcDbEntity
  8
19
  6
Continuous
 62
     6
370
    25
100
AcDbLine
 10
-134.7999992966652
 20
-25.59999846667054
 30
0.0
 11
-132.2999992594123
 21
-23.09999842941764
 31
0.0
  0
LINE
  5
53E
330
1F
100
AcDbEntity
  8
19
  6
Continuous
 62
     6
370
    25
100
AcDbLine
 10
-128.2999991998076
 20
-19.09999836981299
 30
0.0
 11
-126.7200003969669
 21
-17.5199995669723
 31
0.0
  0
LINE
  5
53F
330
1F
100
AcDbEntity
  8
19
  6
Continuous
 62
     6
370
    25
100
AcDbLine
 10
-122.7200003373623
 20
46.40000260621306
 30
0.0
 11
-121.140000294745
 21
46.40000260621306
 31
0.0
  0
LINE
  5
540
330
1F
100
AcDbEntity
  8
19
  6
Continuous
 62
     6
370
    25
100
AcDbLine
 10
-117.140001474917
 20
46.40000260621306
 30
0.0
 11
-115.5600014322996
 21
46.40000260621306
 31
0.0
  0
LINE
  5
541
330
1F
100
AcDbEntity
  8
19
  6
Continuous
 62
     6
370
    25
100
AcDbLine
 10
-111.5599965089559
 20
46.40000260621306
 30
0.0
 11
-109.9799964663386
 21
46.40000260621306
 31
0.0
  0
LINE
  5
542
330
1F
100
AcDbEntity
  8
19
  6
Continuous
 62
     6
370
    25
100
AcDbLine
 10
-105.9799976465106
 20
46.40000260621306
 30
0.0
 11
-104.3999976038932
 21
46.40000260621306
 31
0.0
  0
LINE
  5
543
330
1F
100
AcDbEntity
  8
19
  6
Continuous
 62
     6
370
    25
100
AcDbLine
 10
-100.3999987840653
 20
46.40000260621306
 30
0.0
 11
-98.81999874144793
 21
46.40000260621306
 31
0.0
  0
LINE
  5
544
330
1F
100
AcDbEntity
  8
19
  6
Continuous
 62
     6
370
    25
100
AcDbLine
 10
-94.81999992161992
 20
46.40000260621306
 30
0.0
 11
-93.23999987900261
 21
46.40000260621306
 31
0.0
  0
LINE
  5
545
330
1F
100
AcDbEntity
  8
19
  6
Continuous
 62
     6
370
    25
100
AcDbLine
 10
-89.24000105917459
 20
46.40000260621306
 30
0.0
 11
-87.66000101655727
 21
46.40000260621306
 31
0.0
  0
LINE
  5
546
330
1F
100
AcDbEntity
  8
19
  6
Continuous
 62
     6
370
    25
100
AcDbLine
 10
-83.65999609321354
 20
46.40000260621306
 30
0.0
 11
-82.07999605059622
 21
46.40000260621306
 31
0.0
  0
LINE
  5
547
330
1F
100
AcDbEntity
  8
19
  6
Continuous
 62
     6
370
    25
100
AcDbLine
 10
-78.08000333428392
 20
46.40000260621306
 30
0.0
 11
-76.5000032916666
 21
46.40000260621306
 31
0.0
  0
LINE
  5
548
330
1F
100
AcDbEntity
  8
19
  6
Continuous
 62
     6
370
    25
100
AcDbLine
 10
-72.49999836832286
 20
46.40000260621306
 30
0.0
 11
-70.91999832570554
 21
46.40000260621306
 31
0.0
  0
LINE
  5
549
330
1F
100
AcDbEntity
  8
19
  6
Continuous
 62
     6
370
    25
100
AcDbLine
 10
-66.91999340236181
 20
46.40000260621306
 30
0.0
 11
-65.33999335974448
 21
46.40000260621306
 31
0.0
  0
LINE
  5
54A
330
1F
100
AcDbEntity
  8
19
  6
Continuous
 62
     6
370
    25
100
AcDbLine
 10
-50.79999804496766
 20
46.40000260621306
 30
0.0
 11
-50.1799956706166
 21
46.40000260621306
 31
0.0
  0
LINE
  5
54B
330
1F
100
AcDbEntity
  8
19
  6
Continuous
 62
     6
370
    25
100
AcDbLine
 10
-122.7200003373623
 20
-13.59999828785661
 30
0.0
 11
-121.140000294745
 21
-13.59999828785661
 31
0.0
  0
LINE
  5
54C
330
1F
100
AcDbEntity
  8
19
  6
Continuous
 62
     6
370
    25
100
AcDbLine
 10
-117.140001474917
 20
-13.59999828785661
 30
0.0
 11
-115.5600014322996
 21
-13.59999828785661
 31
0.0
  0
LINE
  5
54D
330
1F
100
AcDbEntity
  8
19
  6
Continuous
 62
     6
370
    25
100
AcDbLine
 10
-111.5599965089559
 20
-13.59999828785661
 30
0.0
 11
-109.9799964663386
 21
-13.59999828785661
 31
0.0
  0
LINE
  5
54E
330
1F
100
AcDbEntity
  8
19
  6
Continuous
 62
     6
370
    25
100
AcDbLine
 10
-105.9799976465106
 20
-13.59999828785661
 30
0.0
 11
-104.3999976038932
 21
-13.59999828785661
 31
0.0
  0
LINE
  5
54F
330
1F
100
AcDbEntity
  8
19
  6
Continuous
 62
     6
370
    25
100
AcDbLine
 10
-100.3999987840653
 20
-13.59999828785661
 30
0.0
 11
-98.81999874144793
 21
-13.59999828785661
 31
0.0
  0
LINE
  5
550
330
1F
100
AcDbEntity
  8
19
  6
Continuous
 62
     6
370
    25
100
AcDbLine
 10
-94.81999992161992
 20
-13.59999828785661
 30
0.0
 11
-93.23999987900261
 21
-13.59999828785661
 31
0.0
  0
LINE
  5
551
330
1F
100
AcDbEntity
  8
19
  6
Continuous
 62
     6
370
    25
100
AcDbLine
 10
-89.24000105917459
 20
-13.59999828785661
 30
0.0
 11
-87.66000101655727
 21
-13.59999828785661
 31
0.0
  0
LINE
  5
552
330
1F
100
AcDbEntity
  8
19
  6
Continuous
 62
     6
370
    25
100
AcDbLine
 10
-83.65999609321354
 20
-13.59999828785661
 30
0.0
 11
-82.07999605059622
 21
-13.59999828785661
 31
0.0
  0
LINE
  5
553
330
1F
100
AcDbEntity
  8
19
  6
Continuous
 62
     6
370
    25
100
AcDbLine
 10
-78.08000333428392
 20
-13.59999828785661
 30
0.0
 11
-76.5000032916666
 21
-13.59999828785661
 31
0.0
  0
LINE
  5
554
330
1F
100
AcDbEntity
  8
19
  6
Continuous
 62
     6
370
    25
100
AcDbLine
 10
-72.49999836832286
 20
-13.59999828785661
 30
0.0
 11
-70.91999832570554
 21
-13.59999828785661
 31
0.0
  0
LINE
  5
555
330
1F
100
AcDbEntity
  8
19
  6
Continuous
 62
     6
370
    25
100
AcDbLine
 10
-66.91999340236181
 20
-13.59999828785661
 30
0.0
 11
-65.33999335974448
 21
-13.59999828785661
 31
0.0
  0
LINE
  5
556
330
1F
100
AcDbEntity
  8
19
  6
Continuous
 62
     6
370
    25
100
AcDbLine
 10
-50.79999804496766
 20
-13.59999828785661
 30
0.0
 11
-50.1799956706166
 21
-13.59999828785661
 31
0.0
  0
CIRCLE
  5
557
330
1F
100
AcDbEntity
  8
19
  6
Continuous
 62
     6
370
    25
100
AcDbCircle
 10
-122.7999991178512
 20
59.80000280588861
 30
0.0
 40
1.400000020861626
  0
LINE
  5
558
330
1F
100
AcDbEntity
  8
19
  6
Continuous
 62
     6
370
    25
100
AcDbLine
 10
-124.1999991387129
 20
59.80000280588861
 30
0.0
 11
-124.1999991387129
 21
69.80000295490025
 31
0.0
  0
LINE
  5
559
330
1F
100
AcDbEntity
  8
19
  6
Continuous
 62
     6
370
    25
100
AcDbLine
 10
-124.1999991387129
 20
69.80000295490025
 30
0.0
 11
-121.3999990969896
 21
69.80000295490025
 31
0.0
  0
LINE
  5
55A
330
1F
100
AcDbEntity
  8
19
  6
Continuous
 62
     6
370
    25
100
AcDbLine
 10
-121.3999990969896
 20
69.80000295490025
 30
0.0
 11
-121.3999990969896
 21
59.80000280588861
 31
0.0
  0
ARC
  5
55B
330
1F
100
AcDbEntity
  8
19
  6
Continuous
 62
     6
370
    25
100
AcDbCircle
 10
-122.7999991178512
 20
65.8000028952956
 30
0.0
 40
1.400000020861626
100
AcDbArc
 50
0.0
 51
180.0000000000004
  0
CIRCLE
  5
55C
330
1F
100
AcDbEntity
  8
19
  6
Continuous
 62
     6
370
    25
100
AcDbCircle
 10
-62.7999982237816
 20
59.80000280588861
 30
0.0
 40
1.400000020861626
  0
LINE
  5
55D
330
1F
100
AcDbEntity
  8
19
  6
Continuous
 62
     6
370
    25
100
AcDbLine
 10
-64.19999824464323
 20
59.80000280588861
 30
0.0
 11
-64.19999824464323
 21
69.80000295490025
 31
0.0
  0
LINE
  5
55E
330
1F
100
AcDbEntity
  8
19
  6
Continuous
 62
     6
370
    25
100
AcDbLine
 10
-64.19999824464323
 20
69.80000295490025
 30
0.0
 11
-61.39999820291997
 21
69.80000295490025
 31
0.0
  0
LINE
  5
55F
330
1F
100
AcDbEntity
  8
19
  6
Continuous
 62
     6
370
    25
100
AcDbLine
 10
-61.39999820291997
 20
69.80000295490025
 30
0.0
 11
-61.39999820291997
 21
59.80000280588861
 31
0.0
  0
ARC
  5
560
330
1F
100
AcDbEntity
  8
19
  6
Continuous
 62
     6
370
    25
100
AcDbCircle
 10
-62.7999982237816
 20
65.8000028952956
 30
0.0
 40
1.400000020861626
100
AcDbArc
 50
0.0
 51
180.0000000000004
  0
CIRCLE
  5
561
330
1F
100
AcDbEntity
  8
19
  6
Continuous
 62
     6
370
    25
100
AcDbCircle
 10
-122.7999991178512
 20
-26.99999848753217
 30
0.0
 40
1.400000020861626
  0
LINE
  5
562
330
1F
100
AcDbEntity
  8
19
  6
Continuous
 62
     6
370
    25
100
AcDbLine
 10
-124.1999991387129
 20
-26.99999848753217
 30
0.0
 11
-124.1999991387129
 21
-36.99999863654378
 31
0.0
  0
LINE
  5
563
330
1F
100
AcDbEntity
  8
19
  6
Continuous
 62
     6
370
    25
100
AcDbLine
 10
-124.1999991387129
 20
-36.99999863654378
 30
0.0
 11
-121.3999990969896
 21
-36.99999863654378
 31
0.0
  0
LINE
  5
564
330
1F
100
AcDbEntity
  8
19
  6
Continuous
 62
     6
370
    25
100
AcDbLine
 10
-121.3999990969896
 20
-36.99999863654378
 30
0.0
 11
-121.3999990969896
 21
-26.99999848753217
 31
0.0
  0
ARC
  5
565
330
1F
100
AcDbEntity
  8
19
  6
Continuous
 62
     6
370
    25
100
AcDbCircle
 10
-122.7999991178512
 20
-32.99999857693913
 30
0.0
 40
1.400000020861626
100
AcDbArc
 50
180.0000000000004
 51
0.0000000000008142
  0
CIRCLE
  5
566
330
1F
100
AcDbEntity
  8
19
  6
Continuous
 62
     6
370
    25
100
AcDbCircle
 10
-62.7999982237816
 20
-26.99999848753217
 30
0.0
 40
1.400000020861626
  0
LINE
  5
567
330
1F
100
AcDbEntity
  8
19
  6
Continuous
 62
     6
370
    25
100
AcDbLine
 10
-64.19999824464323
 20
-26.99999848753217
 30
0.0
 11
-64.19999824464323
 21
-36.99999863654378
 31
0.0
  0
LINE
  5
568
330
1F
100
AcDbEntity
  8
19
  6
Continuous
 62
     6
370
    25
100
AcDbLine
 10
-64.19999824464323
 20
-36.99999863654378
 30
0.0
 11
-61.39999820291997
 21
-36.99999863654378
 31
0.0
  0
LINE
  5
569
330
1F
100
AcDbEntity
  8
19
  6
Continuous
 62
     6
370
    25
100
AcDbLine
 10
-61.39999820291997
 20
-36.99999863654378
 30
0.0
 11
-61.39999820291997
 21
-26.99999848753217
 31
0.0
  0
ARC
  5
56A
330
1F
100
AcDbEntity
  8
19
  6
Continuous
 62
     6
370
    25
100
AcDbCircle
 10
-62.7999982237816
 20
-32.99999857693913
 30
0.0
 40
1.400000020861626
100
AcDbArc
 50
180.0000000000004
 51
0.0000000000008142
  0
LINE
  5
56B
330
1F
100
AcDbEntity
  8
19
  6
Continuous
 62
     6
370
    25
100
AcDbLine
 10
-3.299997337162502
 20
56.40000275522468
 30
0.0
 11
-3.299997337162502
 21
58.40000278502701
 31
0.0
  0
LINE
  5
56C
330
1F
100
AcDbEntity
  8
19
  6
Continuous
 62
     6
370
    25
100
AcDbLine
 10
-3.299997337162502
 20
58.40000278502701
 30
0.0
 11
2.700002752244465
 21
58.40000278502701
 31
0.0
  0
LINE
  5
56D
330
1F
100
AcDbEntity
  8
19
  6
Continuous
 62
     6
370
    25
100
AcDbLine
 10
2.700002752244465
 20
58.40000278502701
 30
0.0
 11
2.900002755224699
 21
58.20000278204677
 31
0.0
  0
LINE
  5
56E
330
1F
100
AcDbEntity
  8
19
  6
Continuous
 62
     6
370
    25
100
AcDbLine
 10
2.900002755224699
 20
58.20000278204677
 30
0.0
 11
2.900002755224699
 21
-25.39999846369031
 31
0.0
  0
LINE
  5
56F
330
1F
100
AcDbEntity
  8
19
  6
Continuous
 62
     6
370
    25
100
AcDbLine
 10
2.900002755224699
 20
-25.39999846369031
 30
0.0
 11
2.700002752244465
 21
-25.59999846667054
 31
0.0
  0
LINE
  5
570
330
1F
100
AcDbEntity
  8
19
  6
Continuous
 62
     6
370
    25
100
AcDbLine
 10
2.700002752244465
 20
-25.59999846667054
 30
0.0
 11
-3.299997337162502
 21
-25.59999846667054
 31
0.0
  0
LINE
  5
571
330
1F
100
AcDbEntity
  8
19
  6
Continuous
 62
     6
370
    25
100
AcDbLine
 10
-3.299997337162502
 20
-25.59999846667054
 30
0.0
 11
-3.299997337162502
 21
-23.59999843686822
 31
0.0
  0
LINE
  5
572
330
1F
100
AcDbEntity
  8
19
  6
Continuous
 62
     6
370
    25
100
AcDbLine
 10
-3.299997337162502
 20
-24.39999844878915
 30
0.0
 11
1.700002737343304
 21
-24.39999844878915
 31
0.0
  0
LINE
  5
573
330
1F
100
AcDbEntity
  8
19
  6
Continuous
 62
     6
370
    25
100
AcDbLine
 10
1.700002737343304
 20
-24.39999844878915
 30
0.0
 11
1.700002737343304
 21
57.20000276714559
 31
0.0
  0
LINE
  5
574
330
1F
100
AcDbEntity
  8
19
  6
Continuous
 62
     6
370
    25
100
AcDbLine
 10
1.700002737343304
 20
57.20000276714559
 30
0.0
 11
-3.299997337162502
 21
57.20000276714559
 31
0.0
  0
LINE
  5
575
330
1F
100
AcDbEntity
  8
19
  6
Continuous
 62
     6
370
    25
100
AcDbLine
 10
2.900002755224699
 20
46.40000260621306
 30
0.0
 11
1.700002737343304
 21
46.40000260621306
 31
0.0
  0
LINE
  5
576
330
1F
100
AcDbEntity
  8
19
  6
Continuous
 62
     6
370
    25
100
AcDbLine
 10
2.900002755224699
 20
-13.59999828785661
 30
0.0
 11
1.700002737343304
 21
-13.59999828785661
 31
0.0
  0
LINE
  5
577
330
1F
100
AcDbEntity
  8
19
  6
Continuous
 62
     6
370
    25
100
AcDbLine
 10
-2.099997319281108
 20
-25.59999846667054
 30
0.0
 11
2.900002755224699
 21
-25.59999846667054
 31
0.0
  0
LINE
  5
578
330
1F
100
AcDbEntity
  8
19
  6
Continuous
 62
     6
370
    25
100
AcDbLine
 10
23.10000305622815
 20
-30.99999854713681
 30
0.0
 11
2.900002755224699
 21
-25.59999846667054
 31
0.0
  0
LINE
  5
579
330
1F
100
AcDbEntity
  8
19
  6
Continuous
 62
     6
370
    25
100
AcDbLine
 10
23.10000305622815
 20
-37.19999863952401
 30
0.0
 11
23.10000305622815
 21
-30.99999854713681
 31
0.0
  0
LINE
  5
57A
330
1F
100
AcDbEntity
  8
19
  6
Continuous
 62
     6
370
    25
100
AcDbLine
 10
20.3000030145049
 20
-37.19999863952401
 30
0.0
 11
23.10000305622815
 21
-37.19999863952401
 31
0.0
  0
LINE
  5
57B
330
1F
100
AcDbEntity
  8
19
  6
Continuous
 62
     6
370
    25
100
AcDbLine
 10
20.3000030145049
 20
-37.19999863952401
 30
0.0
 11
20.3000030145049
 21
-33.19999857991937
 31
0.0
  0
LINE
  5
57C
330
1F
100
AcDbEntity
  8
19
  6
Continuous
 62
     6
370
    25
100
AcDbLine
 10
20.3000030145049
 20
-33.19999857991937
 30
0.0
 11
2.500002749264233
 21
-28.39999850839379
 31
0.0
  0
LINE
  5
57D
330
1F
100
AcDbEntity
  8
19
  6
Continuous
 62
     6
370
    25
100
AcDbLine
 10
-2.099997319281108
 20
-28.39999850839379
 30
0.0
 11
2.500002749264233
 21
-28.39999850839379
 31
0.0
  0
LINE
  5
57E
330
1F
100
AcDbEntity
  8
19
  6
Continuous
 62
     6
370
    25
100
AcDbLine
 10
-2.099997319281108
 20
-28.39999850839379
 30
0.0
 11
-2.099997319281108
 21
-25.59999846667054
 31
0.0
  0
LINE
  5
57F
330
1F
100
AcDbEntity
  8
19
  6
Continuous
 62
     6
370
    25
100
AcDbLine
 10
-2.099997319281108
 20
58.40000278502701
 30
0.0
 11
2.900002755224699
 21
58.40000278502701
 31
0.0
  0
LINE
  5
580
330
1F
100
AcDbEntity
  8
19
  6
Continuous
 62
     6
370
    25
100
AcDbLine
 10
2.900002755224699
 20
58.40000278502701
 30
0.0
 11
23.10000305622815
 21
63.80000286549328
 31
0.0
  0
LINE
  5
581
330
1F
100
AcDbEntity
  8
19
  6
Continuous
 62
     6
370
    25
100
AcDbLine
 10
23.10000305622815
 20
63.80000286549328
 30
0.0
 11
23.10000305622815
 21
70.00000295788048
 31
0.0
  0
LINE
  5
582
330
1F
100
AcDbEntity
  8
19
  6
Continuous
 62
     6
370
    25
100
AcDbLine
 10
20.3000030145049
 20
70.00000295788048
 30
0.0
 11
23.10000305622815
 21
70.00000295788048
 31
0.0
  0
LINE
  5
583
330
1F
100
AcDbEntity
  8
19
  6
Continuous
 62
     6
370
    25
100
AcDbLine
 10
20.3000030145049
 20
66.00000289827584
 30
0.0
 11
20.3000030145049
 21
70.00000295788048
 31
0.0
  0
LINE
  5
584
330
1F
100
AcDbEntity
  8
19
  6
Continuous
 62
     6
370
    25
100
AcDbLine
 10
20.3000030145049
 20
66.00000289827584
 30
0.0
 11
2.500002749264233
 21
61.20000282675026
 31
0.0
  0
LINE
  5
585
330
1F
100
AcDbEntity
  8
19
  6
Continuous
 62
     6
370
    25
100
AcDbLine
 10
-2.099997319281108
 20
61.20000282675026
 30
0.0
 11
2.500002749264233
 21
61.20000282675026
 31
0.0
  0
LINE
  5
586
330
1F
100
AcDbEntity
  8
19
  6
Continuous
 62
     6
370
    25
100
AcDbLine
 10
-2.099997319281108
 20
58.40000278502701
 30
0.0
 11
-2.099997319281108
 21
61.20000282675026
 31
0.0
  0
LINE
  5
587
330
1F
100
AcDbEntity
  8
19
  6
Continuous
 62
     6
370
    25
100
AcDbLine
 10
-132.2999992594123
 20
-72.69999916851523
 30
0.0
 11
-134.7999992966652
 21
-72.69999916851523
 31
0.0
  0
LINE
  5
588
330
1F
100
AcDbEntity
  8
19
  6
Continuous
 62
     6
370
    25
100
AcDbLine
 10
-134.7999992966652
 20
-72.69999916851523
 30
0.0
 11
-134.7999992966652
 21
-78.6999992579222
 31
0.0
  0
LINE
  5
589
330
1F
100
AcDbEntity
  8
19
  6
Continuous
 62
     6
370
    25
100
AcDbLine
 10
-134.7999992966652
 20
-78.6999992579222
 30
0.0
 11
-134.5999992936849
 21
-78.89999926090243
 31
0.0
  0
LINE
  5
58A
330
1F
100
AcDbEntity
  8
19
  6
Continuous
 62
     6
370
    25
100
AcDbLine
 10
-134.5999992936849
 20
-78.89999926090243
 30
0.0
 11
-50.99999804794789
 21
-78.89999926090243
 31
0.0
  0
LINE
  5
58B
330
1F
100
AcDbEntity
  8
19
  6
Continuous
 62
     6
370
    25
100
AcDbLine
 10
-50.99999804794789
 20
-78.89999926090243
 30
0.0
 11
-50.79999804496766
 21
-78.6999992579222
 31
0.0
  0
LINE
  5
58C
330
1F
100
AcDbEntity
  8
19
  6
Continuous
 62
     6
370
    25
100
AcDbLine
 10
-50.79999804496766
 20
-78.6999992579222
 30
0.0
 11
-50.79999804496766
 21
-72.69999916851523
 31
0.0
  0
LINE
  5
58D
330
1F
100
AcDbEntity
  8
19
  6
Continuous
 62
     6
370
    25
100
AcDbLine
 10
-50.79999804496766
 20
-72.69999916851523
 30
0.0
 11
-53.29999808222057
 21
-72.69999916851523
 31
0.0
  0
LINE
  5
58E
330
1F
100
AcDbEntity
  8
19
  6
Continuous
 62
     6
370
    25
100
AcDbLine
 10
-51.99999806284906
 20
-72.69999916851523
 30
0.0
 11
-51.99999806284906
 21
-77.69999924302104
 31
0.0
  0
LINE
  5
58F
330
1F
100
AcDbEntity
  8
19
  6
Continuous
 62
     6
370
    25
100
AcDbLine
 10
-51.99999806284906
 20
-77.69999924302104
 30
0.0
 11
-133.5999992787838
 21
-77.69999924302104
 31
0.0
  0
LINE
  5
590
330
1F
100
AcDbEntity
  8
19
  6
Continuous
 62
     6
370
    25
100
AcDbLine
 10
-133.5999992787838
 20
-77.69999924302104
 30
0.0
 11
-133.5999992787838
 21
-72.69999916851523
 31
0.0
  0
LINE
  5
591
330
1F
100
AcDbEntity
  8
19
  6
Continuous
 62
     6
370
    25
100
AcDbLine
 10
-122.7999991178512
 20
-78.89999926090243
 30
0.0
 11
-122.7999991178512
 21
-77.69999924302104
 31
0.0
  0
LINE
  5
592
330
1F
100
AcDbEntity
  8
19
  6
Continuous
 62
     6
370
    25
100
AcDbLine
 10
-62.7999982237816
 20
-77.69999924302104
 30
0.0
 11
-62.7999982237816
 21
-78.89999926090243
 31
0.0
  0
LINE
  5
593
330
1F
100
AcDbEntity
  8
19
  6
Continuous
 62
     6
370
    25
100
AcDbLine
 10
-124.1999991387129
 20
-78.89999926090243
 30
0.0
 11
-124.1999991387129
 21
-97.69999954104426
 31
0.0
  0
ARC
  5
594
330
1F
100
AcDbEntity
  8
19
  6
Continuous
 62
     6
370
    25
100
AcDbCircle
 10
-122.7999991178515
 20
-97.70000045606999
 30
0.0
 40
1.400000020861626
100
AcDbArc
 50
180.0000000000004
 51
0.0000000000008142
  0
LINE
  5
595
330
1F
100
AcDbEntity
  8
19
  6
Continuous
 62
     6
370
    25
100
AcDbLine
 10
-121.3999990969911
 20
-97.70000228612145
 30
0.0
 11
-121.3999990969911
 21
-78.90000200597962
 31
0.0
  0
LINE
  5
596
330
1F
100
AcDbEntity
  8
19
  6
Continuous
 62
     6
370
    25
100
AcDbLine
 10
-64.19999824464323
 20
-78.89999926090243
 30
0.0
 11
-64.19999824464323
 21
-97.69999954104426
 31
0.0
  0
ARC
  5
597
330
1F
100
AcDbEntity
  8
19
  6
Continuous
 62
     6
370
    25
100
AcDbCircle
 10
-62.7999982237819
 20
-97.70000045606999
 30
0.0
 40
1.400000020861626
100
AcDbArc
 50
180.0000000000004
 51
0.0000000000008142
  0
LINE
  5
598
330
1F
100
AcDbEntity
  8
19
  6
Continuous
 62
     6
370
    25
100
AcDbLine
 10
-61.39999820292147
 20
-97.70000228612145
 30
0.0
 11
-61.39999820292147
 21
-78.90000200597962
 31
0.0
  0
VIEWPORT
  5
78
330
1B
100
AcDbEntity
 67
     1
  8
0
100
AcDbViewport
 10
-4.799997359514236
 20
-11.29999825358391
 30
0.0
 40
1063.200015842915
 41
703.2000104784966
 68
     1
 69
     1
 12
-4.799997359514236
 22
-11.29999825358391
 13
0.0
 23
0.0
 14
0.5
 24
0.5
 15
0.0
 25
0.0
 16
0.0
 26
0.0
 36
1.0
 17
0.0
 27
0.0
 37
0.0
 42
50.0
 43
0.0
 44
0.0
 45
703.2000104784966
 50
0.0
 51
0.0
 72
   100
 90
   557152
  1

281
     0
 71
     1
 74
     0
110
0.0
120
0.0
130
0.0
111
1.0
121
0.0
131
0.0
112
0.0
122
1.0
132
0.0
 79
     0
146
0.0
  0
ENDSEC
  0
SECTION
  2
OBJECTS
  0
DICTIONARY
  5
C
330
0
100
AcDbDictionary
281
     1
  3
ACAD_GROUP
350
D
  3
ACAD_LAYOUT
350
1A
  3
ACAD_MATERIAL
350
3B
  3
ACAD_MLEADERSTYLE
350
59B
  3
ACAD_MLINESTYLE
350
17
  3
ACAD_PLOTSETTINGS
350
19
  3
ACAD_PLOTSTYLENAME
350
E
  3
ACAD_VISUALSTYLE
350
2A
  3
AcDbVariableDictionary
350
599
  0
DICTIONARY
  5
D
102
{ACAD_REACTORS
330
C
102
}
330
C
100
AcDbDictionary
281
     1
  0
DICTIONARY
  5
1A
102
{ACAD_REACTORS
330
C
102
}
330
C
100
AcDbDictionary
281
     1
  3
Layout1
350
1E
  3
Layout2
350
26
  3
Model
350
22
  0
DICTIONARY
  5
3B
102
{ACAD_REACTORS
330
C
102
}
330
C
100
AcDbDictionary
281
     1
  3
ByBlock
350
3D
  3
ByLayer
350
3C
  3
Global
350
3E
  0
DICTIONARY
  5
59B
102
{ACAD_REACTORS
330
C
102
}
330
C
100
AcDbDictionary
281
     1
  0
DICTIONARY
  5
17
102
{ACAD_REACTORS
330
C
102
}
330
C
100
AcDbDictionary
281
     1
  3
Standard
350
18
  0
DICTIONARY
  5
19
102
{ACAD_REACTORS
330
C
102
}
330
C
100
AcDbDictionary
281
     1
  0
ACDBDICTIONARYWDFLT
  5
E
102
{ACAD_REACTORS
330
C
102
}
330
C
100
AcDbDictionary
281
     1
  3
Normal
350
F
100
AcDbDictionaryWithDefault
340
F
  0
DICTIONARY
  5
2A
102
{ACAD_REACTORS
330
C
102
}
330
C
100
AcDbDictionary
281
     1
  3
2dWireframe
350
2F
  3
3D Hidden
350
31
  3
3dWireframe
350
30
  3
Basic
350
32
  3
Brighten
350
36
  3
ColorChange
350
3A
  3
Conceptual
350
34
  3
Dim
350
35
  3
Facepattern
350
39
  3
Flat
350
2B
  3
FlatWithEdges
350
2C
  3
Gouraud
350
2D
  3
GouraudWithEdges
350
2E
  3
Linepattern
350
38
  3
Realistic
350
33
  3
Thicken
350
37
  0
DICTIONARY
  5
599
102
{ACAD_REACTORS
330
C
102
}
330
C
100
AcDbDictionary
281
     1
  3
DIMASSOC
350
59C
  3
HIDETEXT
350
59D
  0
LAYOUT
  5
1E
102
{ACAD_REACTORS
330
1A
102
}
330
1A
100
AcDbPlotSettings
  1

  2
none_device
  4

  6

 40
0.0
 41
0.0
 42
0.0
 43
0.0
 44
0.0
 45
0.0
 46
0.0
 47
0.0
 48
0.0
 49
0.0
140
0.0
141
0.0
142
1.0
143
1.0
 70
   688
 72
     0
 73
     0
 74
     5
  7

 75
    16
147
1.0
148
0.0
149
0.0
100
AcDbLayout
  1
Layout1
 70
     0
 71
     1
 10
0.0
 20
0.0
 11
12.0
 21
9.0
 12
0.0
 22
0.0
 32
0.0
 14
1.000000000000000E+20
 24
1.000000000000000E+20
 34
1.000000000000000E+20
 15
-1.000000000000000E+20
 25
-1.000000000000000E+20
 35
-1.000000000000000E+20
146
0.0
 13
0.0
 23
0.0
 33
0.0
 16
1.0
 26
0.0
 36
0.0
 17
0.0
 27
1.0
 37
0.0
 76
     0
330
1B
331
78
  0
LAYOUT
  5
26
102
{ACAD_REACTORS
330
1A
102
}
330
1A
100
AcDbPlotSettings
  1

  2
none_device
  4

  6

 40
0.0
 41
0.0
 42
0.0
 43
0.0
 44
0.0
 45
0.0
 46
0.0
 47
0.0
 48
0.0
 49
0.0
140
0.0
141
0.0
142
1.0
143
1.0
 70
   688
 72
     0
 73
     0
 74
     5
  7

 75
    16
147
1.0
148
0.0
149
0.0
100
AcDbLayout
  1
Layout2
 70
     1
 71
     2
 10
0.0
 20
0.0
 11
0.0
 21
0.0
 12
0.0
 22
0.0
 32
0.0
 14
0.0
 24
0.0
 34
0.0
 15
0.0
 25
0.0
 35
0.0
146
0.0
 13
0.0
 23
0.0
 33
0.0
 16
1.0
 26
0.0
 36
0.0
 17
0.0
 27
1.0
 37
0.0
 76
     0
330
23
  0
LAYOUT
  5
22
102
{ACAD_REACTORS
330
1A
102
}
330
1A
100
AcDbPlotSettings
  1

  2
none_device
  4

  6

 40
0.0
 41
0.0
 42
0.0
 43
0.0
 44
0.0
 45
0.0
 46
0.0
 47
0.0
 48
0.0
 49
0.0
140
0.0
141
0.0
142
1.0
143
1.0
 70
  1712
 72
     0
 73
     0
 74
     0
  7

 75
     0
147
1.0
148
0.0
149
0.0
100
AcDbLayout
  1
Model
 70
     1
 71
     0
 10
-182.0
 20
-128.5
 11
182.0
 21
128.5
 12
0.0
 22
0.0
 32
0.0
 14
-536.4000052809715
 24
-362.9000034928322
 34
0.0
 15
526.800010561943
 25
340.3000069856644
 35
0.0
146
0.0
 13
0.0
 23
0.0
 33
0.0
 16
1.0
 26
0.0
 36
0.0
 17
0.0
 27
1.0
 37
0.0
 76
     0
330
1F
331
29
  0
MATERIAL
  5
3D
102
{ACAD_REACTORS
330
3B
102
}
102
{ACAD_XDICTIONARY
360
5C0
102
}
330
3B
100
AcDbMaterial
  1
ByBlock
  0
MATERIAL
  5
3C
102
{ACAD_REACTORS
330
3B
102
}
102
{ACAD_XDICTIONARY
360
5BE
102
}
330
3B
100
AcDbMaterial
  1
ByLayer
  0
MATERIAL
  5
3E
102
{ACAD_REACTORS
330
3B
102
}
102
{ACAD_XDICTIONARY
360
5C2
102
}
330
3B
100
AcDbMaterial
  1
Global
  0
MLINESTYLE
  5
18
102
{ACAD_REACTORS
330
17
102
}
330
17
100
AcDbMlineStyle
  2
Standard
 70
     0
  3

 62
   256
 51
90.0
 52
90.0
 71
     2
 49
0.5
 62
   256
  6
BYLAYER
 49
-0.5
 62
   256
  6
BYLAYER
  0
ACDBPLACEHOLDER
  5
F
102
{ACAD_REACTORS
330
E
102
}
330
E
  0
VISUALSTYLE
  5
2F
102
{ACAD_REACTORS
330
2A
102
}
102
{ACAD_XDICTIONARY
360
5A6
102
}
330
2A
100
AcDbVisualStyle
  2
2dWireframe
 70
     4
 71
     0
 72
     2
 73
     0
 90
        0
 40
-0.6
 41
-30.0
 62
     5
 63
     7
 74
     1
 91
        4
 64
     7
 65
   257
 75
     1
175
     1
 42
1.0
 92
        0
 66
   257
 43
1.0
 76
     1
 77
     6
 78
     2
 67
     7
 79
     5
170
     0
171
     0
290
     0
174
     0
 93
        1
 44
0.0
173
     0
291
     0
 45
0.0
1001
ACAD
1000
AcDbSavedByObjectVersion
1070
     0
  0
VISUALSTYLE
  5
31
102
{ACAD_REACTORS
330
2A
102
}
102
{ACAD_XDICTIONARY
360
5AA
102
}
330
2A
100
AcDbVisualStyle
  2
3D Hidden
 70
     6
 71
     1
 72
     2
 73
     2
 90
        0
 40
-0.6
 41
-30.0
 62
     5
 63
     7
 74
     2
 91
        2
 64
     7
 65
   257
 75
     2
175
     1
 42
40.0
 92
        0
 66
   257
 43
1.0
 76
     1
 77
     6
 78
     2
 67
     7
 79
     3
170
     0
171
     0
290
     0
174
     0
 93
        1
 44
0.0
173
     0
291
     0
 45
0.0
1001
ACAD
1000
AcDbSavedByObjectVersion
1070
     0
  0
VISUALSTYLE
  5
30
102
{ACAD_REACTORS
330
2A
102
}
102
{ACAD_XDICTIONARY
360
5A8
102
}
330
2A
100
AcDbVisualStyle
  2
3dWireframe
 70
     5
 71
     0
 72
     2
 73
     0
 90
        0
 40
-0.6
 41
-30.0
 62
     5
 63
     7
 74
     1
 91
        4
 64
     7
 65
   257
 75
     1
175
     1
 42
1.0
 92
        0
 66
   257
 43
1.0
 76
     1
 77
     6
 78
     2
 67
     7
 79
     5
170
     0
171
     0
290
     0
174
     0
 93
        1
 44
0.0
173
     0
291
     0
 45
0.0
1001
ACAD
1000
AcDbSavedByObjectVersion
1070
     0
  0
VISUALSTYLE
  5
32
102
{ACAD_REACTORS
330
2A
102
}
102
{ACAD_XDICTIONARY
360
5AC
102
}
330
2A
100
AcDbVisualStyle
  2
Basic
 70
     7
 71
     1
 72
     0
 73
     1
 90
        0
 40
-0.6
 41
-30.0
 62
     5
 63
     7
 74
     0
 91
        4
 64
     7
 65
   257
 75
     1
175
     1
 42
1.0
 92
        8
 66
     7
 43
1.0
 76
     1
 77
     6
 78
     2
 67
     7
 79
     5
170
     0
171
     0
290
     0
174
     0
 93
        1
 44
0.0
173
     0
291
     1
 45
0.0
1001
ACAD
1000
AcDbSavedByObjectVersion
1070
     0
  0
VISUALSTYLE
  5
36
102
{ACAD_REACTORS
330
2A
102
}
102
{ACAD_XDICTIONARY
360
5B4
102
}
330
2A
100
AcDbVisualStyle
  2
Brighten
 70
    12
 71
     2
 72
     2
 73
     0
 90
        0
 40
-0.6
 41
-30.0
 62
     5
 63
     7
 74
     1
 91
        4
 64
     7
 65
   257
 75
     1
175
     1
 42
1.0
 92
        8
 66
     7
 43
1.0
 76
     1
 77
     6
 78
     2
 67
     7
 79
     5
170
     0
171
     0
290
     0
174
     0
 93
        1
 44
50.0
173
     0
291
     1
 45
0.0
1001
ACAD
1000
AcDbSavedByObjectVersion
1070
     0
  0
VISUALSTYLE
  5
3A
102
{ACAD_REACTORS
330
2A
102
}
102
{ACAD_XDICTIONARY
360
5BC
102
}
330
2A
100
AcDbVisualStyle
  2
ColorChange
 70
    16
 71
     2
 72
     2
 73
     3
 90
        0
 40
-0.6
 41
-30.0
 62
     5
 63
     8
 74
     1
 91
        4
 64
     7
 65
   257
 75
     1
175
     1
 42
1.0
 92
        8
 66
     8
 43
1.0
 76
     1
 77
     6
 78
     2
 67
     7
 79
     5
170
     0
171
     0
290
     0
174
     0
 93
        1
 44
0.0
173
     0
291
     1
 45
0.0
1001
ACAD
1000
AcDbSavedByObjectVersion
1070
     0
  0
VISUALSTYLE
  5
34
102
{ACAD_REACTORS
330
2A
102
}
102
{ACAD_XDICTIONARY
360
5B0
102
}
330
2A
100
AcDbVisualStyle
  2
Conceptual
 70
     9
 71
     3
 72
     2
 73
     0
 90
        0
 40
-0.6
 41
-30.0
 62
     5
 63
     7
 74
     2
 91
        2
 64
     7
 65
   257
 75
     1
175
     1
 42
40.0
 92
        8
 66
     7
 43
1.0
 76
     1
 77
     6
 78
     2
 67
     7
 79
     3
170
     0
171
     0
290
     0
174
     0
 93
        1
 44
0.0
173
     0
291
     0
 45
0.0
1001
ACAD
1000
AcDbSavedByObjectVersion
1070
     0
  0
VISUALSTYLE
  5
35
102
{ACAD_REACTORS
330
2A
102
}
102
{ACAD_XDICTIONARY
360
5B2
102
}
330
2A
100
AcDbVisualStyle
  2
Dim
 70
    11
 71
     2
 72
     2
 73
     0
 90
        0
 40
-0.6
 41
-30.0
 62
     5
 63
     7
 74
     1
 91
        4
 64
     7
 65
   257
 75
     1
175
     1
 42
1.0
 92
        8
 66
     7
 43
1.0
 76
     1
 77
     6
 78
     2
 67
     7
 79
     5
170
     0
171
     0
290
     0
174
     0
 93
        1
 44
-50.0
173
     0
291
     1
 45
0.0
1001
ACAD
1000
AcDbSavedByObjectVersion
1070
     0
  0
VISUALSTYLE
  5
39
102
{ACAD_REACTORS
330
2A
102
}
102
{ACAD_XDICTIONARY
360
5BA
102
}
330
2A
100
AcDbVisualStyle
  2
Facepattern
 70
    15
 71
     2
 72
     2
 73
     0
 90
        0
 40
-0.6
 41
-30.0
 62
     5
 63
     7
 74
     1
 91
        4
 64
     7
 65
   257
 75
     1
175
     1
 42
1.0
 92
        8
 66
     7
 43
1.0
 76
     1
 77
     6
 78
     2
 67
     7
 79
     5
170
     0
171
     0
290
     0
174
     0
 93
        1
 44
0.0
173
     0
291
     1
 45
0.0
1001
ACAD
1000
AcDbSavedByObjectVersion
1070
     0
  0
VISUALSTYLE
  5
2B
102
{ACAD_REACTORS
330
2A
102
}
102
{ACAD_XDICTIONARY
360
59E
102
}
330
2A
100
AcDbVisualStyle
  2
Flat
 70
     0
 71
     2
 72
     1
 73
     1
 90
        2
 40
-0.6
 41
30.0
 62
     5
 63
     7
 74
     0
 91
        4
 64
     7
 65
   257
 75
     1
175
     1
 42
1.0
 92
        8
 66
     7
 43
1.0
 76
     1
 77
     6
 78
     2
 67
     7
 79
     5
170
     0
171
     0
290
     0
174
     0
 93
       13
 44
0.0
173
     0
291
     1
 45
0.0
1001
ACAD
1000
AcDbSavedByObjectVersion
1070
     0
  0
VISUALSTYLE
  5
2C
102
{ACAD_REACTORS
330
2A
102
}
102
{ACAD_XDICTIONARY
360
5A0
102
}
330
2A
100
AcDbVisualStyle
  2
FlatWithEdges
 70
     1
 71
     2
 72
     1
 73
     1
 90
        2
 40
-0.6
 41
30.0
 62
     5
 63
     7
 74
     1
 91
        4
 64
     7
 65
   257
 75
     1
175
     1
 42
1.0
 92
        0
 66
   257
 43
1.0
 76
     1
 77
     6
 78
     2
 67
     7
 79
     5
170
     0
171
     0
290
     0
174
     0
 93
       13
 44
0.0
173
     0
291
     1
 45
0.0
1001
ACAD
1000
AcDbSavedByObjectVersion
1070
     0
  0
VISUALSTYLE
  5
2D
102
{ACAD_REACTORS
330
2A
102
}
102
{ACAD_XDICTIONARY
360
5A2
102
}
330
2A
100
AcDbVisualStyle
  2
Gouraud
 70
     2
 71
     2
 72
     2
 73
     1
 90
        2
 40
-0.6
 41
30.0
 62
     5
 63
     7
 74
     0
 91
        4
 64
     7
 65
   257
 75
     1
175
     1
 42
1.0
 92
        0
 66
     7
 43
1.0
 76
     1
 77
     6
 78
     2
 67
     7
 79
     5
170
     0
171
     0
290
     0
174
     0
 93
       13
 44
0.0
173
     0
291
     1
 45
0.0
1001
ACAD
1000
AcDbSavedByObjectVersion
1070
     0
  0
VISUALSTYLE
  5
2E
102
{ACAD_REACTORS
330
2A
102
}
102
{ACAD_XDICTIONARY
360
5A4
102
}
330
2A
100
AcDbVisualStyle
  2
GouraudWithEdges
 70
     3
 71
     2
 72
     2
 73
     1
 90
        2
 40
-0.6
 41
30.0
 62
     5
 63
     7
 74
     1
 91
        4
 64
     7
 65
   257
 75
     1
175
     1
 42
1.0
 92
        0
 66
   257
 43
1.0
 76
     1
 77
     6
 78
     2
 67
     7
 79
     5
170
     0
171
     0
290
     0
174
     0
 93
       13
 44
0.0
173
     0
291
     1
 45
0.0
1001
ACAD
1000
AcDbSavedByObjectVersion
1070
     0
  0
VISUALSTYLE
  5
38
102
{ACAD_REACTORS
330
2A
102
}
102
{ACAD_XDICTIONARY
360
5B8
102
}
330
2A
100
AcDbVisualStyle
  2
Linepattern
 70
    14
 71
     2
 72
     2
 73
     0
 90
        0
 40
-0.6
 41
-30.0
 62
     5
 63
     7
 74
     1
 91
        4
 64
     7
 65
   257
 75
     7
175
     7
 42
1.0
 92
        8
 66
     7
 43
1.0
 76
     1
 77
     6
 78
     2
 67
     7
 79
     5
170
     0
171
     0
290
     0
174
     0
 93
        1
 44
0.0
173
     0
291
     1
 45
0.0
1001
ACAD
1000
AcDbSavedByObjectVersion
1070
     0
  0
VISUALSTYLE
  5
33
102
{ACAD_REACTORS
330
2A
102
}
102
{ACAD_XDICTIONARY
360
5AE
102
}
330
2A
100
AcDbVisualStyle
  2
Realistic
 70
     8
 71
     2
 72
     2
 73
     0
 90
        0
 40
-0.6
 41
-30.0
 62
     5
 63
     7
 74
     1
 91
        0
 64
     7
 65
   257
 75
     1
175
     1
 42
1.0
 92
        8
 66
     8
 43
1.0
 76
     1
 77
     6
 78
     2
 67
     7
 79
     5
170
     0
171
     0
290
     0
174
     0
 93
       13
 44
0.0
173
     0
291
     0
 45
0.0
1001
ACAD
1000
AcDbSavedByObjectVersion
1070
     0
  0
VISUALSTYLE
  5
37
102
{ACAD_REACTORS
330
2A
102
}
102
{ACAD_XDICTIONARY
360
5B6
102
}
330
2A
100
AcDbVisualStyle
  2
Thicken
 70
    13
 71
     2
 72
     2
 73
     0
 90
        0
 40
-0.6
 41
-30.0
 62
     5
 63
     7
 74
     1
 91
        4
 64
     7
 65
   257
 75
     1
175
     1
 42
1.0
 92
       12
 66
     7
 43
1.0
 76
     1
 77
     6
 78
     2
 67
     7
 79
     5
170
     0
171
     0
290
     0
174
     0
 93
        1
 44
0.0
173
     0
291
     1
 45
0.0
1001
ACAD
1000
AcDbSavedByObjectVersion
1070
     0
  0
DICTIONARYVAR
  5
59C
102
{ACAD_REACTORS
330
599
102
}
330
599
100
DictionaryVariables
280
     0
  1
2
  0
DICTIONARYVAR
  5
59D
102
{ACAD_REACTORS
330
599
102
}
330
599
100
DictionaryVariables
280
     0
  1
1
  0
DICTIONARY
  5
5C0
330
3D
100
AcDbDictionary
280
     1
281
     1
  3
ACAD_XREC_ROUNDTRIP
360
5C1
  0
DICTIONARY
  5
5BE
330
3C
100
AcDbDictionary
280
     1
281
     1
  3
ACAD_XREC_ROUNDTRIP
360
5BF
  0
DICTIONARY
  5
5C2
330
3E
100
AcDbDictionary
280
     1
281
     1
  3
ACAD_XREC_ROUNDTRIP
360
5C3
  0
DICTIONARY
  5
5A6
330
2F
100
AcDbDictionary
280
     1
281
     1
  3
ACAD_XREC_ROUNDTRIP
360
5A7
  0
DICTIONARY
  5
5AA
330
31
100
AcDbDictionary
280
     1
281
     1
  3
ACAD_XREC_ROUNDTRIP
360
5AB
  0
DICTIONARY
  5
5A8
330
30
100
AcDbDictionary
280
     1
281
     1
  3
ACAD_XREC_ROUNDTRIP
360
5A9
  0
DICTIONARY
  5
5AC
330
32
100
AcDbDictionary
280
     1
281
     1
  3
ACAD_XREC_ROUNDTRIP
360
5AD
  0
DICTIONARY
  5
5B4
330
36
100
AcDbDictionary
280
     1
281
     1
  3
ACAD_XREC_ROUNDTRIP
360
5B5
  0
DICTIONARY
  5
5BC
330
3A
100
AcDbDictionary
280
     1
281
     1
  3
ACAD_XREC_ROUNDTRIP
360
5BD
  0
DICTIONARY
  5
5B0
330
34
100
AcDbDictionary
280
     1
281
     1
  3
ACAD_XREC_ROUNDTRIP
360
5B1
  0
DICTIONARY
  5
5B2
330
35
100
AcDbDictionary
280
     1
281
     1
  3
ACAD_XREC_ROUNDTRIP
360
5B3
  0
DICTIONARY
  5
5BA
330
39
100
AcDbDictionary
280
     1
281
     1
  3
ACAD_XREC_ROUNDTRIP
360
5BB
  0
DICTIONARY
  5
59E
330
2B
100
AcDbDictionary
280
     1
281
     1
  3
ACAD_XREC_ROUNDTRIP
360
59F
  0
DICTIONARY
  5
5A0
330
2C
100
AcDbDictionary
280
     1
281
     1
  3
ACAD_XREC_ROUNDTRIP
360
5A1
  0
DICTIONARY
  5
5A2
330
2D
100
AcDbDictionary
280
     1
281
     1
  3
ACAD_XREC_ROUNDTRIP
360
5A3
  0
DICTIONARY
  5
5A4
330
2E
100
AcDbDictionary
280
     1
281
     1
  3
ACAD_XREC_ROUNDTRIP
360
5A5
  0
DICTIONARY
  5
5B8
330
38
100
AcDbDictionary
280
     1
281
     1
  3
ACAD_XREC_ROUNDTRIP
360
5B9
  0
DICTIONARY
  5
5AE
330
33
100
AcDbDictionary
280
     1
281
     1
  3
ACAD_XREC_ROUNDTRIP
360
5AF
  0
DICTIONARY
  5
5B6
330
37
100
AcDbDictionary
280
     1
281
     1
  3
ACAD_XREC_ROUNDTRIP
360
5B7
  0
XRECORD
  5
5C1
102
{ACAD_REACTORS
330
5C0
102
}
330
5C0
100
AcDbXrecord
280
     1
102
MATERIAL
148
0.0
149
0.0
149
0.0
 93
        0
 94
      127
282
     0
 72
     1
 77
     1
171
     1
175
     1
179
     1
273
     0
  0
XRECORD
  5
5BF
102
{ACAD_REACTORS
330
5BE
102
}
330
5BE
100
AcDbXrecord
280
     1
102
MATERIAL
148
0.0
149
0.0
149
0.0
 93
        0
 94
      127
282
     0
 72
     1
 77
     1
171
     1
175
     1
179
     1
273
     0
  0
XRECORD
  5
5C3
102
{ACAD_REACTORS
330
5C2
102
}
330
5C2
100
AcDbXrecord
280
     1
102
MATERIAL
148
0.0
149
0.0
149
0.0
 93
        0
 94
      127
282
     0
 72
     1
 77
     1
171
     1
175
     1
179
     1
273
     0
  0
XRECORD
  5
5A7
102
{ACAD_REACTORS
330
5A6
102
}
330
5A6
100
AcDbXrecord
280
     1
102
RTVSPropertyOp0
 70
     1
102
RTVSPropertyOp1
 70
     1
102
RTVSPropertyOp2
 70
     1
102
RTVSPropertyOp3
 70
     1
102
RTVSPropertyOp4
 70
     1
102
RTVSPropertyOp5
 70
     1
102
RTVSPropertyOp6
 70
     1
102
RTVSPropertyOp7
 70
     1
102
RTVSPropertyOp8
 70
     1
102
RTVSPropertyOp9
 70
     1
102
RTVSPropertyOp10
 70
     1
102
RTVSPropertyOp11
 70
     1
102
RTVSPropertyOp12
 70
     1
102
RTVSPropertyOp13
 70
     1
102
RTVSPropertyOp14
 70
     1
102
RTVSPropertyOp15
 70
     1
102
RTVSPropertyOp16
 70
     1
102
RTVSPropertyOp17
 70
     1
102
RTVSPropertyOp18
 70
     1
102
RTVSPropertyOp19
 70
     1
102
RTVSPropertyOp20
 70
     1
102
RTVSPropertyOp21
 70
     1
102
RTVSPropertyOp22
 70
     1
102
RTVSPropertyOp23
 70
     1
102
RTVSPropertyOp24
 70
     1
102
RTVSPropertyOp25
 70
     1
102
RTVSPropertyOp26
 70
     1
102
RTVSPropertyOp27
 70
     1
  0
XRECORD
  5
5AB
102
{ACAD_REACTORS
330
5AA
102
}
330
5AA
100
AcDbXrecord
280
     1
102
RTVSPropertyOp0
 70
     1
102
RTVSPropertyOp1
 70
     1
102
RTVSPropertyOp2
 70
     1
102
RTVSPropertyOp3
 70
     1
102
RTVSPropertyOp4
 70
     1
102
RTVSPropertyOp5
 70
     1
102
RTVSPropertyOp6
 70
     1
102
RTVSPropertyOp7
 70
     1
102
RTVSPropertyOp8
 70
     1
102
RTVSPropertyOp9
 70
     1
102
RTVSPropertyOp10
 70
     1
102
RTVSPropertyOp11
 70
     1
102
RTVSPropertyOp12
 70
     1
102
RTVSPropertyOp13
 70
     1
102
RTVSPropertyOp14
 70
     1
102
RTVSPropertyOp15
 70
     1
102
RTVSPropertyOp16
 70
     1
102
RTVSPropertyOp17
 70
     1
102
RTVSPropertyOp18
 70
     1
102
RTVSPropertyOp19
 70
     1
102
RTVSPropertyOp20
 70
     1
102
RTVSPropertyOp21
 70
     1
102
RTVSPropertyOp22
 70
     1
102
RTVSPropertyOp23
 70
     1
102
RTVSPropertyOp24
 70
     1
102
RTVSPropertyOp25
 70
     1
102
RTVSPropertyOp26
 70
     1
102
RTVSPropertyOp27
 70
     1
  0
XRECORD
  5
5A9
102
{ACAD_REACTORS
330
5A8
102
}
330
5A8
100
AcDbXrecord
280
     1
102
RTVSPropertyOp0
 70
     1
102
RTVSPropertyOp1
 70
     1
102
RTVSPropertyOp2
 70
     1
102
RTVSPropertyOp3
 70
     1
102
RTVSPropertyOp4
 70
     1
102
RTVSPropertyOp5
 70
     1
102
RTVSPropertyOp6
 70
     1
102
RTVSPropertyOp7
 70
     1
102
RTVSPropertyOp8
 70
     1
102
RTVSPropertyOp9
 70
     1
102
RTVSPropertyOp10
 70
     1
102
RTVSPropertyOp11
 70
     1
102
RTVSPropertyOp12
 70
     1
102
RTVSPropertyOp13
 70
     1
102
RTVSPropertyOp14
 70
     1
102
RTVSPropertyOp15
 70
     1
102
RTVSPropertyOp16
 70
     1
102
RTVSPropertyOp17
 70
     1
102
RTVSPropertyOp18
 70
     1
102
RTVSPropertyOp19
 70
     1
102
RTVSPropertyOp20
 70
     1
102
RTVSPropertyOp21
 70
     1
102
RTVSPropertyOp22
 70
     1
102
RTVSPropertyOp23
 70
     1
102
RTVSPropertyOp24
 70
     1
102
RTVSPropertyOp25
 70
     1
102
RTVSPropertyOp26
 70
     1
102
RTVSPropertyOp27
 70
     1
  0
XRECORD
  5
5AD
102
{ACAD_REACTORS
330
5AC
102
}
330
5AC
100
AcDbXrecord
280
     1
102
RTVSPropertyOp0
 70
     1
102
RTVSPropertyOp1
 70
     1
102
RTVSPropertyOp2
 70
     1
102
RTVSPropertyOp3
 70
     1
102
RTVSPropertyOp4
 70
     1
102
RTVSPropertyOp5
 70
     1
102
RTVSPropertyOp6
 70
     1
102
RTVSPropertyOp7
 70
     1
102
RTVSPropertyOp8
 70
     1
102
RTVSPropertyOp9
 70
     1
102
RTVSPropertyOp10
 70
     1
102
RTVSPropertyOp11
 70
     1
102
RTVSPropertyOp12
 70
     1
102
RTVSPropertyOp13
 70
     1
102
RTVSPropertyOp14
 70
     1
102
RTVSPropertyOp15
 70
     1
102
RTVSPropertyOp16
 70
     1
102
RTVSPropertyOp17
 70
     1
102
RTVSPropertyOp18
 70
     1
102
RTVSPropertyOp19
 70
     1
102
RTVSPropertyOp20
 70
     1
102
RTVSPropertyOp21
 70
     1
102
RTVSPropertyOp22
 70
     1
102
RTVSPropertyOp23
 70
     1
102
RTVSPropertyOp24
 70
     1
102
RTVSPropertyOp25
 70
     1
102
RTVSPropertyOp26
 70
     1
102
RTVSPropertyOp27
 70
     1
  0
XRECORD
  5
5B5
102
{ACAD_REACTORS
330
5B4
102
}
330
5B4
100
AcDbXrecord
280
     1
102
RTVSPropertyOp0
 70
     1
102
RTVSPropertyOp1
 70
     1
102
RTVSPropertyOp2
 70
     1
102
RTVSPropertyOp3
 70
     1
102
RTVSPropertyOp4
 70
     1
102
RTVSPropertyOp5
 70
     1
102
RTVSPropertyOp6
 70
     1
102
RTVSPropertyOp7
 70
     1
102
RTVSPropertyOp8
 70
     1
102
RTVSPropertyOp9
 70
     1
102
RTVSPropertyOp10
 70
     1
102
RTVSPropertyOp11
 70
     1
102
RTVSPropertyOp12
 70
     1
102
RTVSPropertyOp13
 70
     1
102
RTVSPropertyOp14
 70
     1
102
RTVSPropertyOp15
 70
     1
102
RTVSPropertyOp16
 70
     1
102
RTVSPropertyOp17
 70
     1
102
RTVSPropertyOp18
 70
     1
102
RTVSPropertyOp19
 70
     1
102
RTVSPropertyOp20
 70
     1
102
RTVSPropertyOp21
 70
     1
102
RTVSPropertyOp22
 70
     1
102
RTVSPropertyOp23
 70
     1
102
RTVSPropertyOp24
 70
     1
102
RTVSPropertyOp25
 70
     1
102
RTVSPropertyOp26
 70
     1
102
RTVSPropertyOp27
 70
     1
  0
XRECORD
  5
5BD
102
{ACAD_REACTORS
330
5BC
102
}
330
5BC
100
AcDbXrecord
280
     1
102
RTVSPropertyOp0
 70
     1
102
RTVSPropertyOp1
 70
     1
102
RTVSPropertyOp2
 70
     1
102
RTVSPropertyOp3
 70
     1
102
RTVSPropertyOp4
 70
     1
102
RTVSPropertyOp5
 70
     1
102
RTVSPropertyOp6
 70
     1
102
RTVSPropertyOp7
 70
     1
102
RTVSPropertyOp8
 70
     1
102
RTVSPropertyOp9
 70
     1
102
RTVSPropertyOp10
 70
     1
102
RTVSPropertyOp11
 70
     1
102
RTVSPropertyOp12
 70
     1
102
RTVSPropertyOp13
 70
     1
102
RTVSPropertyOp14
 70
     1
102
RTVSPropertyOp15
 70
     1
102
RTVSPropertyOp16
 70
     1
102
RTVSPropertyOp17
 70
     1
102
RTVSPropertyOp18
 70
     1
102
RTVSPropertyOp19
 70
     1
102
RTVSPropertyOp20
 70
     1
102
RTVSPropertyOp21
 70
     1
102
RTVSPropertyOp22
 70
     1
102
RTVSPropertyOp23
 70
     1
102
RTVSPropertyOp24
 70
     1
102
RTVSPropertyOp25
 70
     1
102
RTVSPropertyOp26
 70
     1
102
RTVSPropertyOp27
 70
     1
  0
XRECORD
  5
5B1
102
{ACAD_REACTORS
330
5B0
102
}
330
5B0
100
AcDbXrecord
280
     1
102
RTVSPropertyOp0
 70
     1
102
RTVSPropertyOp1
 70
     1
102
RTVSPropertyOp2
 70
     1
102
RTVSPropertyOp3
 70
     1
102
RTVSPropertyOp4
 70
     1
102
RTVSPropertyOp5
 70
     1
102
RTVSPropertyOp6
 70
     1
102
RTVSPropertyOp7
 70
     1
102
RTVSPropertyOp8
 70
     1
102
RTVSPropertyOp9
 70
     1
102
RTVSPropertyOp10
 70
     1
102
RTVSPropertyOp11
 70
     1
102
RTVSPropertyOp12
 70
     1
102
RTVSPropertyOp13
 70
     1
102
RTVSPropertyOp14
 70
     1
102
RTVSPropertyOp15
 70
     1
102
RTVSPropertyOp16
 70
     1
102
RTVSPropertyOp17
 70
     1
102
RTVSPropertyOp18
 70
     1
102
RTVSPropertyOp19
 70
     1
102
RTVSPropertyOp20
 70
     1
102
RTVSPropertyOp21
 70
     1
102
RTVSPropertyOp22
 70
     1
102
RTVSPropertyOp23
 70
     1
102
RTVSPropertyOp24
 70
     1
102
RTVSPropertyOp25
 70
     1
102
RTVSPropertyOp26
 70
     1
102
RTVSPropertyOp27
 70
     1
  0
XRECORD
  5
5B3
102
{ACAD_REACTORS
330
5B2
102
}
330
5B2
100
AcDbXrecord
280
     1
102
RTVSPropertyOp0
 70
     1
102
RTVSPropertyOp1
 70
     1
102
RTVSPropertyOp2
 70
     1
102
RTVSPropertyOp3
 70
     1
102
RTVSPropertyOp4
 70
     1
102
RTVSPropertyOp5
 70
     1
102
RTVSPropertyOp6
 70
     1
102
RTVSPropertyOp7
 70
     1
102
RTVSPropertyOp8
 70
     1
102
RTVSPropertyOp9
 70
     1
102
RTVSPropertyOp10
 70
     1
102
RTVSPropertyOp11
 70
     1
102
RTVSPropertyOp12
 70
     1
102
RTVSPropertyOp13
 70
     1
102
RTVSPropertyOp14
 70
     1
102
RTVSPropertyOp15
 70
     1
102
RTVSPropertyOp16
 70
     1
102
RTVSPropertyOp17
 70
     1
102
RTVSPropertyOp18
 70
     1
102
RTVSPropertyOp19
 70
     1
102
RTVSPropertyOp20
 70
     1
102
RTVSPropertyOp21
 70
     1
102
RTVSPropertyOp22
 70
     1
102
RTVSPropertyOp23
 70
     1
102
RTVSPropertyOp24
 70
     1
102
RTVSPropertyOp25
 70
     1
102
RTVSPropertyOp26
 70
     1
102
RTVSPropertyOp27
 70
     1
  0
XRECORD
  5
5BB
102
{ACAD_REACTORS
330
5BA
102
}
330
5BA
100
AcDbXrecord
280
     1
102
RTVSPropertyOp0
 70
     1
102
RTVSPropertyOp1
 70
     1
102
RTVSPropertyOp2
 70
     1
102
RTVSPropertyOp3
 70
     1
102
RTVSPropertyOp4
 70
     1
102
RTVSPropertyOp5
 70
     1
102
RTVSPropertyOp6
 70
     1
102
RTVSPropertyOp7
 70
     1
102
RTVSPropertyOp8
 70
     1
102
RTVSPropertyOp9
 70
     1
102
RTVSPropertyOp10
 70
     1
102
RTVSPropertyOp11
 70
     1
102
RTVSPropertyOp12
 70
     1
102
RTVSPropertyOp13
 70
     1
102
RTVSPropertyOp14
 70
     1
102
RTVSPropertyOp15
 70
     1
102
RTVSPropertyOp16
 70
     1
102
RTVSPropertyOp17
 70
     1
102
RTVSPropertyOp18
 70
     1
102
RTVSPropertyOp19
 70
     1
102
RTVSPropertyOp20
 70
     1
102
RTVSPropertyOp21
 70
     1
102
RTVSPropertyOp22
 70
     1
102
RTVSPropertyOp23
 70
     1
102
RTVSPropertyOp24
 70
     1
102
RTVSPropertyOp25
 70
     1
102
RTVSPropertyOp26
 70
     1
102
RTVSPropertyOp27
 70
     1
  0
XRECORD
  5
59F
102
{ACAD_REACTORS
330
59E
102
}
330
59E
100
AcDbXrecord
280
     1
102
RTVSPropertyOp0
 70
     1
102
RTVSPropertyOp1
 70
     1
102
RTVSPropertyOp2
 70
     1
102
RTVSPropertyOp3
 70
     1
102
RTVSPropertyOp4
 70
     1
102
RTVSPropertyOp5
 70
     1
102
RTVSPropertyOp6
 70
     1
102
RTVSPropertyOp7
 70
     1
102
RTVSPropertyOp8
 70
     1
102
RTVSPropertyOp9
 70
     1
102
RTVSPropertyOp10
 70
     1
102
RTVSPropertyOp11
 70
     1
102
RTVSPropertyOp12
 70
     1
102
RTVSPropertyOp13
 70
     1
102
RTVSPropertyOp14
 70
     1
102
RTVSPropertyOp15
 70
     1
102
RTVSPropertyOp16
 70
     1
102
RTVSPropertyOp17
 70
     1
102
RTVSPropertyOp18
 70
     1
102
RTVSPropertyOp19
 70
     1
102
RTVSPropertyOp20
 70
     1
102
RTVSPropertyOp21
 70
     1
102
RTVSPropertyOp22
 70
     1
102
RTVSPropertyOp23
 70
     1
102
RTVSPropertyOp24
 70
     1
102
RTVSPropertyOp25
 70
     1
102
RTVSPropertyOp26
 70
     1
102
RTVSPropertyOp27
 70
     1
  0
XRECORD
  5
5A1
102
{ACAD_REACTORS
330
5A0
102
}
330
5A0
100
AcDbXrecord
280
     1
102
RTVSPropertyOp0
 70
     1
102
RTVSPropertyOp1
 70
     1
102
RTVSPropertyOp2
 70
     1
102
RTVSPropertyOp3
 70
     1
102
RTVSPropertyOp4
 70
     1
102
RTVSPropertyOp5
 70
     1
102
RTVSPropertyOp6
 70
     1
102
RTVSPropertyOp7
 70
     1
102
RTVSPropertyOp8
 70
     1
102
RTVSPropertyOp9
 70
     1
102
RTVSPropertyOp10
 70
     1
102
RTVSPropertyOp11
 70
     1
102
RTVSPropertyOp12
 70
     1
102
RTVSPropertyOp13
 70
     1
102
RTVSPropertyOp14
 70
     1
102
RTVSPropertyOp15
 70
     1
102
RTVSPropertyOp16
 70
     1
102
RTVSPropertyOp17
 70
     1
102
RTVSPropertyOp18
 70
     1
102
RTVSPropertyOp19
 70
     1
102
RTVSPropertyOp20
 70
     1
102
RTVSPropertyOp21
 70
     1
102
RTVSPropertyOp22
 70
     1
102
RTVSPropertyOp23
 70
     1
102
RTVSPropertyOp24
 70
     1
102
RTVSPropertyOp25
 70
     1
102
RTVSPropertyOp26
 70
     1
102
RTVSPropertyOp27
 70
     1
  0
XRECORD
  5
5A3
102
{ACAD_REACTORS
330
5A2
102
}
330
5A2
100
AcDbXrecord
280
     1
102
RTVSPropertyOp0
 70
     1
102
RTVSPropertyOp1
 70
     1
102
RTVSPropertyOp2
 70
     1
102
RTVSPropertyOp3
 70
     1
102
RTVSPropertyOp4
 70
     1
102
RTVSPropertyOp5
 70
     1
102
RTVSPropertyOp6
 70
     1
102
RTVSPropertyOp7
 70
     1
102
RTVSPropertyOp8
 70
     1
102
RTVSPropertyOp9
 70
     1
102
RTVSPropertyOp10
 70
     1
102
RTVSPropertyOp11
 70
     1
102
RTVSPropertyOp12
 70
     1
102
RTVSPropertyOp13
 70
     1
102
RTVSPropertyOp14
 70
     1
102
RTVSPropertyOp15
 70
     1
102
RTVSPropertyOp16
 70
     1
102
RTVSPropertyOp17
 70
     1
102
RTVSPropertyOp18
 70
     1
102
RTVSPropertyOp19
 70
     1
102
RTVSPropertyOp20
 70
     1
102
RTVSPropertyOp21
 70
     1
102
RTVSPropertyOp22
 70
     1
102
RTVSPropertyOp23
 70
     1
102
RTVSPropertyOp24
 70
     1
102
RTVSPropertyOp25
 70
     1
102
RTVSPropertyOp26
 70
     1
102
RTVSPropertyOp27
 70
     1
  0
XRECORD
  5
5A5
102
{ACAD_REACTORS
330
5A4
102
}
330
5A4
100
AcDbXrecord
280
     1
102
RTVSPropertyOp0
 70
     1
102
RTVSPropertyOp1
 70
     1
102
RTVSPropertyOp2
 70
     1
102
RTVSPropertyOp3
 70
     1
102
RTVSPropertyOp4
 70
     1
102
RTVSPropertyOp5
 70
     1
102
RTVSPropertyOp6
 70
     1
102
RTVSPropertyOp7
 70
     1
102
RTVSPropertyOp8
 70
     1
102
RTVSPropertyOp9
 70
     1
102
RTVSPropertyOp10
 70
     1
102
RTVSPropertyOp11
 70
     1
102
RTVSPropertyOp12
 70
     1
102
RTVSPropertyOp13
 70
     1
102
RTVSPropertyOp14
 70
     1
102
RTVSPropertyOp15
 70
     1
102
RTVSPropertyOp16
 70
     1
102
RTVSPropertyOp17
 70
     1
102
RTVSPropertyOp18
 70
     1
102
RTVSPropertyOp19
 70
     1
102
RTVSPropertyOp20
 70
     1
102
RTVSPropertyOp21
 70
     1
102
RTVSPropertyOp22
 70
     1
102
RTVSPropertyOp23
 70
     1
102
RTVSPropertyOp24
 70
     1
102
RTVSPropertyOp25
 70
     1
102
RTVSPropertyOp26
 70
     1
102
RTVSPropertyOp27
 70
     1
  0
XRECORD
  5
5B9
102
{ACAD_REACTORS
330
5B8
102
}
330
5B8
100
AcDbXrecord
280
     1
102
RTVSPropertyOp0
 70
     1
102
RTVSPropertyOp1
 70
     1
102
RTVSPropertyOp2
 70
     1
102
RTVSPropertyOp3
 70
     1
102
RTVSPropertyOp4
 70
     1
102
RTVSPropertyOp5
 70
     1
102
RTVSPropertyOp6
 70
     1
102
RTVSPropertyOp7
 70
     1
102
RTVSPropertyOp8
 70
     1
102
RTVSPropertyOp9
 70
     1
102
RTVSPropertyOp10
 70
     1
102
RTVSPropertyOp11
 70
     1
102
RTVSPropertyOp12
 70
     1
102
RTVSPropertyOp13
 70
     1
102
RTVSPropertyOp14
 70
     1
102
RTVSPropertyOp15
 70
     1
102
RTVSPropertyOp16
 70
     1
102
RTVSPropertyOp17
 70
     1
102
RTVSPropertyOp18
 70
     1
102
RTVSPropertyOp19
 70
     1
102
RTVSPropertyOp20
 70
     1
102
RTVSPropertyOp21
 70
     1
102
RTVSPropertyOp22
 70
     1
102
RTVSPropertyOp23
 70
     1
102
RTVSPropertyOp24
 70
     1
102
RTVSPropertyOp25
 70
     1
102
RTVSPropertyOp26
 70
     1
102
RTVSPropertyOp27
 70
     1
  0
XRECORD
  5
5AF
102
{ACAD_REACTORS
330
5AE
102
}
330
5AE
100
AcDbXrecord
280
     1
102
RTVSPropertyOp0
 70
     1
102
RTVSPropertyOp1
 70
     1
102
RTVSPropertyOp2
 70
     1
102
RTVSPropertyOp3
 70
     1
102
RTVSPropertyOp4
 70
     1
102
RTVSPropertyOp5
 70
     1
102
RTVSPropertyOp6
 70
     1
102
RTVSPropertyOp7
 70
     1
102
RTVSPropertyOp8
 70
     1
102
RTVSPropertyOp9
 70
     1
102
RTVSPropertyOp10
 70
     1
102
RTVSPropertyOp11
 70
     1
102
RTVSPropertyOp12
 70
     1
102
RTVSPropertyOp13
 70
     1
102
RTVSPropertyOp14
 70
     1
102
RTVSPropertyOp15
 70
     1
102
RTVSPropertyOp16
 70
     1
102
RTVSPropertyOp17
 70
     1
102
RTVSPropertyOp18
 70
     1
102
RTVSPropertyOp19
 70
     1
102
RTVSPropertyOp20
 70
     1
102
RTVSPropertyOp21
 70
     1
102
RTVSPropertyOp22
 70
     1
102
RTVSPropertyOp23
 70
     1
102
RTVSPropertyOp24
 70
     1
102
RTVSPropertyOp25
 70
     1
102
RTVSPropertyOp26
 70
     1
102
RTVSPropertyOp27
 70
     1
  0
XRECORD
  5
5B7
102
{ACAD_REACTORS
330
5B6
102
}
330
5B6
100
AcDbXrecord
280
     1
102
RTVSPropertyOp0
 70
     1
102
RTVSPropertyOp1
 70
     1
102
RTVSPropertyOp2
 70
     1
102
RTVSPropertyOp3
 70
     1
102
RTVSPropertyOp4
 70
     1
102
RTVSPropertyOp5
 70
     1
102
RTVSPropertyOp6
 70
     1
102
RTVSPropertyOp7
 70
     1
102
RTVSPropertyOp8
 70
     1
102
RTVSPropertyOp9
 70
     1
102
RTVSPropertyOp10
 70
     1
102
RTVSPropertyOp11
 70
     1
102
RTVSPropertyOp12
 70
     1
102
RTVSPropertyOp13
 70
     1
102
RTVSPropertyOp14
 70
     1
102
RTVSPropertyOp15
 70
     1
102
RTVSPropertyOp16
 70
     1
102
RTVSPropertyOp17
 70
     1
102
RTVSPropertyOp18
 70
     1
102
RTVSPropertyOp19
 70
     1
102
RTVSPropertyOp20
 70
     1
102
RTVSPropertyOp21
 70
     1
102
RTVSPropertyOp22
 70
     1
102
RTVSPropertyOp23
 70
     1
102
RTVSPropertyOp24
 70
     1
102
RTVSPropertyOp25
 70
     1
102
RTVSPropertyOp26
 70
     1
102
RTVSPropertyOp27
 70
     1
  0
ENDSEC
  0
EOF
