  0
SECTION
  2
HEADER
  9
$ACADVER
  1
AC1015
  9
$ACADMAINTVER
 70
     6
  9
$DWGCODEPAGE
  3
ANSI_932
  9
$INSBASE
 10
0.0
 20
0.0
 30
0.0
  9
$EXTMIN
 10
-537.6000052988529
 20
-361.3500034734607
 30
0.0
  9
$EXTMAX
 10
529.2000105977058
 20
337.9500069469214
 30
0.0
  9
$LIMMIN
 10
-182.0
 20
-128.5
  9
$LIMMAX
 10
182.0
 20
128.5
  9
$ORTHOMODE
 70
     0
  9
$REGENMODE
 70
     1
  9
$FILLMODE
 70
     1
  9
$QTEXTMODE
 70
     0
  9
$MIRRTEXT
 70
     1
  9
$LTSCALE
 40
0.25
  9
$ATTMODE
 70
     1
  9
$TEXTSIZE
 40
0.2
  9
$TRACEWID
 40
0.05
  9
$TEXTSTYLE
  7
Standard
  9
$CLAYER
  8
0
  9
$CELTYPE
  6
ByLayer
  9
$CECOLOR
 62
   256
  9
$CELTSCALE
 40
1.0
  9
$DISPSILH
 70
     0
  9
$DIMSCALE
 40
1.0
  9
$DIMASZ
 40
3.000001882570243
  9
$DIMEXO
 40
1.0
  9
$DIMDLI
 40
10.0
  9
$DIMRND
 40
0.0
  9
$DIMDLE
 40
0.0
  9
$DIMEXE
 40
1.0
  9
$DIMTP
 40
0.0
  9
$DIMTM
 40
0.0
  9
$DIMTXT
 40
3.0
  9
$DIMCEN
 40
0.0
  9
$DIMTSZ
 40
0.0
  9
$DIMTOL
 70
     0
  9
$DIMLIM
 70
     0
  9
$DIMTIH
 70
     0
  9
$DIMTOH
 70
     0
  9
$DIMSE1
 70
     0
  9
$DIMSE2
 70
     0
  9
$DIMTAD
 70
     1
  9
$DIMZIN
 70
     8
  9
$DIMBLK
  1

  9
$DIMASO
 70
     1
  9
$DIMSHO
 70
     1
  9
$DIMPOST
  1

  9
$DIMAPOST
  1

  9
$DIMALT
 70
     0
  9
$DIMALTD
 70
     2
  9
$DIMALTF
 40
25.4
  9
$DIMLFAC
 40
1.0
  9
$DIMTOFL
 70
     0
  9
$DIMTVP
 40
0.0
  9
$DIMTIX
 70
     0
  9
$DIMSOXD
 70
     0
  9
$DIMSAH
 70
     0
  9
$DIMBLK1
  1

  9
$DIMBLK2
  1

  9
$DIMSTYLE
  2
Standard
  9
$DIMCLRD
 70
     0
  9
$DIMCLRE
 70
     0
  9
$DIMCLRT
 70
     0
  9
$DIMTFAC
 40
0.65
  9
$DIMGAP
 40
0.09
  9
$DIMJUST
 70
     0
  9
$DIMSD1
 70
     0
  9
$DIMSD2
 70
     0
  9
$DIMTOLJ
 70
     0
  9
$DIMTZIN
 70
     0
  9
$DIMALTZ
 70
     0
  9
$DIMALTTZ
 70
     0
  9
$DIMUPT
 70
     0
  9
$DIMDEC
 70
     2
  9
$DIMTDEC
 70
     2
  9
$DIMALTU
 70
     2
  9
$DIMALTTD
 70
     2
  9
$DIMTXSTY
  7
Standard
  9
$DIMAUNIT
 70
     0
  9
$DIMADEC
 70
     2
  9
$DIMALTRND
 40
0.0
  9
$DIMAZIN
 70
     2
  9
$DIMDSEP
 70
    46
  9
$DIMATFIT
 70
     3
  9
$DIMFRAC
 70
     0
  9
$DIMLDRBLK
  1

  9
$DIMLUNIT
 70
     2
  9
$DIMLWD
 70
    -2
  9
$DIMLWE
 70
    -2
  9
$DIMTMOVE
 70
     0
  9
$LUNITS
 70
     2
  9
$LUPREC
 70
     4
  9
$SKETCHINC
 40
0.1
  9
$FILLETRAD
 40
0.5
  9
$AUNITS
 70
     0
  9
$AUPREC
 70
     0
  9
$MENU
  1
.
  9
$ELEVATION
 40
0.0
  9
$PELEVATION
 40
0.0
  9
$THICKNESS
 40
0.0
  9
$LIMCHECK
 70
     0
  9
$CHAMFERA
 40
0.5
  9
$CHAMFERB
 40
0.5
  9
$CHAMFERC
 40
1.0
  9
$CHAMFERD
 40
0.0
  9
$SKPOLY
 70
     0
  9
$TDCREATE
 40
2459607.019577454
  9
$TDUCREATE
 40
2459606.644577454
  9
$TDUPDATE
 40
2459607.019577465
  9
$TDUUPDATE
 40
2459606.644577465
  9
$TDINDWG
 40
0.0000000116
  9
$TDUSRTIMER
 40
0.0000000116
  9
$USRTIMER
 70
     1
  9
$ANGBASE
 50
0.0
  9
$ANGDIR
 70
     0
  9
$PDMODE
 70
     0
  9
$PDSIZE
 40
1.0
  9
$PLINEWID
 40
0.0
  9
$SPLFRAME
 70
     0
  9
$SPLINETYPE
 70
     6
  9
$SPLINESEGS
 70
     8
  9
$HANDSEED
  5
5D9
  9
$SURFTAB1
 70
     6
  9
$SURFTAB2
 70
     6
  9
$SURFTYPE
 70
     6
  9
$SURFU
 70
     6
  9
$SURFV
 70
     6
  9
$UCSBASE
  2

  9
$UCSNAME
  2

  9
$UCSORG
 10
0.0
 20
0.0
 30
0.0
  9
$UCSXDIR
 10
1.0
 20
0.0
 30
0.0
  9
$UCSYDIR
 10
0.0
 20
1.0
 30
0.0
  9
$UCSORTHOREF
  2

  9
$UCSORTHOVIEW
 70
     0
  9
$UCSORGTOP
 10
0.0
 20
0.0
 30
0.0
  9
$UCSORGBOTTOM
 10
0.0
 20
0.0
 30
0.0
  9
$UCSORGLEFT
 10
0.0
 20
0.0
 30
0.0
  9
$UCSORGRIGHT
 10
0.0
 20
0.0
 30
0.0
  9
$UCSORGFRONT
 10
0.0
 20
0.0
 30
0.0
  9
$UCSORGBACK
 10
0.0
 20
0.0
 30
0.0
  9
$PUCSBASE
  2

  9
$PUCSNAME
  2

  9
$PUCSORG
 10
0.0
 20
0.0
 30
0.0
  9
$PUCSXDIR
 10
1.0
 20
0.0
 30
0.0
  9
$PUCSYDIR
 10
0.0
 20
1.0
 30
0.0
  9
$PUCSORTHOREF
  2

  9
$PUCSORTHOVIEW
 70
     0
  9
$PUCSORGTOP
 10
0.0
 20
0.0
 30
0.0
  9
$PUCSORGBOTTOM
 10
0.0
 20
0.0
 30
0.0
  9
$PUCSORGLEFT
 10
0.0
 20
0.0
 30
0.0
  9
$PUCSORGRIGHT
 10
0.0
 20
0.0
 30
0.0
  9
$PUCSORGFRONT
 10
0.0
 20
0.0
 30
0.0
  9
$PUCSORGBACK
 10
0.0
 20
0.0
 30
0.0
  9
$USERI1
 70
     0
  9
$USERI2
 70
     0
  9
$USERI3
 70
     0
  9
$USERI4
 70
     0
  9
$USERI5
 70
     0
  9
$USERR1
 40
0.0
  9
$USERR2
 40
0.0
  9
$USERR3
 40
0.0
  9
$USERR4
 40
0.0
  9
$USERR5
 40
0.0
  9
$WORLDVIEW
 70
     1
  9
$SHADEDGE
 70
     3
  9
$SHADEDIF
 70
    70
  9
$TILEMODE
 70
     1
  9
$MAXACTVP
 70
    64
  9
$PINSBASE
 10
0.0
 20
0.0
 30
0.0
  9
$PLIMCHECK
 70
     0
  9
$PEXTMIN
 10
1.000000000000000E+20
 20
1.000000000000000E+20
 30
1.000000000000000E+20
  9
$PEXTMAX
 10
-1.000000000000000E+20
 20
-1.000000000000000E+20
 30
-1.000000000000000E+20
  9
$PLIMMIN
 10
0.0
 20
0.0
  9
$PLIMMAX
 10
12.0
 20
9.0
  9
$UNITMODE
 70
     0
  9
$VISRETAIN
 70
     0
  9
$PLINEGEN
 70
     1
  9
$PSLTSCALE
 70
     0
  9
$TREEDEPTH
 70
  3020
  9
$CMLSTYLE
  2
Standard
  9
$CMLJUST
 70
     0
  9
$CMLSCALE
 40
1.0
  9
$PROXYGRAPHICS
 70
     0
  9
$MEASUREMENT
 70
     1
  9
$CELWEIGHT
370
    -1
  9
$ENDCAPS
280
     0
  9
$JOINSTYLE
280
     0
  9
$LWDISPLAY
290
     1
  9
$INSUNITS
 70
     4
  9
$HYPERLINKBASE
  1

  9
$STYLESHEET
  1

  9
$XEDIT
290
     1
  9
$CEPSNTYPE
380
     0
  9
$PSTYLEMODE
290
     1
  9
$FINGERPRINTGUID
  2
{B65F38C4-6928-4A24-969E-3281E2CD8F7F}
  9
$VERSIONGUID
  2
{FAEB1C32-E019-11D5-929B-00C0DF256EC4}
  9
$EXTNAMES
290
     1
  9
$PSVPSCALE
 40
0.0
  9
$OLESTARTUP
290
     0
  0
ENDSEC
  0
SECTION
  2
CLASSES
  0
CLASS
  1
ACDBDICTIONARYWDFLT
  2
AcDbDictionaryWithDefault
  3
ObjectDBX Classes
 90
        0
280
     0
281
     0
  0
CLASS
  1
VISUALSTYLE
  2
AcDbVisualStyle
  3
ObjectDBX Classes
 90
     4095
280
     0
281
     0
  0
CLASS
  1
MATERIAL
  2
AcDbMaterial
  3
ObjectDBX Classes
 90
     1153
280
     0
281
     0
  0
CLASS
  1
SCALE
  2
AcDbScale
  3
ObjectDBX Classes
 90
     1153
280
     0
281
     0
  0
CLASS
  1
DICTIONARYVAR
  2
AcDbDictionaryVar
  3
ObjectDBX Classes
 90
        0
280
     0
281
     0
  0
CLASS
  1
ACDBPLACEHOLDER
  2
AcDbPlaceHolder
  3
ObjectDBX Classes
 90
        0
280
     0
281
     0
  0
CLASS
  1
LAYOUT
  2
AcDbLayout
  3
ObjectDBX Classes
 90
        0
280
     0
281
     0
  0
ENDSEC
  0
SECTION
  2
TABLES
  0
TABLE
  2
VPORT
  5
8
330
0
100
AcDbSymbolTable
 70
     1
  0
VPORT
  5
29
330
8
100
AcDbSymbolTableRecord
100
AcDbViewportTableRecord
  2
*Active
 70
     0
 10
0.0
 20
0.0
 11
1.0
 21
1.0
 12
-4.199997350573543
 22
-11.69999826326965
 13
0.0
 23
0.0
 14
0.5
 24
0.5
 15
0.5
 25
0.5
 16
0.0
 26
0.0
 36
1.0
 17
0.0
 27
0.0
 37
0.0
 40
237.7620035429299
 41
1.525525525525525
 42
50.0
 43
0.0
 44
0.0
 50
0.0
 51
0.0
 71
     0
 72
  1000
 73
     1
 74
     1
 75
     0
 76
     0
 77
     0
 78
     0
281
     0
 65
     1
110
0.0
120
0.0
130
0.0
111
1.0
121
0.0
131
0.0
112
0.0
122
1.0
132
0.0
 79
     0
146
0.0
  0
ENDTAB
  0
TABLE
  2
LTYPE
  5
5
330
0
100
AcDbSymbolTable
 70
    53
  0
LTYPE
  5
14
330
5
100
AcDbSymbolTableRecord
100
AcDbLinetypeTableRecord
  2
ByBlock
 70
     0
  3

 72
    65
 73
     0
 40
0.0
  0
LTYPE
  5
15
330
5
100
AcDbSymbolTableRecord
100
AcDbLinetypeTableRecord
  2
ByLayer
 70
     0
  3

 72
    65
 73
     0
 40
0.0
  0
LTYPE
  5
16
330
5
100
AcDbSymbolTableRecord
100
AcDbLinetypeTableRecord
  2
Continuous
 70
     0
  3
Solid line
 72
    65
 73
     0
 40
0.0
  0
LTYPE
  5
40
330
5
100
AcDbSymbolTableRecord
100
AcDbLinetypeTableRecord
  2
HIDDENX2
 70
     0
  3
Hidden (2x) ____ ____ ____ ____ ____ ____ ____ 
 72
    65
 73
     2
 40
19.05
 49
12.7
 74
     0
 49
-6.35
 74
     0
  0
LTYPE
  5
41
330
5
100
AcDbSymbolTableRecord
100
AcDbLinetypeTableRecord
  2
HIDDEN
 70
     0
  3
Hidden __ __ __ __ __ __ __ __ __ __ __ __ __ __
 72
    65
 73
     2
 40
9.524999999999999
 49
6.35
 74
     0
 49
-3.175
 74
     0
  0
LTYPE
  5
42
330
5
100
AcDbSymbolTableRecord
100
AcDbLinetypeTableRecord
  2
HIDDEN2
 70
     0
  3
Hidden (.5x) _ _ _ _ _ _ _ _ _ _ _ _ _ _ _ _ _ 
 72
    65
 73
     2
 40
4.762499999999999
 49
3.175
 74
     0
 49
-1.5875
 74
     0
  0
LTYPE
  5
43
330
5
100
AcDbSymbolTableRecord
100
AcDbLinetypeTableRecord
  2
DASHED
 70
     0
  3
Dashed __ __ __ __ __ __ __ __ __ __ __ __ __ _
 72
    65
 73
     2
 40
19.05
 49
12.7
 74
     0
 49
-6.35
 74
     0
  0
LTYPE
  5
44
330
5
100
AcDbSymbolTableRecord
100
AcDbLinetypeTableRecord
  2
DASHED2
 70
     0
  3
Dashed (.5x) _ _ _ _ _ _ _ _ _ _ _ _ _ _ _ _ _ 
 72
    65
 73
     2
 40
9.524999999999999
 49
6.35
 74
     0
 49
-3.175
 74
     0
  0
LTYPE
  5
45
330
5
100
AcDbSymbolTableRecord
100
AcDbLinetypeTableRecord
  2
DASHEDX2
 70
     0
  3
Dashed (2x) ____  ____  ____  ____  ____  ___
 72
    65
 73
     2
 40
38.09999999999999
 49
25.4
 74
     0
 49
-12.7
 74
     0
  0
LTYPE
  5
46
330
5
100
AcDbSymbolTableRecord
100
AcDbLinetypeTableRecord
  2
DOTX2
 70
     0
  3
Dot (2x) .  .  .  .  .  .  .  .  .  .  .  .  .  .
 72
    65
 73
     2
 40
12.7
 49
0.0
 74
     0
 49
-12.7
 74
     0
  0
LTYPE
  5
47
330
5
100
AcDbSymbolTableRecord
100
AcDbLinetypeTableRecord
  2
DOT
 70
     0
  3
Dot . . . . . . . . . . . . . . . . . . . . . . . .
 72
    65
 73
     2
 40
6.35
 49
0.0
 74
     0
 49
-6.35
 74
     0
  0
LTYPE
  5
48
330
5
100
AcDbSymbolTableRecord
100
AcDbLinetypeTableRecord
  2
DOT2
 70
     0
  3
Dot (.5x) ........................................
 72
    65
 73
     2
 40
3.175
 49
0.0
 74
     0
 49
-3.175
 74
     0
  0
LTYPE
  5
49
330
5
100
AcDbSymbolTableRecord
100
AcDbLinetypeTableRecord
  2
CENTERX2
 70
     0
  3
Center (2x) ________  __  ________  __  _____
 72
    65
 73
     4
 40
101.6
 49
63.5
 74
     0
 49
-12.7
 74
     0
 49
12.7
 74
     0
 49
-12.7
 74
     0
  0
LTYPE
  5
4A
330
5
100
AcDbSymbolTableRecord
100
AcDbLinetypeTableRecord
  2
CENTER
 70
     0
  3
Center ____ _ ____ _ ____ _ ____ _ ____ _ ____
 72
    65
 73
     4
 40
50.8
 49
31.75
 74
     0
 49
-6.35
 74
     0
 49
6.35
 74
     0
 49
-6.35
 74
     0
  0
LTYPE
  5
4B
330
5
100
AcDbSymbolTableRecord
100
AcDbLinetypeTableRecord
  2
CENTER2
 70
     0
  3
Center (.5x) ___ _ ___ _ ___ _ ___ _ ___ _ ___
 72
    65
 73
     4
 40
28.575
 49
19.05
 74
     0
 49
-3.175
 74
     0
 49
3.175
 74
     0
 49
-3.175
 74
     0
  0
LTYPE
  5
4C
330
5
100
AcDbSymbolTableRecord
100
AcDbLinetypeTableRecord
  2
DASHDOTX2
 70
     0
  3
Dash dot (2x) ____  .  ____  .  ____  .  ___
 72
    65
 73
     4
 40
50.8
 49
25.4
 74
     0
 49
-12.7
 74
     0
 49
0.0
 74
     0
 49
-12.7
 74
     0
  0
LTYPE
  5
4D
330
5
100
AcDbSymbolTableRecord
100
AcDbLinetypeTableRecord
  2
DASHDOT
 70
     0
  3
Dash dot __ . __ . __ . __ . __ . __ . __ . __
 72
    65
 73
     4
 40
25.4
 49
12.7
 74
     0
 49
-6.35
 74
     0
 49
0.0
 74
     0
 49
-6.35
 74
     0
  0
LTYPE
  5
4E
330
5
100
AcDbSymbolTableRecord
100
AcDbLinetypeTableRecord
  2
DASHDOT2
 70
     0
  3
Dash dot (.5x) _._._._._._._._._._._._._._._.
 72
    65
 73
     4
 40
12.7
 49
6.35
 74
     0
 49
-3.175
 74
     0
 49
0.0
 74
     0
 49
-3.175
 74
     0
  0
LTYPE
  5
4F
330
5
100
AcDbSymbolTableRecord
100
AcDbLinetypeTableRecord
  2
DIVIDEX2
 70
     0
  3
Divide (2x) ________  .  .  ________  .  .  _
 72
    65
 73
     6
 40
63.5
 49
25.4
 74
     0
 49
-12.7
 74
     0
 49
0.0
 74
     0
 49
-12.7
 74
     0
 49
0.0
 74
     0
 49
-12.7
 74
     0
  0
LTYPE
  5
50
330
5
100
AcDbSymbolTableRecord
100
AcDbLinetypeTableRecord
  2
DIVIDE
 70
     0
  3
Divide ____ . . ____ . . ____ . . ____ . . ____
 72
    65
 73
     6
 40
31.75
 49
12.7
 74
     0
 49
-6.35
 74
     0
 49
0.0
 74
     0
 49
-6.35
 74
     0
 49
0.0
 74
     0
 49
-6.35
 74
     0
  0
LTYPE
  5
51
330
5
100
AcDbSymbolTableRecord
100
AcDbLinetypeTableRecord
  2
DIVIDE2
 70
     0
  3
Divide (.5x) __..__..__..__..__..__..__..__.._
 72
    65
 73
     6
 40
15.875
 49
6.35
 74
     0
 49
-3.175
 74
     0
 49
0.0
 74
     0
 49
-3.175
 74
     0
 49
0.0
 74
     0
 49
-3.175
 74
     0
  0
LTYPE
  5
52
330
5
100
AcDbSymbolTableRecord
100
AcDbLinetypeTableRecord
  2
BORDERX2
 70
     0
  3
Border (2x) ____  ____  .  ____  ____  .  ___
 72
    65
 73
     6
 40
88.89999999999999
 49
25.4
 74
     0
 49
-12.7
 74
     0
 49
25.4
 74
     0
 49
-12.7
 74
     0
 49
0.0
 74
     0
 49
-12.7
 74
     0
  0
LTYPE
  5
53
330
5
100
AcDbSymbolTableRecord
100
AcDbLinetypeTableRecord
  2
BORDER
 70
     0
  3
Border __ __ . __ __ . __ __ . __ __ . __ __ .
 72
    65
 73
     6
 40
44.45
 49
12.7
 74
     0
 49
-6.35
 74
     0
 49
12.7
 74
     0
 49
-6.35
 74
     0
 49
0.0
 74
     0
 49
-6.35
 74
     0
  0
LTYPE
  5
54
330
5
100
AcDbSymbolTableRecord
100
AcDbLinetypeTableRecord
  2
BORDER2
 70
     0
  3
Border (.5x) __.__.__.__.__.__.__.__.__.__.__.
 72
    65
 73
     6
 40
22.225
 49
6.35
 74
     0
 49
-3.175
 74
     0
 49
6.35
 74
     0
 49
-3.175
 74
     0
 49
0.0
 74
     0
 49
-3.175
 74
     0
  0
LTYPE
  5
55
330
5
100
AcDbSymbolTableRecord
100
AcDbLinetypeTableRecord
  2
PHANTOMX2
 70
     0
  3
Phantom (2x) ____________    ____    ____   _
 72
    65
 73
     6
 40
127.0
 49
63.5
 74
     0
 49
-12.7
 74
     0
 49
12.7
 74
     0
 49
-12.7
 74
     0
 49
12.7
 74
     0
 49
-12.7
 74
     0
  0
LTYPE
  5
56
330
5
100
AcDbSymbolTableRecord
100
AcDbLinetypeTableRecord
  2
PHANTOM
 70
     0
  3
Phantom ______  __  __  ______  __  __  ______ 
 72
    65
 73
     6
 40
63.5
 49
31.75
 74
     0
 49
-6.35
 74
     0
 49
6.35
 74
     0
 49
-6.35
 74
     0
 49
6.35
 74
     0
 49
-6.35
 74
     0
  0
LTYPE
  5
57
330
5
100
AcDbSymbolTableRecord
100
AcDbLinetypeTableRecord
  2
PHANTOM2
 70
     0
  3
Phantom (.5x) ___ _ _ ___ _ _ ___ _ _ ___ _ _
 72
    65
 73
     6
 40
31.75
 49
15.875
 74
     0
 49
-3.175
 74
     0
 49
3.175
 74
     0
 49
-3.175
 74
     0
 49
3.175
 74
     0
 49
-3.175
 74
     0
  0
LTYPE
  5
58
330
5
100
AcDbSymbolTableRecord
100
AcDbLinetypeTableRecord
  2
ACAD_ISO06W100
 70
     0
  3
ISO long-dash triple-dot ____ ... ____ ... ____
 72
    65
 73
     8
 40
36.0
 49
24.0
 74
     0
 49
-3.0
 74
     0
 49
0.0
 74
     0
 49
-3.0
 74
     0
 49
0.0
 74
     0
 49
-3.0
 74
     0
 49
0.0
 74
     0
 49
-3.0
 74
     0
  0
LTYPE
  5
59
330
5
100
AcDbSymbolTableRecord
100
AcDbLinetypeTableRecord
  2
ACAD_ISO13W100
 70
     0
  3
ISO double-dash double-dot __ __ . . __ __ . . _
 72
    65
 73
     8
 40
36.0
 49
12.0
 74
     0
 49
-3.0
 74
     0
 49
12.0
 74
     0
 49
-3.0
 74
     0
 49
0.0
 74
     0
 49
-3.0
 74
     0
 49
0.0
 74
     0
 49
-3.0
 74
     0
  0
LTYPE
  5
5A
330
5
100
AcDbSymbolTableRecord
100
AcDbLinetypeTableRecord
  2
ACAD_ISO14W100
 70
     0
  3
ISO dash triple-dot __ . . . __ . . . __ . . . _
 72
    65
 73
     8
 40
24.0
 49
12.0
 74
     0
 49
-3.0
 74
     0
 49
0.0
 74
     0
 49
-3.0
 74
     0
 49
0.0
 74
     0
 49
-3.0
 74
     0
 49
0.0
 74
     0
 49
-3.0
 74
     0
  0
LTYPE
  5
5B
330
5
100
AcDbSymbolTableRecord
100
AcDbLinetypeTableRecord
  2
ACAD_ISO02W100
 70
     0
  3
ISO dash __ __ __ __ __ __ __ __ __ __ __ __ __
 72
    65
 73
     2
 40
15.0
 49
12.0
 74
     0
 49
-3.0
 74
     0
  0
LTYPE
  5
5C
330
5
100
AcDbSymbolTableRecord
100
AcDbLinetypeTableRecord
  2
ACAD_ISO03W100
 70
     0
  3
ISO dash space __    __    __    __    __    __
 72
    65
 73
     2
 40
30.0
 49
12.0
 74
     0
 49
-18.0
 74
     0
  0
LTYPE
  5
5D
330
5
100
AcDbSymbolTableRecord
100
AcDbLinetypeTableRecord
  2
ACAD_ISO04W100
 70
     0
  3
ISO long-dash dot ____ . ____ . ____ . ____ . _
 72
    65
 73
     4
 40
30.0
 49
24.0
 74
     0
 49
-3.0
 74
     0
 49
0.0
 74
     0
 49
-3.0
 74
     0
  0
LTYPE
  5
5E
330
5
100
AcDbSymbolTableRecord
100
AcDbLinetypeTableRecord
  2
ACAD_ISO05W100
 70
     0
  3
ISO long-dash double-dot ____ .. ____ .. ____ . 
 72
    65
 73
     6
 40
33.0
 49
24.0
 74
     0
 49
-3.0
 74
     0
 49
0.0
 74
     0
 49
-3.0
 74
     0
 49
0.0
 74
     0
 49
-3.0
 74
     0
  0
LTYPE
  5
5F
330
5
100
AcDbSymbolTableRecord
100
AcDbLinetypeTableRecord
  2
ACAD_ISO07W100
 70
     0
  3
ISO dot . . . . . . . . . . . . . . . . . . . . 
 72
    65
 73
     2
 40
3.0
 49
0.0
 74
     0
 49
-3.0
 74
     0
  0
LTYPE
  5
60
330
5
100
AcDbSymbolTableRecord
100
AcDbLinetypeTableRecord
  2
ACAD_ISO08W100
 70
     0
  3
ISO long-dash short-dash ____ __ ____ __ ____ _
 72
    65
 73
     4
 40
36.0
 49
24.0
 74
     0
 49
-3.0
 74
     0
 49
6.0
 74
     0
 49
-3.0
 74
     0
  0
LTYPE
  5
61
330
5
100
AcDbSymbolTableRecord
100
AcDbLinetypeTableRecord
  2
ACAD_ISO09W100
 70
     0
  3
ISO long-dash double-short-dash ____ __ __ ____
 72
    65
 73
     6
 40
45.0
 49
24.0
 74
     0
 49
-3.0
 74
     0
 49
6.0
 74
     0
 49
-3.0
 74
     0
 49
6.0
 74
     0
 49
-3.0
 74
     0
  0
LTYPE
  5
62
330
5
100
AcDbSymbolTableRecord
100
AcDbLinetypeTableRecord
  2
ACAD_ISO10W100
 70
     0
  3
ISO dash dot __ . __ . __ . __ . __ . __ . __ . 
 72
    65
 73
     4
 40
18.0
 49
12.0
 74
     0
 49
-3.0
 74
     0
 49
0.0
 74
     0
 49
-3.0
 74
     0
  0
LTYPE
  5
63
330
5
100
AcDbSymbolTableRecord
100
AcDbLinetypeTableRecord
  2
ACAD_ISO11W100
 70
     0
  3
ISO double-dash dot __ __ . __ __ . __ __ . __ _
 72
    65
 73
     6
 40
33.0
 49
12.0
 74
     0
 49
-3.0
 74
     0
 49
12.0
 74
     0
 49
-3.0
 74
     0
 49
0.0
 74
     0
 49
-3.0
 74
     0
  0
LTYPE
  5
64
330
5
100
AcDbSymbolTableRecord
100
AcDbLinetypeTableRecord
  2
ACAD_ISO12W100
 70
     0
  3
ISO dash double-dot __ . . __ . . __ . . __ . . 
 72
    65
 73
     6
 40
21.0
 49
12.0
 74
     0
 49
-3.0
 74
     0
 49
0.0
 74
     0
 49
-3.0
 74
     0
 49
0.0
 74
     0
 49
-3.0
 74
     0
  0
LTYPE
  5
65
330
5
100
AcDbSymbolTableRecord
100
AcDbLinetypeTableRecord
  2
ACAD_ISO15W100
 70
     0
  3
ISO double-dash triple-dot __ __ . . . __ __ . .
 72
    65
 73
    10
 40
39.0
 49
12.0
 74
     0
 49
-3.0
 74
     0
 49
12.0
 74
     0
 49
-3.0
 74
     0
 49
0.0
 74
     0
 49
-3.0
 74
     0
 49
0.0
 74
     0
 49
-3.0
 74
     0
 49
0.0
 74
     0
 49
-3.0
 74
     0
  0
LTYPE
  5
66
330
5
100
AcDbSymbolTableRecord
100
AcDbLinetypeTableRecord
  2
JIS_02_0.7
 70
     0
  3
HIDDEN0.75 _ _ _ _ _ _ _ _ _ _ _ _ _ _ _ _ _ 
 72
    65
 73
     2
 40
1.35
 49
0.75
 74
     0
 49
-0.6
 74
     0
  0
LTYPE
  5
67
330
5
100
AcDbSymbolTableRecord
100
AcDbLinetypeTableRecord
  2
JIS_02_1.0
 70
     0
  3
HIDDEN01 _ _ _ _ _ _ _ _ _ _ _ _ _ _ _ _ _ 
 72
    65
 73
     2
 40
2.0
 49
1.0
 74
     0
 49
-1.0
 74
     0
  0
LTYPE
  5
68
330
5
100
AcDbSymbolTableRecord
100
AcDbLinetypeTableRecord
  2
JIS_02_1.2
 70
     0
  3
HIDDEN01.25  _ _ _ _ _ _ _ _ _ _ _ _ _ _ _ _ _ 
 72
    65
 73
     2
 40
2.5
 49
1.25
 74
     0
 49
-1.25
 74
     0
  0
LTYPE
  5
69
330
5
100
AcDbSymbolTableRecord
100
AcDbLinetypeTableRecord
  2
JIS_02_2.0
 70
     0
  3
HIDDEN02 __ __ __ __ __ __ __ __ __ __ __ 
 72
    65
 73
     2
 40
3.0
 49
2.0
 74
     0
 49
-1.0
 74
     0
  0
LTYPE
  5
6A
330
5
100
AcDbSymbolTableRecord
100
AcDbLinetypeTableRecord
  2
JIS_02_4.0
 70
     0
  3
HIDDEN04 ____ ____ ____ ____ ____ ____ ____ 
 72
    65
 73
     2
 40
5.5
 49
4.0
 74
     0
 49
-1.5
 74
     0
  0
LTYPE
  5
6B
330
5
100
AcDbSymbolTableRecord
100
AcDbLinetypeTableRecord
  2
JIS_08_11
 70
     0
  3
1SASEN11 ___ _ ___ _ ___ _ ___ _ ___ _ ___
 72
    65
 73
     4
 40
12.8
 49
11.0
 74
     0
 49
-0.6
 74
     0
 49
0.6
 74
     0
 49
-0.6
 74
     0
  0
LTYPE
  5
6C
330
5
100
AcDbSymbolTableRecord
100
AcDbLinetypeTableRecord
  2
JIS_08_15
 70
     0
  3
1SASEN15 ____ _ ____ _ ____ _ ____ _ ____ 
 72
    65
 73
     4
 40
17.25
 49
15.0
 74
     0
 49
-0.75
 74
     0
 49
0.75
 74
     0
 49
-0.75
 74
     0
  0
LTYPE
  5
6D
330
5
100
AcDbSymbolTableRecord
100
AcDbLinetypeTableRecord
  2
JIS_08_25
 70
     0
  3
1SASEN25 ________  __  ________  __  _____
 72
    65
 73
     4
 40
28.0
 49
25.0
 74
     0
 49
-1.125
 74
     0
 49
0.75
 74
     0
 49
-1.125
 74
     0
  0
LTYPE
  5
6E
330
5
100
AcDbSymbolTableRecord
100
AcDbLinetypeTableRecord
  2
JIS_08_37
 70
     0
  3
1SASEN37 ________  __  ________  __  _____
 72
    65
 73
     4
 40
40.5
 49
37.5
 74
     0
 49
-1.125
 74
     0
 49
0.75
 74
     0
 49
-1.125
 74
     0
  0
LTYPE
  5
6F
330
5
100
AcDbSymbolTableRecord
100
AcDbLinetypeTableRecord
  2
JIS_08_50
 70
     0
  3
1SASEN50 _______________  __  ____________
 72
    65
 73
     4
 40
53.0
 49
50.0
 74
     0
 49
-1.125
 74
     0
 49
0.75
 74
     0
 49
-1.125
 74
     0
  0
LTYPE
  5
70
330
5
100
AcDbSymbolTableRecord
100
AcDbLinetypeTableRecord
  2
JIS_09_08
 70
     0
  3
2SASEN8 __ _ _ __ _ _ __ _ _ __ _ _ __ _ _ 
 72
    65
 73
     6
 40
10.75
 49
8.0
 74
     0
 49
-0.55
 74
     0
 49
0.55
 74
     0
 49
-0.55
 74
     0
 49
0.55
 74
     0
 49
-0.55
 74
     0
  0
LTYPE
  5
71
330
5
100
AcDbSymbolTableRecord
100
AcDbLinetypeTableRecord
  2
JIS_09_15
 70
     0
  3
2SASEN15 ___ _ _ ___ _ _ ___ _ _ ___ _ _ ___ 
 72
    65
 73
     6
 40
18.9
 49
15.0
 74
     0
 49
-0.9
 74
     0
 49
0.6
 74
     0
 49
-0.9
 74
     0
 49
0.6
 74
     0
 49
-0.9
 74
     0
  0
LTYPE
  5
72
330
5
100
AcDbSymbolTableRecord
100
AcDbLinetypeTableRecord
  2
JIS_09_29
 70
     0
  3
2SASEN29 ______　__  __  ______　__  __  ___
 72
    65
 73
     6
 40
34.0
 49
29.0
 74
     0
 49
-1.2
 74
     0
 49
0.7
 74
     0
 49
-1.2
 74
     0
 49
0.7
 74
     0
 49
-1.2
 74
     0
  0
LTYPE
  5
73
330
5
100
AcDbSymbolTableRecord
100
AcDbLinetypeTableRecord
  2
JIS_09_50
 70
     0
  3
2SASEN50 ____________　__  __  _____________
 72
    65
 73
     6
 40
55.0
 49
50.0
 74
     0
 49
-1.2
 74
     0
 49
0.7
 74
     0
 49
-1.2
 74
     0
 49
0.7
 74
     0
 49
-1.2
 74
     0
  0
ENDTAB
  0
TABLE
  2
LAYER
  5
2
330
0
100
AcDbSymbolTable
 70
     4
  0
LAYER
  5
10
330
2
100
AcDbSymbolTableRecord
100
AcDbLayerTableRecord
  2
0
 70
     0
 62
     7
  6
Continuous
370
    -3
390
F
  0
LAYER
  5
74
330
2
100
AcDbSymbolTableRecord
100
AcDbLayerTableRecord
  2
Layer0016
 70
     0
 62
     7
  6
Continuous
370
    -3
390
F
  0
LAYER
  5
75
330
2
100
AcDbSymbolTableRecord
100
AcDbLayerTableRecord
  2
Layer0022
 70
     0
 62
     7
  6
Continuous
370
    -3
390
F
  0
LAYER
  5
76
330
2
100
AcDbSymbolTableRecord
100
AcDbLayerTableRecord
  2
Layer0032
 70
     0
 62
     7
  6
Continuous
370
    -3
390
F
  0
ENDTAB
  0
TABLE
  2
STYLE
  5
3
330
0
100
AcDbSymbolTable
 70
     2
  0
STYLE
  5
11
330
3
100
AcDbSymbolTableRecord
100
AcDbTextStyleTableRecord
  2
Standard
 70
     0
 40
0.0
 41
1.0
 50
0.0
 71
     0
 42
0.2
  3
txt.shx
  4
bigfont.shx
  0
STYLE
  5
9A
330
3
100
AcDbSymbolTableRecord
100
AcDbTextStyleTableRecord
  2
dcStyle0
 70
     0
 40
0.0
 41
0.8333333345679013
 50
0.0
 71
     0
 42
0.2
  3
txt.shx
  4
bigfont
  0
ENDTAB
  0
TABLE
  2
VIEW
  5
6
330
0
100
AcDbSymbolTable
 70
     0
  0
ENDTAB
  0
TABLE
  2
UCS
  5
7
330
0
100
AcDbSymbolTable
 70
     0
  0
ENDTAB
  0
TABLE
  2
APPID
  5
9
330
0
100
AcDbSymbolTable
 70
     2
  0
APPID
  5
12
330
9
100
AcDbSymbolTableRecord
100
AcDbRegAppTableRecord
  2
ACAD
 70
     0
  0
APPID
  5
3F
330
9
100
AcDbSymbolTableRecord
100
AcDbRegAppTableRecord
  2
DaFusionOut
 70
     0
  0
ENDTAB
  0
TABLE
  2
DIMSTYLE
  5
A
330
0
100
AcDbSymbolTable
 70
     1
100
AcDbDimStyleTable
  0
DIMSTYLE
105
27
330
A
100
AcDbSymbolTableRecord
100
AcDbDimStyleTableRecord
  2
Standard
 70
     0
178
     0
340
11
  0
ENDTAB
  0
TABLE
  2
BLOCK_RECORD
  5
1
330
0
100
AcDbSymbolTable
 70
     1
  0
BLOCK_RECORD
  5
1F
330
1
100
AcDbSymbolTableRecord
100
AcDbBlockTableRecord
  2
*Model_Space
340
22
  0
BLOCK_RECORD
  5
1B
330
1
100
AcDbSymbolTableRecord
100
AcDbBlockTableRecord
  2
*Paper_Space
340
1E
  0
BLOCK_RECORD
  5
23
330
1
100
AcDbSymbolTableRecord
100
AcDbBlockTableRecord
  2
*Paper_Space0
340
26
  0
ENDTAB
  0
ENDSEC
  0
SECTION
  2
BLOCKS
  0
BLOCK
  5
20
330
1F
100
AcDbEntity
  8
0
100
AcDbBlockBegin
  2
*Model_Space
 70
     0
 10
0.0
 20
0.0
 30
0.0
  3
*Model_Space
  1

  0
ENDBLK
  5
21
330
1F
100
AcDbEntity
  8
0
100
AcDbBlockEnd
  0
BLOCK
  5
1C
330
1B
100
AcDbEntity
 67
     1
  8
0
100
AcDbBlockBegin
  2
*Paper_Space
 70
     0
 10
0.0
 20
0.0
 30
0.0
  3
*Paper_Space
  1

  0
ENDBLK
  5
1D
330
1B
100
AcDbEntity
 67
     1
  8
0
100
AcDbBlockEnd
  0
BLOCK
  5
24
330
23
100
AcDbEntity
  8
0
100
AcDbBlockBegin
  2
*Paper_Space0
 70
     0
 10
0.0
 20
0.0
 30
0.0
  3
*Paper_Space0
  1

  0
ENDBLK
  5
25
330
23
100
AcDbEntity
  8
0
100
AcDbBlockEnd
  0
ENDSEC
  0
SECTION
  2
ENTITIES
  0
LINE
  5
78
330
1F
100
AcDbEntity
  8
0
  6
Continuous
 62
   150
370
    25
100
AcDbLine
 10
-172.3999998569489
 20
-115.1499998047948
 30
0.0
 11
-172.3999998569489
 21
104.8500034734607
 31
0.0
  0
LINE
  5
79
330
1F
100
AcDbEntity
  8
0
  6
Continuous
 62
   150
370
    25
100
AcDbLine
 10
-172.3999998569489
 20
104.8500034734607
 30
0.0
 11
173.6000052988529
 21
104.8500034734607
 31
0.0
  0
LINE
  5
7A
330
1F
100
AcDbEntity
  8
0
  6
Continuous
 62
   150
370
    25
100
AcDbLine
 10
173.6000052988529
 20
104.8500034734607
 30
0.0
 11
173.6000052988529
 21
-115.1499998047948
 31
0.0
  0
LINE
  5
7B
330
1F
100
AcDbEntity
  8
0
  6
Continuous
 62
   150
370
    25
100
AcDbLine
 10
173.6000052988529
 20
-115.1499998047948
 30
0.0
 11
-172.3999998569489
 21
-115.1499998047948
 31
0.0
  0
LINE
  5
7C
330
1F
100
AcDbEntity
  8
0
  6
Continuous
 62
   150
370
    25
100
AcDbLine
 10
173.6000052988529
 20
-85.14999935775995
 30
0.0
 11
11.60000288486481
 21
-85.14999935775995
 31
0.0
  0
LINE
  5
7D
330
1F
100
AcDbEntity
  8
0
  6
Continuous
 62
   150
370
    25
100
AcDbLine
 10
11.60000288486481
 20
-85.14999935775995
 30
0.0
 11
11.60000288486481
 21
-115.1499998047948
 31
0.0
  0
LINE
  5
7E
330
1F
100
AcDbEntity
  8
0
  6
Continuous
 62
   150
370
    25
100
AcDbLine
 10
11.60000288486481
 20
-98.14999955147505
 30
0.0
 11
97.60000416636467
 21
-98.14999955147505
 31
0.0
  0
LINE
  5
7F
330
1F
100
AcDbEntity
  8
0
  6
Continuous
 62
   150
370
    25
100
AcDbLine
 10
97.60000416636467
 20
-89.64999942481518
 30
0.0
 11
11.60000288486481
 21
-89.64999942481518
 31
0.0
  0
LINE
  5
80
330
1F
100
AcDbEntity
  8
0
  6
Continuous
 62
   150
370
    25
100
AcDbLine
 10
24.6000030785799
 20
-85.14999935775995
 30
0.0
 11
24.6000030785799
 21
-98.14999955147505
 31
0.0
  0
LINE
  5
81
330
1F
100
AcDbEntity
  8
0
  6
Continuous
 62
   150
370
    25
100
AcDbLine
 10
37.600003272295
 20
-98.14999955147505
 30
0.0
 11
37.600003272295
 21
-85.14999935775995
 31
0.0
  0
LINE
  5
82
330
1F
100
AcDbEntity
  8
0
  6
Continuous
 62
   150
370
    25
100
AcDbLine
 10
50.60000346601009
 20
-85.14999935775995
 30
0.0
 11
50.60000346601009
 21
-98.14999955147505
 31
0.0
  0
LINE
  5
83
330
1F
100
AcDbEntity
  8
0
  6
Continuous
 62
   150
370
    25
100
AcDbLine
 10
76.60000385344028
 20
-98.14999955147505
 30
0.0
 11
76.60000385344028
 21
-85.14999935775995
 31
0.0
  0
LINE
  5
84
330
1F
100
AcDbEntity
  8
0
  6
Continuous
 62
   150
370
    25
100
AcDbLine
 10
97.60000416636467
 20
-85.14999935775995
 30
0.0
 11
97.60000416636467
 21
-115.1499998047948
 31
0.0
  0
LINE
  5
85
330
1F
100
AcDbEntity
  8
0
  6
Continuous
 62
   150
370
    25
100
AcDbLine
 10
102.6000042408705
 20
-115.1499998047948
 30
0.0
 11
102.6000042408705
 21
-101.6499996036291
 31
0.0
  0
LINE
  5
86
330
1F
100
AcDbEntity
  8
0
  6
Continuous
 62
   150
370
    25
100
AcDbLine
 10
97.60000416636467
 20
-101.6499996036291
 30
0.0
 11
173.6000052988529
 21
-101.6499996036291
 31
0.0
  0
LINE
  5
87
330
1F
100
AcDbEntity
  8
0
  6
Continuous
 62
   150
370
    25
100
AcDbLine
 10
169.6000052392483
 20
-95.64999951422215
 30
0.0
 11
101.6000042259693
 21
-95.64999951422215
 31
0.0
  0
LINE
  5
88
330
1F
100
AcDbEntity
  8
0
  6
Continuous
 62
   150
370
    25
100
AcDbLine
 10
20.60000301897526
 20
-110.2499997317791
 30
0.0
 11
25.10000308603048
 21
-107.7499996945262
 31
0.0
  0
LINE
  5
89
330
1F
100
AcDbEntity
  8
0
  6
Continuous
 62
   150
370
    25
100
AcDbLine
 10
25.10000308603048
 20
-107.7499996945262
 30
0.0
 11
29.60000315308571
 21
-110.2499997317791
 31
0.0
  0
LINE
  5
8A
330
1F
100
AcDbEntity
  8
0
  6
Continuous
 62
   150
370
    25
100
AcDbLine
 10
29.60000315308571
 20
-110.2499997317791
 30
0.0
 11
25.10000308603048
 21
-112.749999769032
 31
0.0
  0
LINE
  5
8B
330
1F
100
AcDbEntity
  8
0
  6
Continuous
 62
   150
370
    25
100
AcDbLine
 10
25.10000308603048
 20
-112.749999769032
 30
0.0
 11
20.60000301897526
 21
-110.2499997317791
 31
0.0
  0
LINE
  5
8C
330
1F
100
AcDbEntity
  8
0
  6
Continuous
 62
   150
370
    25
100
AcDbLine
 10
24.6000030785799
 20
-108.7499997094274
 30
0.0
 11
25.60000309348106
 21
-108.7499997094274
 31
0.0
  0
LINE
  5
8D
330
1F
100
AcDbEntity
  8
0
  6
Continuous
 62
   150
370
    25
100
AcDbLine
 10
25.60000309348106
 20
-108.7499997094274
 30
0.0
 11
25.60000309348106
 21
-111.7499997541308
 31
0.0
  0
LINE
  5
8E
330
1F
100
AcDbEntity
  8
0
  6
Continuous
 62
   150
370
    25
100
AcDbLine
 10
25.60000309348106
 20
-111.7499997541308
 30
0.0
 11
24.6000030785799
 21
-111.7499997541308
 31
0.0
  0
LINE
  5
8F
330
1F
100
AcDbEntity
  8
0
  6
Continuous
 62
   150
370
    25
100
AcDbLine
 10
24.6000030785799
 20
-111.7499997541308
 30
0.0
 11
24.6000030785799
 21
-108.7499997094274
 31
0.0
  0
LINE
  5
90
330
1F
100
AcDbEntity
  8
0
  6
Continuous
 62
   150
370
    25
100
AcDbLine
 10
24.6000030785799
 20
-108.7499997094274
 30
0.0
 11
24.80000308156013
 21
-108.7499997094274
 31
0.0
  0
LINE
  5
91
330
1F
100
AcDbEntity
  8
0
  6
Continuous
 62
   150
370
    25
100
AcDbLine
 10
24.80000308156013
 20
-108.7499997094274
 30
0.0
 11
24.80000308156013
 21
-111.7499997541308
 31
0.0
  0
LINE
  5
92
330
1F
100
AcDbEntity
  8
0
  6
Continuous
 62
   150
370
    25
100
AcDbLine
 10
24.80000308156013
 20
-111.7499997541308
 30
0.0
 11
25.00000308454037
 21
-111.7499997541308
 31
0.0
  0
LINE
  5
93
330
1F
100
AcDbEntity
  8
0
  6
Continuous
 62
   150
370
    25
100
AcDbLine
 10
25.00000308454037
 20
-111.7499997541308
 30
0.0
 11
25.00000308454037
 21
-108.7499997094274
 31
0.0
  0
LINE
  5
94
330
1F
100
AcDbEntity
  8
0
  6
Continuous
 62
   150
370
    25
100
AcDbLine
 10
25.00000308454037
 20
-108.7499997094274
 30
0.0
 11
25.2000030875206
 21
-108.7499997094274
 31
0.0
  0
LINE
  5
95
330
1F
100
AcDbEntity
  8
0
  6
Continuous
 62
   150
370
    25
100
AcDbLine
 10
25.2000030875206
 20
-108.7499997094274
 30
0.0
 11
25.2000030875206
 21
-111.7499997541308
 31
0.0
  0
LINE
  5
96
330
1F
100
AcDbEntity
  8
0
  6
Continuous
 62
   150
370
    25
100
AcDbLine
 10
25.2000030875206
 20
-111.7499997541308
 30
0.0
 11
25.40000309050083
 21
-111.7499997541308
 31
0.0
  0
LINE
  5
97
330
1F
100
AcDbEntity
  8
0
  6
Continuous
 62
   150
370
    25
100
AcDbLine
 10
25.40000309050083
 20
-111.7499997541308
 30
0.0
 11
25.40000309050083
 21
-108.7499997094274
 31
0.0
  0
LINE
  5
98
330
1F
100
AcDbEntity
  8
0
  6
Continuous
 62
   150
370
    25
100
AcDbLine
 10
25.40000309050083
 20
-108.7499997094274
 30
0.0
 11
25.60000309348106
 21
-108.7499997094274
 31
0.0
  0
LINE
  5
99
330
1F
100
AcDbEntity
  8
0
  6
Continuous
 62
   150
370
    25
100
AcDbLine
 10
25.60000309348106
 20
-108.7499997094274
 30
0.0
 11
25.60000309348106
 21
-111.7499997541308
 31
0.0
  0
TEXT
  5
9B
330
1F
100
AcDbEntity
  8
0
 62
   150
100
AcDbText
 10
13.60000294
 20
-88.94999941
 30
0.0
 40
3.0
  1
担　当
 41
0.8333333345679013
  7
dcStyle0
 72
     5
 11
22.60000302
 21
-88.94999941
 31
0.0
100
AcDbText
  0
TEXT
  5
9C
330
1F
100
AcDbEntity
  8
0
 62
   150
100
AcDbText
 10
26.60000313
 20
-88.94999941
 30
0.0
 40
3.0
  1
製　図
 41
0.8333333345679009
  7
dcStyle0
 72
     5
 11
35.60000321
 21
-88.94999941
 31
0.0
100
AcDbText
  0
TEXT
  5
9D
330
1F
100
AcDbEntity
  8
0
 62
   150
100
AcDbText
 10
39.60000332
 20
-88.94999941
 30
0.0
 40
3.0
  1
検　図
 41
0.8333333345679013
  7
dcStyle0
 72
     5
 11
48.6000034
 21
-88.94999941
 31
0.0
100
AcDbText
  0
TEXT
  5
9E
330
1F
100
AcDbEntity
  8
0
 62
   150
100
AcDbText
 10
57.60000359
 20
-88.94999941
 30
0.0
 40
3.0
  1
尺　　度
 41
0.833333334722222
  7
dcStyle0
 72
     5
 11
69.60000371
 21
-88.94999941
 31
0.0
100
AcDbText
  0
TEXT
  5
9F
330
1F
100
AcDbEntity
  8
0
 62
   150
100
AcDbText
 10
81.10000394
 20
-88.94999941
 30
0.0
 40
3.0
  1
作　　図
 41
0.833333334722222
  7
dcStyle0
 72
     5
 11
93.10000405999999
 21
-88.94999941
 31
0.0
100
AcDbText
  0
TEXT
  5
A0
330
1F
100
AcDbEntity
  8
0
 62
   150
100
AcDbText
 10
98.6000042
 20
-88.94999941
 30
0.0
 40
3.0
  1
工事名
 41
0.8333333345679019
  7
dcStyle0
 72
     5
 11
107.60000428
 21
-88.94999941
 31
0.0
100
AcDbText
  0
TEXT
  5
A1
330
1F
100
AcDbEntity
  8
0
 62
   150
100
AcDbText
 10
98.6000042
 20
-100.44999959
 30
0.0
 40
2.5
  1
図面番号
 41
0.8333333349999997
  7
dcStyle0
 72
     5
 11
108.60000432
 21
-100.44999959
 31
0.0
100
AcDbText
  0
TEXT
  5
A2
330
1F
100
AcDbEntity
  8
0
 62
   150
100
AcDbText
 10
98.6000042
 20
-105.14999966
 30
0.0
 40
2.5
  1
図
 41
0.8333333333333334
  7
dcStyle0
 72
     5
 11
101.1000042
 21
-105.14999966
 31
0.0
100
AcDbText
  0
TEXT
  5
A3
330
1F
100
AcDbEntity
  8
0
 62
   150
100
AcDbText
 10
98.6000042
 20
-108.1499997
 30
0.0
 40
2.5
  1
面
 41
0.8333333333333334
  7
dcStyle0
 72
     5
 11
101.1000042
 21
-108.1499997
 31
0.0
100
AcDbText
  0
TEXT
  5
A4
330
1F
100
AcDbEntity
  8
0
 62
   150
100
AcDbText
 10
98.6000042
 20
-111.14999975
 30
0.0
 40
2.5
  1
名
 41
0.8333333333333334
  7
dcStyle0
 72
     5
 11
101.1000042
 21
-111.14999975
 31
0.0
100
AcDbText
  0
TEXT
  5
A5
330
1F
100
AcDbEntity
  8
0
 62
   150
100
AcDbText
 10
98.6000042
 20
-114.14999979
 30
0.0
 40
2.5
  1
称
 41
0.8333333333333334
  7
dcStyle0
 72
     5
 11
101.1000042
 21
-114.14999979
 31
0.0
100
AcDbText
  0
TEXT
  5
A6
330
1F
100
AcDbEntity
  8
0
 62
   150
100
AcDbText
 10
81.80000395
 20
-95.14999951
 30
0.0
 40
2.5
  1
年
 41
0.8333333333333334
  7
dcStyle0
 72
     5
 11
84.30000395
 21
-95.14999951
 31
0.0
100
AcDbText
  0
TEXT
  5
A7
330
1F
100
AcDbEntity
  8
0
 62
   150
100
AcDbText
 10
88.30000405
 20
-95.14999951
 30
0.0
 40
2.5
  1
月
 41
0.8333333333333334
  7
dcStyle0
 72
     5
 11
90.80000405
 21
-95.14999951
 31
0.0
100
AcDbText
  0
TEXT
  5
A8
330
1F
100
AcDbEntity
  8
0
 62
   150
100
AcDbText
 10
94.80000414
 20
-95.14999951
 30
0.0
 40
2.5
  1
日
 41
0.8333333333333334
  7
dcStyle0
 72
     5
 11
97.30000414
 21
-95.14999951
 31
0.0
100
AcDbText
  0
TEXT
  5
A9
330
1F
100
AcDbEntity
  8
0
 62
   222
100
AcDbText
 10
26.10000314
 20
-104.94999965
 30
0.0
 40
4.0
  1
タイヘイグレーチング
 41
1.041666666119792
  7
dcStyle0
 72
     5
 11
76.10000377
 21
-104.94999965
 31
0.0
100
AcDbText
  0
TEXT
  5
AA
330
1F
100
AcDbEntity
  8
0
 62
   222
100
AcDbText
 10
31.60000322
 20
-112.44999976
 30
0.0
 40
5.0
  1
石田鉄工株式会社
 41
0.8446601958638891
  7
dcStyle0
 72
     5
 11
75.10000378
 21
-112.44999976
 31
0.0
100
AcDbText
  0
LINE
  5
AB
330
1F
100
AcDbEntity
  8
Layer0022
  6
Continuous
 62
     2
370
    25
100
AcDbLine
 10
-182.0
 20
-128.25
 30
0.0
 11
-178.9999999552965
 21
-128.25
 31
0.0
  0
LINE
  5
AC
330
1F
100
AcDbEntity
  8
Layer0022
  6
Continuous
 62
     2
370
    25
100
AcDbLine
 10
-178.9999999552965
 20
-128.25
 30
0.0
 11
-178.9999999552965
 21
-125.2499999552965
 31
0.0
  0
LINE
  5
AD
330
1F
100
AcDbEntity
  8
Layer0022
  6
Continuous
 62
     2
370
    25
100
AcDbLine
 10
-178.9999999552965
 20
-125.2499999552965
 30
0.0
 11
-182.0
 21
-125.2499999552965
 31
0.0
  0
LINE
  5
AE
330
1F
100
AcDbEntity
  8
Layer0022
  6
Continuous
 62
     2
370
    25
100
AcDbLine
 10
-182.0
 20
-125.2499999552965
 30
0.0
 11
-182.0
 21
-128.25
 31
0.0
  0
LINE
  5
AF
330
1F
100
AcDbEntity
  8
Layer0022
  6
Continuous
 62
     2
370
    25
100
AcDbLine
 10
-182.0
 20
-128.25
 30
0.0
 11
-178.9999999552965
 21
-128.25
 31
0.0
  0
LINE
  5
B0
330
1F
100
AcDbEntity
  8
Layer0022
  6
Continuous
 62
     2
370
    25
100
AcDbLine
 10
-178.9999999552965
 20
-128.25
 30
0.0
 11
-178.9999999552965
 21
-125.2499999552965
 31
0.0
  0
LINE
  5
B1
330
1F
100
AcDbEntity
  8
Layer0022
  6
Continuous
 62
     2
370
    25
100
AcDbLine
 10
-178.9999999552965
 20
-125.2499999552965
 30
0.0
 11
-182.0
 21
-125.2499999552965
 31
0.0
  0
LINE
  5
B2
330
1F
100
AcDbEntity
  8
Layer0022
  6
Continuous
 62
     2
370
    25
100
AcDbLine
 10
-182.0
 20
-125.2499999552965
 30
0.0
 11
-182.0
 21
-128.25
 31
0.0
  0
LINE
  5
B3
330
1F
100
AcDbEntity
  8
Layer0022
  6
Continuous
 62
     2
370
    25
100
AcDbLine
 10
-182.0
 20
-128.25
 30
0.0
 11
-178.9999999552965
 21
-128.25
 31
0.0
  0
LINE
  5
B4
330
1F
100
AcDbEntity
  8
Layer0022
  6
Continuous
 62
     2
370
    25
100
AcDbLine
 10
-178.9999999552965
 20
-128.25
 30
0.0
 11
-178.9999999552965
 21
-125.2499999552965
 31
0.0
  0
LINE
  5
B5
330
1F
100
AcDbEntity
  8
Layer0022
  6
Continuous
 62
     2
370
    25
100
AcDbLine
 10
-178.9999999552965
 20
-125.2499999552965
 30
0.0
 11
-182.0
 21
-125.2499999552965
 31
0.0
  0
LINE
  5
B6
330
1F
100
AcDbEntity
  8
Layer0022
  6
Continuous
 62
     2
370
    25
100
AcDbLine
 10
-182.0
 20
-125.2499999552965
 30
0.0
 11
-182.0
 21
-128.25
 31
0.0
  0
TEXT
  5
B7
330
1F
100
AcDbEntity
  8
Layer0022
 62
     2
100
AcDbText
 10
103.60000428
 20
-106.24999967
 30
0.0
 40
3.2
  1
TYVKHC
 41
0.9375000006510417
  7
dcStyle0
 72
     5
 11
121.60000448
 21
-106.24999967
 31
0.0
100
AcDbText
  0
TEXT
  5
B8
330
1F
100
AcDbEntity
  8
Layer0022
 62
     2
100
AcDbText
 10
121.60000454
 20
-106.24999967
 30
0.0
 40
3.2
  1
 500 
 41
0.7812500021875008
  7
dcStyle0
 72
     5
 11
134.1000047
 21
-106.24999967
 31
0.0
100
AcDbText
  0
TEXT
  5
B9
330
1F
100
AcDbEntity
  8
Layer0022
 62
     2
100
AcDbText
 10
131.60000469
 20
-106.24999967
 30
0.0
 40
3.0
  1
×
 41
0.6944444444444445
  7
dcStyle0
 72
     5
 11
134.10000469
 21
-106.24999967
 31
0.0
100
AcDbText
  0
TEXT
  5
BA
330
1F
100
AcDbEntity
  8
Layer0022
 62
     2
100
AcDbText
 10
133.10000471
 20
-106.24999967
 30
0.0
 40
3.0
  1
 494 
 41
0.833333335111112
  7
dcStyle0
 72
     5
 11
145.60000487
 21
-106.24999967
 31
0.0
100
AcDbText
  0
TEXT
  5
BB
330
1F
100
AcDbEntity
  8
Layer0022
 62
     2
100
AcDbText
 10
143.10000486
 20
-106.24999967
 30
0.0
 40
3.0
  1
×
 41
0.6944444444444445
  7
dcStyle0
 72
     5
 11
145.60000486
 21
-106.24999967
 31
0.0
100
AcDbText
  0
TEXT
  5
BC
330
1F
100
AcDbEntity
  8
Layer0022
 62
     2
100
AcDbText
 10
144.60000489
 20
-106.24999967
 30
0.0
 40
3.0
  1
 44 
 41
0.8333333350000008
  7
dcStyle0
 72
     5
 11
154.60000501
 21
-106.24999967
 31
0.0
100
AcDbText
  0
TEXT
  5
BD
330
1F
100
AcDbEntity
  8
Layer0022
 62
     2
100
AcDbText
 10
152.100005
 20
-106.24999967
 30
0.0
 40
3.0
  1
/
 41
0.8333333333333334
  7
dcStyle0
 72
     5
 11
154.600005
 21
-106.24999967
 31
0.0
100
AcDbText
  0
TEXT
  5
BE
330
1F
100
AcDbEntity
  8
Layer0022
 62
     2
100
AcDbText
 10
152.100005
 20
-106.24999967
 30
0.0
 40
3.0
  1
 110 
 41
0.833333335111112
  7
dcStyle0
 72
     5
 11
164.60000516
 21
-106.24999967
 31
0.0
100
AcDbText
  0
TEXT
  5
BF
330
1F
100
AcDbEntity
  8
Layer0022
 62
     2
100
AcDbText
 10
130.60000467
 20
-109.74999972
 30
0.0
 40
2.5
  1
４面テーパ
 41
0.666666669333334
  7
dcStyle0
 72
     5
 11
140.60000479
 21
-109.74999972
 31
0.0
100
AcDbText
  0
TEXT
  5
C0
330
1F
100
AcDbEntity
  8
Layer0022
 62
     2
100
AcDbText
 10
57.90000360000001
 20
-95.14999951
 30
0.0
 40
3.0
  1
1/
 41
1.000000000000001
  7
dcStyle0
 72
     5
 11
63.90000364000001
 21
-95.14999951
 31
0.0
100
AcDbText
  0
TEXT
  5
C1
330
1F
100
AcDbEntity
  8
Layer0022
 62
     2
100
AcDbText
 10
60.90000364
 20
-95.14999951
 30
0.0
 40
3.0
  1
 5 
  7
dcStyle0
 72
     5
 11
69.90000372
 21
-95.14999951
 31
0.0
100
AcDbText
  0
TEXT
  5
C2
330
1F
100
AcDbEntity
  8
Layer0022
 62
     2
100
AcDbText
 10
112.2000044
 20
-100.64999959
 30
0.0
 40
3.0
  1
TYVKHC44-400A T-14
 41
0.8333333354320984
  7
dcStyle0
 72
     5
 11
157.20000508
 21
-100.64999959
 31
0.0
100
AcDbText
  0
TEXT
  5
C3
330
1F
100
AcDbEntity
  8
Layer0022
 62
     2
100
AcDbText
 10
75.40000386
 20
-73.14999918
 30
0.0
 40
3.5
  1
＜表面処理＞
 41
0.7400722045119837
  7
dcStyle0
 72
     5
 11
95.90000411
 21
-73.14999918
 31
0.0
100
AcDbText
  0
TEXT
  5
C4
330
1F
100
AcDbEntity
  8
Layer0022
 62
     2
100
AcDbText
 10
80.40000393000001
 20
-78.14999925
 30
0.0
 40
3.5
  1
本体：溶融亜鉛メッキ
 41
0.7419354863683663
  7
dcStyle0
 72
     5
 11
114.90000438
 21
-78.14999925
 31
0.0
100
AcDbText
  0
TEXT
  5
C5
330
1F
100
AcDbEntity
  8
Layer0022
 62
     2
100
AcDbText
 10
116.65000471
 20
-78.14999925
 30
0.0
 40
3.5
  1
（セラミック充填）
 41
0.7416267967308443
  7
dcStyle0
 72
     5
 11
147.65000511
 21
-78.14999925
 31
0.0
100
AcDbText
  0
TEXT
  5
C6
330
1F
100
AcDbEntity
  8
Layer0022
 62
     2
100
AcDbText
 10
94.40000415
 20
92.85000329000002
 30
0.0
 40
4.0
  1
◇　荷　重　計　算　◇
 41
0.8333333352272726
  7
dcStyle0
 72
     5
 11
138.40000475
 21
92.85000329000002
 31
0.0
100
AcDbText
  0
TEXT
  5
C7
330
1F
100
AcDbEntity
  8
Layer0022
 62
     2
100
AcDbText
 10
65.40000371
 20
82.85000314999999
 30
0.0
 40
3.3
  1
設計条件
 41
0.852842810841042
  7
dcStyle0
 72
     5
 11
80.70000388999999
 21
82.85000314999999
 31
0.0
100
AcDbText
  0
TEXT
  5
C8
330
1F
100
AcDbEntity
  8
Layer0022
 62
     2
100
AcDbText
 10
70.40000379
 20
76.85000305999999
 30
0.0
 40
3.3
  1
荷　　重：　
 41
0.8400646219702682
  7
dcStyle0
 72
     5
 11
91.20000404
 21
76.85000305999999
 31
0.0
100
AcDbText
  0
TEXT
  5
C9
330
1F
100
AcDbEntity
  8
Layer0022
 62
     2
100
AcDbText
 10
91.30000409000002
 20
76.85000306
 30
0.0
 40
3.0
  1
T-
 41
1.000000000000001
  7
dcStyle0
 72
     5
 11
97.30000413000002
 21
76.85000306
 31
0.0
100
AcDbText
  0
TEXT
  5
CA
330
1F
100
AcDbEntity
  8
Layer0022
 62
     2
100
AcDbText
 10
95.30000415
 20
76.85000306
 30
0.0
 40
3.0
  1
 14 
 41
0.8333333349999997
  7
dcStyle0
 72
     5
 11
105.30000427
 21
76.85000306
 31
0.0
100
AcDbText
  0
TEXT
  5
CB
330
1F
100
AcDbEntity
  8
Layer0022
 62
     2
100
AcDbText
 10
105.30000431
 20
76.85000305999999
 30
0.0
 40
3.3
  1
（後輪一輪荷重：
 41
0.8403869424384697
  7
dcStyle0
 72
     5
 11
133.10000466
 21
76.85000305999999
 31
0.0
100
AcDbText
  0
TEXT
  5
CC
330
1F
100
AcDbEntity
  8
Layer0022
 62
     2
100
AcDbText
 10
133.20000472
 20
76.85000306
 30
0.0
 40
3.0
  1
5600
 41
0.8333333350000008
  7
dcStyle0
 72
     5
 11
143.20000484
 21
76.85000306
 31
0.0
100
AcDbText
  0
TEXT
  5
CD
330
1F
100
AcDbEntity
  8
Layer0022
 62
     2
100
AcDbText
 10
143.20000486
 20
76.85000306
 30
0.0
 40
3.0
  1
Kg
 41
0.5000000016666646
  7
dcStyle0
 72
     5
 11
146.20000488
 21
76.85000306
 31
0.0
100
AcDbText
  0
TEXT
  5
CE
330
1F
100
AcDbEntity
  8
Layer0022
 62
     2
100
AcDbText
 10
146.20000492
 20
76.85000305999999
 30
0.0
 40
3.3
  1
）
 41
0.8333333333333363
  7
dcStyle0
 72
     5
 11
149.50000492
 21
76.85000305999999
 31
0.0
100
AcDbText
  0
TEXT
  5
CF
330
1F
100
AcDbEntity
  8
Layer0022
 62
     2
100
AcDbText
 10
70.40000379
 20
71.85000298
 30
0.0
 40
3.3
  1
載荷寸法：　
 41
0.8400646219702682
  7
dcStyle0
 72
     5
 11
91.20000404
 21
71.85000298
 31
0.0
100
AcDbText
  0
TEXT
  5
D0
330
1F
100
AcDbEntity
  8
Layer0022
 62
     2
100
AcDbText
 10
91.30000409000002
 20
71.85000298
 30
0.0
 40
3.0
  1
200
 41
0.8333333348148155
  7
dcStyle0
 72
     5
 11
98.80000417000002
 21
71.85000298
 31
0.0
100
AcDbText
  0
TEXT
  5
D1
330
1F
100
AcDbEntity
  8
Layer0022
 62
     2
100
AcDbText
 10
98.8000042
 20
71.85000298
 30
0.0
 40
3.0
  1
mm
 41
0.6666666683333325
  7
dcStyle0
 72
     5
 11
102.80000423
 21
71.85000298
 31
0.0
100
AcDbText
  0
TEXT
  5
D2
330
1F
100
AcDbEntity
  8
Layer0022
 62
     2
100
AcDbText
 10
102.80000427
 20
71.85000298
 30
0.0
 40
3.3
  1
×
 41
0.8333333333333326
  7
dcStyle0
 72
     5
 11
106.10000427
 21
71.85000298
 31
0.0
100
AcDbText
  0
TEXT
  5
D3
330
1F
100
AcDbEntity
  8
Layer0022
 62
     2
100
AcDbText
 10
106.20000431
 20
71.85000298
 30
0.0
 40
3.0
  1
500
 41
0.8333333348148155
  7
dcStyle0
 72
     5
 11
113.70000439
 21
71.85000298
 31
0.0
100
AcDbText
  0
TEXT
  5
D4
330
1F
100
AcDbEntity
  8
Layer0022
 62
     2
100
AcDbText
 10
113.70000442
 20
71.85000298
 30
0.0
 40
3.0
  1
mm
 41
0.6666666683333325
  7
dcStyle0
 72
     5
 11
117.70000445
 21
71.85000298
 31
0.0
100
AcDbText
  0
TEXT
  5
D5
330
1F
100
AcDbEntity
  8
Layer0022
 62
     2
100
AcDbText
 10
117.70000449
 20
71.85000298
 30
0.0
 40
3.3
  1
　（等分布負載）
 41
0.8403869424384697
  7
dcStyle0
 72
     5
 11
145.50000484
 21
71.85000298
 31
0.0
100
AcDbText
  0
TEXT
  5
D6
330
1F
100
AcDbEntity
  8
Layer0022
 62
     2
100
AcDbText
 10
70.40000379
 20
66.85000291000001
 30
0.0
 40
3.3
  1
許容応力：　
 41
0.8400646219702682
  7
dcStyle0
 72
     5
 11
91.20000404
 21
66.85000291000001
 31
0.0
100
AcDbText
  0
TEXT
  5
D7
330
1F
100
AcDbEntity
  8
Layer0022
 62
     2
100
AcDbText
 10
91.30000409000002
 20
66.85000291000001
 30
0.0
 40
3.3
  1
σｂ＝
 41
0.6313131337958717
  7
dcStyle0
 72
     5
 11
98.80000417000002
 21
66.85000291000001
 31
0.0
100
AcDbText
  0
TEXT
  5
D8
330
1F
100
AcDbEntity
  8
Layer0022
 62
     2
100
AcDbText
 10
98.8000042
 20
66.85000291
 30
0.0
 40
3.0
  1
 
 41
0.8333333333333334
  7
dcStyle0
 72
     5
 11
101.3000042
 21
66.85000291
 31
0.0
100
AcDbText
  0
TEXT
  5
D9
330
1F
100
AcDbEntity
  8
Layer0022
 62
     2
100
AcDbText
 10
99.30000421
 20
66.85000291
 30
0.0
 40
3.0
  1
 18.0
 41
0.833333335111111
  7
dcStyle0
 72
     5
 11
111.80000437
 21
66.85000291
 31
0.0
100
AcDbText
  0
TEXT
  5
DA
330
1F
100
AcDbEntity
  8
Layer0022
 62
     2
100
AcDbText
 10
111.90000439
 20
66.85000291
 30
0.0
 40
3.0
  1
Kg
 41
0.6666666683333325
  7
dcStyle0
 72
     5
 11
115.90000442
 21
66.85000291
 31
0.0
100
AcDbText
  0
TEXT
  5
DB
330
1F
100
AcDbEntity
  8
Layer0022
 62
     2
100
AcDbText
 10
115.90000446
 20
66.85000291
 30
0.0
 40
3.0
  1
／
 41
0.8333333333333334
  7
dcStyle0
 72
     5
 11
118.90000446
 21
66.85000291
 31
0.0
100
AcDbText
  0
TEXT
  5
DC
330
1F
100
AcDbEntity
  8
Layer0022
 62
     2
100
AcDbText
 10
119.1500045
 20
66.85000291
 30
0.0
 40
3.0
  1
mm
 41
0.6666666683333325
  7
dcStyle0
 72
     5
 11
123.15000453
 21
66.85000291
 31
0.0
100
AcDbText
  0
TEXT
  5
DD
330
1F
100
AcDbEntity
  8
Layer0022
 62
     2
100
AcDbText
 10
123.15000456
 20
68.85000294
 30
0.0
 40
1.8
  1
2
 41
0.8333333333333333
  7
dcStyle0
 72
     5
 11
124.65000456
 21
68.85000294
 31
0.0
100
AcDbText
  0
TEXT
  5
DE
330
1F
100
AcDbEntity
  8
Layer0022
 62
     2
100
AcDbText
 10
125.65000461
 20
66.85000291000001
 30
0.0
 40
3.3
  1
（ＳＳ４００使用）
 41
0.7575757597524062
  7
dcStyle0
 72
     5
 11
152.65000493
 21
66.85000291000001
 31
0.0
100
AcDbText
  0
TEXT
  5
DF
330
1F
100
AcDbEntity
  8
Layer0022
 62
     2
100
AcDbText
 10
70.40000379
 20
56.85000276000001
 30
0.0
 40
3.3
  1
スパン　：　
 41
0.8400646219702682
  7
dcStyle0
 72
     5
 11
91.20000404
 21
56.85000276000001
 31
0.0
100
AcDbText
  0
TEXT
  5
E0
330
1F
100
AcDbEntity
  8
Layer0022
 62
     2
100
AcDbText
 10
91.30000409000002
 20
56.85000276000001
 30
0.0
 40
3.0
  1
L = 
 41
0.8333333349999997
  7
dcStyle0
 72
     5
 11
101.30000421
 21
56.85000276000001
 31
0.0
100
AcDbText
  0
TEXT
  5
E1
330
1F
100
AcDbEntity
  8
Layer0022
 62
     2
100
AcDbText
 10
99.30000421
 20
56.85000276000001
 30
0.0
 40
3.0
  1
 410 
 41
0.833333335111111
  7
dcStyle0
 72
     5
 11
111.80000437
 21
56.85000276000001
 31
0.0
100
AcDbText
  0
TEXT
  5
E2
330
1F
100
AcDbEntity
  8
Layer0022
 62
     2
100
AcDbText
 10
111.80000439
 20
56.85000276000001
 30
0.0
 40
3.0
  1
mm
 41
0.6666666683333325
  7
dcStyle0
 72
     5
 11
115.80000442
 21
56.85000276000001
 31
0.0
100
AcDbText
  0
TEXT
  5
E3
330
1F
100
AcDbEntity
  8
Layer0022
 62
     2
100
AcDbText
 10
80.40000393
 20
48.85000264
 30
0.0
 40
3.3
  1
　Ｗ　：主部材が支える最大後輪一輪荷重
 41
0.8409436852251481
  7
dcStyle0
 72
     5
 11
146.70000483
 21
48.85000264
 31
0.0
100
AcDbText
  0
TEXT
  5
E4
330
1F
100
AcDbEntity
  8
Layer0022
 62
     2
100
AcDbText
 10
146.80000491
 20
48.85000264000001
 30
0.0
 40
3.0
  1
(Kg)
 41
0.6666666691666655
  7
dcStyle0
 72
     5
 11
154.800005
 21
48.85000264000001
 31
0.0
100
AcDbText
  0
TEXT
  5
E5
330
1F
100
AcDbEntity
  8
Layer0022
 62
     2
100
AcDbText
 10
80.40000393
 20
44.85000258
 30
0.0
 40
3.3
  1
　Ｎ　：荷重を受ける主部材本数
 41
0.8408360146529709
  7
dcStyle0
 72
     5
 11
132.70000463
 21
44.85000258
 31
0.0
100
AcDbText
  0
TEXT
  5
E6
330
1F
100
AcDbEntity
  8
Layer0022
 62
     2
100
AcDbText
 10
80.40000393
 20
40.85000252000001
 30
0.0
 40
3.3
  1
〔Ｚ〕：主部材断面係数
 41
0.8406496944617025
  7
dcStyle0
 72
     5
 11
118.70000443
 21
40.85000252000001
 31
0.0
100
AcDbText
  0
TEXT
  5
E7
330
1F
100
AcDbEntity
  8
Layer0022
 62
     2
100
AcDbText
 10
80.40000393
 20
36.85000246
 30
0.0
 40
3.3
  1
　Ｓ　：溝幅方向載荷寸法
 41
0.8407079663638498
  7
dcStyle0
 72
     5
 11
122.20000448
 21
36.85000246
 31
0.0
100
AcDbText
  0
TEXT
  5
E8
330
1F
100
AcDbEntity
  8
Layer0022
 62
     2
100
AcDbText
 10
65.40000371
 20
31.85000239
 30
0.0
 40
3.3
  1
荷重計算
 41
0.852842810841042
  7
dcStyle0
 72
     5
 11
80.70000388999999
 21
31.85000239
 31
0.0
100
AcDbText
  0
TEXT
  5
E9
330
1F
100
AcDbEntity
  8
Layer0022
 62
     2
100
AcDbText
 10
70.40000379
 20
24.85000228000001
 30
0.0
 40
3.3
  1
側　溝
 41
0.838762216296725
  7
dcStyle0
 72
     5
 11
80.70000389
 21
24.85000228000001
 31
0.0
100
AcDbText
  0
TEXT
  5
EA
330
1F
100
AcDbEntity
  8
Layer0022
 62
     2
100
AcDbText
 10
80.80000394
 20
24.85000228000001
 30
0.0
 40
3.3
  1
　（溝幅≦載荷寸法Ｓの場合）
 41
0.8407994504390137
  7
dcStyle0
 72
     5
 11
129.60000459
 21
24.85000228000001
 31
0.0
100
AcDbText
  0
TEXT
  5
EB
330
1F
100
AcDbEntity
  8
Layer0022
 62
     2
100
AcDbText
 10
70.40000378
 20
14.85000213
 30
0.0
 40
3.0
  1
Ｗ　＝
 41
0.6944444467078196
  7
dcStyle0
 72
     5
 11
77.90000386000001
 21
14.85000213
 31
0.0
100
AcDbText
  0
TEXT
  5
EC
330
1F
100
AcDbEntity
  8
Layer0022
 62
     2
100
AcDbText
 10
81.40000395000001
 20
17.35000217
 30
0.0
 40
3.3
  1
８
 41
0.8333333333333326
  7
dcStyle0
 72
     5
 11
84.70000395000001
 21
17.35000217
 31
0.0
100
AcDbText
  0
TEXT
  5
ED
330
1F
100
AcDbEntity
  8
Layer0022
 62
     2
100
AcDbText
 10
84.70000399000001
 20
17.35000217
 30
0.0
 40
3.3
  1
σｂ
 41
0.6313131331751867
  7
dcStyle0
 72
     5
 11
89.70000403000002
 21
17.35000217
 31
0.0
100
AcDbText
  0
TEXT
  5
EE
330
1F
100
AcDbEntity
  8
Layer0022
 62
     2
100
AcDbText
 10
89.70000407
 20
17.35000217
 30
0.0
 40
3.3
  1
Ｚ
 41
0.8333333333333326
  7
dcStyle0
 72
     5
 11
93.00000407
 21
17.35000217
 31
0.0
100
AcDbText
  0
TEXT
  5
EF
330
1F
100
AcDbEntity
  8
Layer0022
 62
     2
100
AcDbText
 10
81.40000395
 20
12.3500021
 30
0.0
 40
3.0
  1
 L 
 41
0.9999999999999997
  7
dcStyle0
 72
     5
 11
92.40000407
 21
12.3500021
 31
0.0
100
AcDbText
  0
TEXT
  5
F0
330
1F
100
AcDbEntity
  8
Layer0022
 62
     2
100
AcDbText
 10
93.40000413000001
 20
14.85000213
 30
0.0
 40
3.3
  1
×
 41
0.7575757575757576
  7
dcStyle0
 72
     5
 11
96.40000413000001
 21
14.85000213
 31
0.0
100
AcDbText
  0
TEXT
  5
F1
330
1F
100
AcDbEntity
  8
Layer0022
 62
     2
100
AcDbText
 10
98.40000420000001
 20
17.35000217
 30
0.0
 40
3.0
  1
S
  7
dcStyle0
 72
     5
 11
101.4000042
 21
17.35000217
 31
0.0
100
AcDbText
  0
TEXT
  5
F2
330
1F
100
AcDbEntity
  8
Layer0022
 62
     2
100
AcDbText
 10
98.40000420000001
 20
12.3500021
 30
0.0
 40
3.0
  1
L
  7
dcStyle0
 72
     5
 11
101.4000042
 21
12.3500021
 31
0.0
100
AcDbText
  0
TEXT
  5
F3
330
1F
100
AcDbEntity
  8
Layer0022
 62
     2
100
AcDbText
 10
102.40000426
 20
14.85000213
 30
0.0
 40
3.3
  1
＝
 41
0.7575757575757576
  7
dcStyle0
 72
     5
 11
105.40000426
 21
14.85000213
 31
0.0
100
AcDbText
  0
TEXT
  5
F4
330
1F
100
AcDbEntity
  8
Layer0022
 62
     2
100
AcDbText
 10
107.90000434
 20
17.35000217
 30
0.0
 40
3.0
  1
8
 41
0.8333333333333334
  7
dcStyle0
 72
     5
 11
110.40000434
 21
17.35000217
 31
0.0
100
AcDbText
  0
TEXT
  5
F5
330
1F
100
AcDbEntity
  8
Layer0022
 62
     2
100
AcDbText
 10
110.40000438
 20
17.35000217
 30
0.0
 40
3.3
  1
×
 41
0.7575757575757576
  7
dcStyle0
 72
     5
 11
113.40000438
 21
17.35000217
 31
0.0
100
AcDbText
  0
TEXT
  5
F6
330
1F
100
AcDbEntity
  8
Layer0022
 62
     2
100
AcDbText
 10
111.40000439
 20
17.35000217
 30
0.0
 40
3.0
  1
 18 
 41
0.8333333349999997
  7
dcStyle0
 72
     5
 11
121.40000451
 21
17.35000217
 31
0.0
100
AcDbText
  0
TEXT
  5
F7
330
1F
100
AcDbEntity
  8
Layer0022
 62
     2
100
AcDbText
 10
119.40000451
 20
17.35000217
 30
0.0
 40
3.3
  1
×
 41
0.7575757575757576
  7
dcStyle0
 72
     5
 11
122.40000451
 21
17.35000217
 31
0.0
100
AcDbText
  0
TEXT
  5
F8
330
1F
100
AcDbEntity
  8
Layer0022
 62
     2
100
AcDbText
 10
120.40000452
 20
17.35000217
 30
0.0
 40
3.0
  1
 500 
 41
0.833333335111111
  7
dcStyle0
 72
     5
 11
132.90000468
 21
17.35000217
 31
0.0
100
AcDbText
  0
TEXT
  5
F9
330
1F
100
AcDbEntity
  8
Layer0022
 62
     2
100
AcDbText
 10
129.90000467
 20
17.35000217
 30
0.0
 40
3.3
  1
×
 41
0.8333333333333363
  7
dcStyle0
 72
     5
 11
133.20000467
 21
17.35000217
 31
0.0
100
AcDbText
  0
TEXT
  5
FA
330
1F
100
AcDbEntity
  8
Layer0022
 62
     2
100
AcDbText
 10
133.30000472
 20
17.35000217
 30
0.0
 40
3.0
  1
Z
 41
0.8333333333333334
  7
dcStyle0
 72
     5
 11
135.80000472
 21
17.35000217
 31
0.0
100
AcDbText
  0
TEXT
  5
FB
330
1F
100
AcDbEntity
  8
Layer0022
 62
     2
100
AcDbText
 10
113.90000443
 20
12.3500021
 30
0.0
 40
3.0
  1
 410 
 41
0.833333335111111
  7
dcStyle0
 72
     5
 11
126.40000459
 21
12.3500021
 31
0.0
100
AcDbText
  0
TEXT
  5
FC
330
1F
100
AcDbEntity
  8
Layer0022
 62
     2
100
AcDbText
 10
124.40000458
 20
14.35000212
 30
0.0
 40
1.8
  1
2
 41
0.8333333333333333
  7
dcStyle0
 72
     5
 11
125.90000458
 21
14.35000212
 31
0.0
100
AcDbText
  0
TEXT
  5
FD
330
1F
100
AcDbEntity
  8
Layer0022
 62
     2
100
AcDbText
 10
139.40000481
 20
14.85000213
 30
0.0
 40
3.3
  1
＝
 41
0.7575757575757576
  7
dcStyle0
 72
     5
 11
142.40000481
 21
14.85000213
 31
0.0
100
AcDbText
  0
TEXT
  5
FE
330
1F
100
AcDbEntity
  8
Layer0022
 62
     2
100
AcDbText
 10
144.40000488
 20
14.85000213
 30
0.0
 40
3.0
  1
 0.428
 41
0.8333333351851846
  7
dcStyle0
 72
     5
 11
159.40000508
 21
14.85000213
 31
0.0
100
AcDbText
  0
TEXT
  5
FF
330
1F
100
AcDbEntity
  8
Layer0022
 62
     2
100
AcDbText
 10
159.40000511
 20
14.85000213
 30
0.0
 40
3.3
  1
×
 41
0.7575757575757576
  7
dcStyle0
 72
     5
 11
162.40000511
 21
14.85000213
 31
0.0
100
AcDbText
  0
TEXT
  5
100
330
1F
100
AcDbEntity
  8
Layer0022
 62
     2
100
AcDbText
 10
162.40000515
 20
14.85000213
 30
0.0
 40
3.0
  1
Z
 41
0.8333333333333334
  7
dcStyle0
 72
     5
 11
164.90000515
 21
14.85000213
 31
0.0
100
AcDbText
  0
TEXT
  5
101
330
1F
100
AcDbEntity
  8
Layer0022
 62
     2
100
AcDbText
 10
70.40000378
 20
4.85000198
 30
0.0
 40
3.3
  1
Ｚ　＝　Ｎ　〔Ｚ〕　＝
 41
0.6313131346986858
  7
dcStyle0
 72
     5
 11
97.90000418000001
 21
4.85000198
 31
0.0
100
AcDbText
  0
TEXT
  5
102
330
1F
100
AcDbEntity
  8
Layer0022
 62
     2
100
AcDbText
 10
97.90000419
 20
4.850001980000001
 30
0.0
 40
3.0
  1
 8 
 41
0.8333333348148155
  7
dcStyle0
 72
     5
 11
105.40000427
 21
4.850001980000001
 31
0.0
100
AcDbText
  0
TEXT
  5
103
330
1F
100
AcDbEntity
  8
Layer0022
 62
     2
100
AcDbText
 10
103.40000428
 20
4.85000198
 30
0.0
 40
3.3
  1
×
 41
0.7575757575757576
  7
dcStyle0
 72
     5
 11
106.40000428
 21
4.85000198
 31
0.0
100
AcDbText
  0
TEXT
  5
104
330
1F
100
AcDbEntity
  8
Layer0022
 62
     2
100
AcDbText
 10
106.40000432
 20
4.850001980000001
 30
0.0
 40
3.0
  1
  2.163
 41
0.8333333352380948
  7
dcStyle0
 72
     5
 11
123.90000456
 21
4.850001980000001
 31
0.0
100
AcDbText
  0
TEXT
  5
105
330
1F
100
AcDbEntity
  8
Layer0022
 62
     2
100
AcDbText
 10
123.90000458
 20
4.85000198
 30
0.0
 40
3.3
  1
×
 41
0.8333333333333363
  7
dcStyle0
 72
     5
 11
127.20000458
 21
4.85000198
 31
0.0
100
AcDbText
  0
TEXT
  5
106
330
1F
100
AcDbEntity
  8
Layer0022
 62
     2
100
AcDbText
 10
127.30000463
 20
4.850001980000001
 30
0.0
 40
3.0
  1
10
 41
0.833333334444445
  7
dcStyle0
 72
     5
 11
132.30000467
 21
4.850001980000001
 31
0.0
100
AcDbText
  0
TEXT
  5
107
330
1F
100
AcDbEntity
  8
Layer0022
 62
     2
100
AcDbText
 10
132.30000469
 20
6.85000201
 30
0.0
 40
1.8
  1
3
 41
0.8333333333333333
  7
dcStyle0
 72
     5
 11
133.80000469
 21
6.85000201
 31
0.0
100
AcDbText
  0
TEXT
  5
108
330
1F
100
AcDbEntity
  8
Layer0022
 62
     2
100
AcDbText
 10
134.80000474
 20
4.850001980000001
 30
0.0
 40
3.0
  1
=
  7
dcStyle0
 72
     5
 11
137.80000474
 21
4.850001980000001
 31
0.0
100
AcDbText
  0
TEXT
  5
109
330
1F
100
AcDbEntity
  8
Layer0022
 62
     2
100
AcDbText
 10
137.80000478
 20
4.850001980000001
 30
0.0
 40
3.0
  1
 17.30
 41
0.8333333351851846
  7
dcStyle0
 72
     5
 11
152.80000498
 21
4.850001980000001
 31
0.0
100
AcDbText
  0
TEXT
  5
10A
330
1F
100
AcDbEntity
  8
Layer0022
 62
     2
100
AcDbText
 10
152.80000501
 20
4.85000198
 30
0.0
 40
3.3
  1
×
 41
0.8333333333333363
  7
dcStyle0
 72
     5
 11
156.10000501
 21
4.85000198
 31
0.0
100
AcDbText
  0
TEXT
  5
10B
330
1F
100
AcDbEntity
  8
Layer0022
 62
     2
100
AcDbText
 10
156.20000506
 20
4.850001980000001
 30
0.0
 40
3.0
  1
10
 41
0.833333334444445
  7
dcStyle0
 72
     5
 11
161.2000051
 21
4.850001980000001
 31
0.0
100
AcDbText
  0
TEXT
  5
10C
330
1F
100
AcDbEntity
  8
Layer0022
 62
     2
100
AcDbText
 10
161.20000513
 20
6.85000201
 30
0.0
 40
1.8
  1
3
 41
0.8333333333333333
  7
dcStyle0
 72
     5
 11
162.70000513
 21
6.85000201
 31
0.0
100
AcDbText
  0
TEXT
  5
10D
330
1F
100
AcDbEntity
  8
Layer0022
 62
     2
100
AcDbText
 10
65.40000371000001
 20
-3.14999814
 30
0.0
 40
3.3
  1
∴　Ｗ　＝
 41
0.6313131342924191
  7
dcStyle0
 72
     5
 11
77.90000387
 21
-3.14999814
 31
0.0
100
AcDbText
  0
TEXT
  5
10E
330
1F
100
AcDbEntity
  8
Layer0022
 62
     2
100
AcDbText
 10
77.90000389
 20
-3.14999814
 30
0.0
 40
3.0
  1
 0.428
 41
0.8333333351851854
  7
dcStyle0
 72
     5
 11
92.90000409
 21
-3.14999814
 31
0.0
100
AcDbText
  0
TEXT
  5
10F
330
1F
100
AcDbEntity
  8
Layer0022
 62
     2
100
AcDbText
 10
92.90000411999999
 20
-3.14999814
 30
0.0
 40
3.3
  1
×
 41
0.8333333333333326
  7
dcStyle0
 72
     5
 11
96.20000411999999
 21
-3.14999814
 31
0.0
100
AcDbText
  0
TEXT
  5
110
330
1F
100
AcDbEntity
  8
Layer0022
 62
     2
100
AcDbText
 10
96.30000417
 20
-3.14999814
 30
0.0
 40
3.0
  1
 17.30
 41
0.8333333351851854
  7
dcStyle0
 72
     5
 11
111.30000437
 21
-3.14999814
 31
0.0
100
AcDbText
  0
TEXT
  5
111
330
1F
100
AcDbEntity
  8
Layer0022
 62
     2
100
AcDbText
 10
111.3000044
 20
-3.14999814
 30
0.0
 40
3.3
  1
×
 41
0.8333333333333326
  7
dcStyle0
 72
     5
 11
114.6000044
 21
-3.14999814
 31
0.0
100
AcDbText
  0
TEXT
  5
112
330
1F
100
AcDbEntity
  8
Layer0022
 62
     2
100
AcDbText
 10
114.70000444
 20
-3.14999814
 30
0.0
 40
3.0
  1
10
 41
0.833333334444445
  7
dcStyle0
 72
     5
 11
119.70000448
 21
-3.14999814
 31
0.0
100
AcDbText
  0
TEXT
  5
113
330
1F
100
AcDbEntity
  8
Layer0022
 62
     2
100
AcDbText
 10
119.70000451
 20
-1.14999811
 30
0.0
 40
1.8
  1
3
 41
0.8333333333333333
  7
dcStyle0
 72
     5
 11
121.20000451
 21
-1.14999811
 31
0.0
100
AcDbText
  0
TEXT
  5
114
330
1F
100
AcDbEntity
  8
Layer0022
 62
     2
100
AcDbText
 10
122.20000456
 20
-3.14999814
 30
0.0
 40
3.0
  1
=
  7
dcStyle0
 72
     5
 11
125.20000456
 21
-3.14999814
 31
0.0
100
AcDbText
  0
TEXT
  5
115
330
1F
100
AcDbEntity
  8
Layer0022
 62
     2
100
AcDbText
 10
125.2000046
 20
-3.14999814
 30
0.0
 40
3.0
  1
  7.40
 41
0.8333333351851854
  7
dcStyle0
 72
     5
 11
140.2000048
 21
-3.14999814
 31
0.0
100
AcDbText
  0
TEXT
  5
116
330
1F
100
AcDbEntity
  8
Layer0022
 62
     2
100
AcDbText
 10
140.20000483
 20
-3.14999814
 30
0.0
 40
3.3
  1
×
 41
0.8333333333333363
  7
dcStyle0
 72
     5
 11
143.50000483
 21
-3.14999814
 31
0.0
100
AcDbText
  0
TEXT
  5
117
330
1F
100
AcDbEntity
  8
Layer0022
 62
     2
100
AcDbText
 10
143.60000487
 20
-3.14999814
 30
0.0
 40
3.0
  1
10
 41
0.833333334444445
  7
dcStyle0
 72
     5
 11
148.60000491
 21
-3.14999814
 31
0.0
100
AcDbText
  0
TEXT
  5
118
330
1F
100
AcDbEntity
  8
Layer0022
 62
     2
100
AcDbText
 10
148.60000494
 20
-1.14999811
 30
0.0
 40
1.8
  1
3
 41
0.8333333333333333
  7
dcStyle0
 72
     5
 11
150.10000494
 21
-1.14999811
 31
0.0
100
AcDbText
  0
TEXT
  5
119
330
1F
100
AcDbEntity
  8
Layer0022
 62
     2
100
AcDbText
 10
151.10000498
 20
-3.14999814
 30
0.0
 40
3.0
  1
(Kg)
 41
0.8333333350000008
  7
dcStyle0
 72
     5
 11
161.1000051
 21
-3.14999814
 31
0.0
100
AcDbText
  0
TEXT
  5
11A
330
1F
100
AcDbEntity
  8
Layer0022
 62
     2
100
AcDbText
 10
70.40000378
 20
-11.14999826
 30
0.0
 40
3.3
  1
Ｔ
 41
0.6313131313131313
  7
dcStyle0
 72
     5
 11
72.90000378
 21
-11.14999826
 31
0.0
100
AcDbText
  0
TEXT
  5
11B
330
1F
100
AcDbEntity
  8
Layer0022
 62
     2
100
AcDbText
 10
72.90000382
 20
-11.14999826
 30
0.0
 40
3.0
  1
 = 0.4
 41
0.8333333351851854
  7
dcStyle0
 72
     5
 11
87.90000402
 21
-11.14999826
 31
0.0
100
AcDbText
  0
TEXT
  5
11C
330
1F
100
AcDbEntity
  8
Layer0022
 62
     2
100
AcDbText
 10
87.90000403
 20
-9.149998230000001
 30
0.0
 40
1.8
  1
-1
 41
0.8333333342592597
  7
dcStyle0
 72
     5
 11
90.90000405
 21
-9.149998230000001
 31
0.0
100
AcDbText
  0
TEXT
  5
11D
330
1F
100
AcDbEntity
  8
Layer0022
 62
     2
100
AcDbText
 10
91.90000411000001
 20
-11.14999826
 30
0.0
 40
3.3
  1
×
 41
0.8333333333333326
  7
dcStyle0
 72
     5
 11
95.20000411000001
 21
-11.14999826
 31
0.0
100
AcDbText
  0
TEXT
  5
11E
330
1F
100
AcDbEntity
  8
Layer0022
 62
     2
100
AcDbText
 10
95.30000415
 20
-11.14999826
 30
0.0
 40
3.0
  1
10
 41
0.833333334444445
  7
dcStyle0
 72
     5
 11
100.30000419
 21
-11.14999826
 31
0.0
100
AcDbText
  0
TEXT
  5
11F
330
1F
100
AcDbEntity
  8
Layer0022
 62
     2
100
AcDbText
 10
100.30000422
 20
-9.149998230000001
 30
0.0
 40
1.8
  1
-3
 41
0.8333333342592597
  7
dcStyle0
 72
     5
 11
103.30000424
 21
-9.149998230000001
 31
0.0
100
AcDbText
  0
TEXT
  5
120
330
1F
100
AcDbEntity
  8
Layer0022
 62
     2
100
AcDbText
 10
104.30000429
 20
-11.14999826
 30
0.0
 40
3.3
  1
×Ｗ
 41
0.8374384246463145
  7
dcStyle0
 72
     5
 11
111.10000434
 21
-11.14999826
 31
0.0
100
AcDbText
  0
TEXT
  5
121
330
1F
100
AcDbEntity
  8
Layer0022
 62
     2
100
AcDbText
 10
70.40000378
 20
-16.14999833
 30
0.0
 40
3.0
  1
  = 0.4
 41
0.8333333352380955
  7
dcStyle0
 72
     5
 11
87.90000402000001
 21
-16.14999833
 31
0.0
100
AcDbText
  0
TEXT
  5
122
330
1F
100
AcDbEntity
  8
Layer0022
 62
     2
100
AcDbText
 10
87.90000403
 20
-14.1499983
 30
0.0
 40
1.8
  1
-1
 41
0.8333333342592597
  7
dcStyle0
 72
     5
 11
90.90000405
 21
-14.1499983
 31
0.0
100
AcDbText
  0
TEXT
  5
123
330
1F
100
AcDbEntity
  8
Layer0022
 62
     2
100
AcDbText
 10
91.90000411000001
 20
-16.14999833
 30
0.0
 40
3.3
  1
×
 41
0.8333333333333326
  7
dcStyle0
 72
     5
 11
95.20000411000001
 21
-16.14999833
 31
0.0
100
AcDbText
  0
TEXT
  5
124
330
1F
100
AcDbEntity
  8
Layer0022
 62
     2
100
AcDbText
 10
95.30000415
 20
-16.14999833
 30
0.0
 40
3.0
  1
10
 41
0.833333334444445
  7
dcStyle0
 72
     5
 11
100.30000419
 21
-16.14999833
 31
0.0
100
AcDbText
  0
TEXT
  5
125
330
1F
100
AcDbEntity
  8
Layer0022
 62
     2
100
AcDbText
 10
100.30000422
 20
-14.1499983
 30
0.0
 40
1.8
  1
-3
 41
0.8333333342592597
  7
dcStyle0
 72
     5
 11
103.30000424
 21
-14.1499983
 31
0.0
100
AcDbText
  0
TEXT
  5
126
330
1F
100
AcDbEntity
  8
Layer0022
 62
     2
100
AcDbText
 10
104.30000429
 20
-16.14999833
 30
0.0
 40
3.3
  1
×
 41
0.8333333333333326
  7
dcStyle0
 72
     5
 11
107.60000429
 21
-16.14999833
 31
0.0
100
AcDbText
  0
TEXT
  5
127
330
1F
100
AcDbEntity
  8
Layer0022
 62
     2
100
AcDbText
 10
107.70000434
 20
-16.14999833
 30
0.0
 40
3.0
  1
  7.40
 41
0.8333333351851854
  7
dcStyle0
 72
     5
 11
122.70000454
 21
-16.14999833
 31
0.0
100
AcDbText
  0
TEXT
  5
128
330
1F
100
AcDbEntity
  8
Layer0022
 62
     2
100
AcDbText
 10
122.70000456
 20
-16.14999833
 30
0.0
 40
3.3
  1
×
 41
0.8333333333333326
  7
dcStyle0
 72
     5
 11
126.00000456
 21
-16.14999833
 31
0.0
100
AcDbText
  0
TEXT
  5
129
330
1F
100
AcDbEntity
  8
Layer0022
 62
     2
100
AcDbText
 10
126.10000461
 20
-16.14999833
 30
0.0
 40
3.0
  1
10
 41
0.8333333344444427
  7
dcStyle0
 72
     5
 11
131.10000465
 21
-16.14999833
 31
0.0
100
AcDbText
  0
TEXT
  5
12A
330
1F
100
AcDbEntity
  8
Layer0022
 62
     2
100
AcDbText
 10
131.10000468
 20
-14.1499983
 30
0.0
 40
1.8
  1
3
 41
0.8333333333333333
  7
dcStyle0
 72
     5
 11
132.60000468
 21
-14.1499983
 31
0.0
100
AcDbText
  0
TEXT
  5
12B
330
1F
100
AcDbEntity
  8
Layer0022
 62
     2
100
AcDbText
 10
70.40000378
 20
-21.1499984
 30
0.0
 40
3.0
  1
  =
 41
0.8333333348148155
  7
dcStyle0
 72
     5
 11
77.90000386000001
 21
-21.1499984
 31
0.0
100
AcDbText
  0
TEXT
  5
12C
330
1F
100
AcDbEntity
  8
Layer0022
 62
     2
100
AcDbText
 10
77.90000389
 20
-21.1499984
 30
0.0
 40
3.0
  1
 18.5
 41
0.833333335111111
  7
dcStyle0
 72
     5
 11
90.40000404999999
 21
-21.1499984
 31
0.0
100
AcDbText
  0
TEXT
  5
12D
330
1F
100
AcDbEntity
  8
Layer0022
 62
     2
100
AcDbText
 10
91.4000041
 20
-21.1499984
 30
0.0
 40
3.0
  1
>
  7
dcStyle0
 72
     5
 11
94.4000041
 21
-21.1499984
 31
0.0
100
AcDbText
  0
TEXT
  5
12E
330
1F
100
AcDbEntity
  8
Layer0022
 62
     2
100
AcDbText
 10
94.65000414
 20
-21.1499984
 30
0.0
 40
3.0
  1
 14 
 41
0.8333333349999997
  7
dcStyle0
 72
     5
 11
104.65000426
 21
-21.1499984
 31
0.0
100
AcDbText
  0
TEXT
  5
12F
330
1F
100
AcDbEntity
  8
Layer0022
 62
     2
100
AcDbText
 10
85.40000401
 20
-59.14999897000001
 30
0.0
 40
3.3
  1
以上より　
 41
0.8398058267980016
  7
dcStyle0
 72
     5
 11
102.70000421
 21
-59.14999897000001
 31
0.0
100
AcDbText
  0
TEXT
  5
130
330
1F
100
AcDbEntity
  8
Layer0022
 62
     2
100
AcDbText
 10
102.80000427
 20
-59.14999897000001
 30
0.0
 40
3.5
  1
Ｔ－
 41
0.8333333343253964
  7
dcStyle0
 72
     5
 11
109.80000432
 21
-59.14999897000001
 31
0.0
100
AcDbText
  0
TEXT
  5
131
330
1F
100
AcDbEntity
  8
Layer0022
 62
     2
100
AcDbText
 10
109.80000437
 20
-59.14999897000001
 30
0.0
 40
3.0
  1
 14 
 41
0.8333333349999997
  7
dcStyle0
 72
     5
 11
119.80000449
 21
-59.14999897000001
 31
0.0
100
AcDbText
  0
TEXT
  5
132
330
1F
100
AcDbEntity
  8
Layer0022
 62
     2
100
AcDbText
 10
119.80000452
 20
-59.14999897000001
 30
0.0
 40
3.3
  1
となる
 41
0.838762216296725
  7
dcStyle0
 72
     5
 11
130.10000462
 21
-59.14999897000001
 31
0.0
100
AcDbText
  0
TEXT
  5
133
330
1F
100
AcDbEntity
  8
Layer0022
 62
     2
100
AcDbText
 10
-107.5999988925494
 20
94.05000331
 30
0.0
 40
2.5
  1
ベアリングバー：
 41
0.8333333352777776
  7
dcStyle0
 72
     5
 11
-87.59999861254943
 21
94.05000331
 31
0.0
100
AcDbText
  0
TEXT
  5
134
330
1F
100
AcDbEntity
  8
Layer0022
 62
     2
100
AcDbText
 10
-87.59999859254943
 20
94.05000331
 30
0.0
 40
2.5
  1
Y-
 41
0.9999999999999998
  7
dcStyle0
 72
     5
 11
-82.59999852254943
 21
94.05000331
 31
0.0
100
AcDbText
  0
TEXT
  5
135
330
1F
100
AcDbEntity
  8
Layer0022
 62
     2
100
AcDbText
 10
-84.59999855254944
 20
94.05000331
 30
0.0
 40
2.5
  1
 44 
 41
1.0
  7
dcStyle0
 72
     5
 11
-74.59999840254943
 21
94.05000331
 31
0.0
100
AcDbText
  0
TEXT
  5
136
330
1F
100
AcDbEntity
  8
Layer0022
 62
     2
100
AcDbText
 10
-77.09999843254941
 20
94.05000331
 30
0.0
 40
2.5
  1
×
 41
0.8333333333333334
  7
dcStyle0
 72
     5
 11
-74.59999843254941
 21
94.05000331
 31
0.0
100
AcDbText
  0
TEXT
  5
137
330
1F
100
AcDbEntity
  8
Layer0022
 62
     2
100
AcDbText
 10
-74.59999840254942
 20
94.05000331
 30
0.0
 40
2.5
  1
20
 41
0.9999999999999998
  7
dcStyle0
 72
     5
 11
-69.59999833254942
 21
94.05000331
 31
0.0
100
AcDbText
  0
TEXT
  5
138
330
1F
100
AcDbEntity
  8
Layer0022
 62
     2
100
AcDbText
 10
-69.59999832254942
 20
94.05000331
 30
0.0
 40
2.5
  1
×
 41
0.8333333333333334
  7
dcStyle0
 72
     5
 11
-67.09999832254942
 21
94.05000331
 31
0.0
100
AcDbText
  0
TEXT
  5
139
330
1F
100
AcDbEntity
  8
Layer0022
 62
     2
100
AcDbText
 10
-69.09999832254942
 20
94.05000331
 30
0.0
 40
2.5
  1
 4.5 
 41
0.8000000025599998
  7
dcStyle0
 72
     5
 11
-59.09999816254943
 21
94.05000331
 31
0.0
100
AcDbText
  0
TEXT
  5
13A
330
1F
100
AcDbEntity
  8
Layer0022
 62
     2
100
AcDbText
 10
-102.6499988225494
 20
90.05000325000002
 30
0.0
 40
2.5
  1
ツイストバー：
 41
0.8333333352380948
  7
dcStyle0
 72
     5
 11
-85.14999858254944
 21
90.05000325000002
 31
0.0
100
AcDbText
  0
TEXT
  5
13B
330
1F
100
AcDbEntity
  8
Layer0022
 62
     2
100
AcDbText
 10
-85.14999855254942
 20
90.05000325000002
 30
0.0
 40
2.5
  1
φ
 41
0.8333333333333334
  7
dcStyle0
 72
     5
 11
-82.64999855254942
 21
90.05000325000002
 31
0.0
100
AcDbText
  0
TEXT
  5
13C
330
1F
100
AcDbEntity
  8
Layer0022
 62
     2
100
AcDbText
 10
-84.64999855254942
 20
90.05000325000002
 30
0.0
 40
2.5
  1
 10 
 41
1.0
  7
dcStyle0
 72
     5
 11
-74.64999840254941
 21
90.05000325000002
 31
0.0
100
AcDbText
  0
TEXT
  5
13D
330
1F
100
AcDbEntity
  8
Layer0022
 62
     2
100
AcDbText
 10
-74.64999840254941
 20
90.05000325000002
 30
0.0
 40
2.5
  1
絞りパイプ
 41
0.8333333355555557
  7
dcStyle0
 72
     5
 11
-62.14999820254941
 21
90.05000325000002
 31
0.0
100
AcDbText
  0
TEXT
  5
13E
330
1F
100
AcDbEntity
  8
Layer0022
 62
     2
100
AcDbText
 10
-97.90999630254942
 20
85.35000318
 30
0.0
 40
2.5
  1
エンドプレート：
 41
0.8333333352777776
  7
dcStyle0
 72
     5
 11
-77.90999602254942
 21
85.35000318
 31
0.0
100
AcDbText
  0
TEXT
  5
13F
330
1F
100
AcDbEntity
  8
Layer0022
 62
     2
100
AcDbText
 10
-77.90999600254942
 20
85.35000318
 30
0.0
 40
2.5
  1
TP
 41
0.9999999999999998
  7
dcStyle0
 72
     5
 11
-72.90999593254942
 21
85.35000318
 31
0.0
100
AcDbText
  0
TEXT
  5
140
330
1F
100
AcDbEntity
  8
Layer0022
 62
     2
100
AcDbText
 10
-74.90999596254942
 20
85.35000318
 30
0.0
 40
2.5
  1
 6 
 41
0.9999999999999994
  7
dcStyle0
 72
     5
 11
-67.40999584254942
 21
85.35000318
 31
0.0
100
AcDbText
  0
TEXT
  5
141
330
1F
100
AcDbEntity
  8
Layer0022
 62
     2
100
AcDbText
 10
-69.90999589254942
 20
85.35000318
 30
0.0
 40
2.5
  1
×
 41
0.8333333333333334
  7
dcStyle0
 72
     5
 11
-67.40999589254942
 21
85.35000318
 31
0.0
100
AcDbText
  0
TEXT
  5
142
330
1F
100
AcDbEntity
  8
Layer0022
 62
     2
100
AcDbText
 10
-69.40999588254942
 20
85.35000318
 30
0.0
 40
2.5
  1
 3 
 41
1.0
  7
dcStyle0
 72
     5
 11
-61.90999576254942
 21
85.35000318
 31
0.0
100
AcDbText
  0
TEXT
  5
143
330
1F
100
AcDbEntity
  8
Layer0022
 62
     2
100
AcDbText
 10
-64.40999580254942
 20
85.35000318
 30
0.0
 40
2.5
  1
×
 41
0.8333333333333334
  7
dcStyle0
 72
     5
 11
-61.90999580254942
 21
85.35000318
 31
0.0
100
AcDbText
  0
TEXT
  5
144
330
1F
100
AcDbEntity
  8
Layer0022
 62
     2
100
AcDbText
 10
-63.90999580254942
 20
85.35000318
 30
0.0
 40
2.5
  1
 32 
 41
0.9999999999999998
  7
dcStyle0
 72
     5
 11
-53.90999565254942
 21
85.35000318
 31
0.0
100
AcDbText
  0
TEXT
  5
145
330
1F
100
AcDbEntity
  8
Layer0022
 62
     2
100
AcDbText
 10
-89.77999626254942
 20
-72.44999917
 30
0.0
 40
3.0
  1
 27.9 
 41
0.8333333351851854
  7
dcStyle0
 72
     5
 11
-74.77999606254942
 21
-72.44999917
 31
0.0
100
AcDbText
  0
TEXT
  5
146
330
1F
100
AcDbEntity
  8
Layer0022
 62
     2
100
AcDbText
 10
-97.84999874254942
 20
-65.44999906
 30
0.0
 40
3.0
  1
 494 
 41
0.8333333355555557
  7
dcStyle0
 72
     5
 11
-85.34999854254941
 21
-65.44999906
 31
0.0
100
AcDbText
  0
TEXT
  5
147
330
1F
100
AcDbEntity
  8
Layer0022
 62
     2
100
AcDbText
 10
-135.6700005325494
 20
-58.94999897
 30
0.0
 40
2.7
  1
セラミック充填
 41
0.8474576289654043
  7
dcStyle0
 72
     5
 11
-114.6700002325494
 21
-58.94999897
 31
0.0
100
AcDbText
  0
TEXT
  5
148
330
1F
100
AcDbEntity
  8
Layer0022
 62
     2
100
AcDbText
 10
-29.54999773254942
 20
-66.08999904
 30
0.0
 40
2.5
  1
エンドプレート
 41
0.8333333352380952
  7
dcStyle0
 72
     5
 11
-12.04999749254942
 21
-66.08999904
 31
0.0
100
AcDbText
  0
TEXT
  5
149
330
1F
100
AcDbEntity
  8
Layer0022
 62
     2
100
AcDbText
 10
-30.04999773254942
 20
-70.0899991
 30
0.0
 40
2.5
  1
（斜めカット）
 41
0.8333333352380952
  7
dcStyle0
 72
     5
 11
-12.54999749254942
 21
-70.0899991
 31
0.0
100
AcDbText
  0
TEXT
  5
14A
330
1F
100
AcDbEntity
  8
Layer0022
 62
     2
100
AcDbText
 10
-2.699997328543041
 20
49.60000265480765
 30
0.0
 40
3.0
  1
 100 
 50
90.0000001836389
 41
0.8333333355555557
  7
dcStyle0
 72
     5
 11
-2.699997368606835
 21
62.10000285480766
 31
0.0
100
AcDbText
  0
TEXT
  5
14B
330
1F
100
AcDbEntity
  8
Layer0022
 62
     2
100
AcDbText
 10
-2.699997328543041
 20
29.60000235480765
 30
0.0
 40
3.0
  1
 100 
 50
90.0000001836389
 41
0.8333333355555554
  7
dcStyle0
 72
     5
 11
-2.699997368606835
 21
42.10000255480765
 31
0.0
100
AcDbText
  0
TEXT
  5
14C
330
1F
100
AcDbEntity
  8
Layer0022
 62
     2
100
AcDbText
 10
-9.699997428543043
 20
9.600002054807655
 30
0.0
 40
3.0
  1
 500 
 50
90.0000001836389
 41
0.8333333355555556
  7
dcStyle0
 72
     5
 11
-9.699997468606837
 21
22.10000225480766
 31
0.0
100
AcDbText
  0
TEXT
  5
14D
330
1F
100
AcDbEntity
  8
Layer0022
 62
     2
100
AcDbText
 10
35.10000324145696
 20
9.600002054807655
 30
0.0
 40
3.0
  1
 480 
 50
90.0000001836389
 41
0.8333333355555556
  7
dcStyle0
 72
     5
 11
35.10000320139316
 21
22.10000225480766
 31
0.0
100
AcDbText
  0
TEXT
  5
14E
330
1F
100
AcDbEntity
  8
Layer0022
 62
     2
100
AcDbText
 10
40.10000331225823
 20
8.350002044807654
 30
0.0
 40
3.0
  1
嵩上材外寸
 50
90.0000001836389
 41
0.8333333355555554
  7
dcStyle0
 72
     5
 11
40.10000326418168
 21
23.35000228480765
 31
0.0
100
AcDbText
  0
TEXT
  5
14F
330
1F
100
AcDbEntity
  8
Layer0022
 62
     2
100
AcDbText
 10
8.600002837450582
 20
84.15000317
 30
0.0
 40
2.5
  1
□－
 41
0.6666666699999999
  7
dcStyle0
 72
     5
 11
12.60000289745058
 21
84.15000317
 31
0.0
100
AcDbText
  0
TEXT
  5
150
330
1F
100
AcDbEntity
  8
Layer0022
 62
     2
100
AcDbText
 10
12.60000289745058
 20
84.15000317
 30
0.0
 40
2.5
  1
3.2
 41
0.6000000032000002
  7
dcStyle0
 72
     5
 11
17.10000295745058
 21
84.15000317
 31
0.0
100
AcDbText
  0
TEXT
  5
151
330
1F
100
AcDbEntity
  8
Layer0022
 62
     2
100
AcDbText
 10
17.10000296745058
 20
84.15000317
 30
0.0
 40
2.5
  1
×
 41
0.6666666666666666
  7
dcStyle0
 72
     5
 11
19.10000296745058
 21
84.15000317
 31
0.0
100
AcDbText
  0
TEXT
  5
152
330
1F
100
AcDbEntity
  8
Layer0022
 62
     2
100
AcDbText
 10
17.10000296745058
 20
84.15000317
 30
0.0
 40
2.5
  1
 65 
 41
0.8000000023999999
  7
dcStyle0
 72
     5
 11
25.10000308745058
 21
84.15000317
 31
0.0
100
AcDbText
  0
TEXT
  5
153
330
1F
100
AcDbEntity
  8
Layer0022
 62
     2
100
AcDbText
 10
23.10000305745058
 20
84.15000317
 30
0.0
 40
2.5
  1
×
 41
0.6666666666666666
  7
dcStyle0
 72
     5
 11
25.10000305745058
 21
84.15000317
 31
0.0
100
AcDbText
  0
TEXT
  5
154
330
1F
100
AcDbEntity
  8
Layer0022
 62
     2
100
AcDbText
 10
23.10000305745058
 20
84.15000317
 30
0.0
 40
2.5
  1
 40 
 41
0.8000000023999999
  7
dcStyle0
 72
     5
 11
31.10000317745058
 21
84.15000317
 31
0.0
100
AcDbText
  0
TEXT
  5
155
330
1F
100
AcDbEntity
  8
Layer0022
 62
     2
100
AcDbText
 10
2.200002747450581
 20
-48.64999881
 30
0.0
 40
3.0
  1
 44 
 41
0.8333333354166667
  7
dcStyle0
 72
     5
 11
12.20000289745058
 21
-48.64999881
 31
0.0
100
AcDbText
  0
TEXT
  5
156
330
1F
100
AcDbEntity
  8
Layer0022
 62
     2
100
AcDbText
 10
7.450002827450581
 20
-55.64999892000001
 30
0.0
 40
3.0
  1
 109 
 41
0.8333333355555556
  7
dcStyle0
 72
     5
 11
19.95000302745058
 21
-55.64999892000001
 31
0.0
100
AcDbText
  0
TEXT
  5
157
330
1F
100
AcDbEntity
  8
Layer0022
 62
     2
100
AcDbText
 10
-97.84999874254942
 20
-107.24999969
 30
0.0
 40
3.0
  1
 480 
 41
0.8333333355555557
  7
dcStyle0
 72
     5
 11
-85.34999854254941
 21
-107.24999969
 31
0.0
100
AcDbText
  0
TEXT
  5
158
330
1F
100
AcDbEntity
  8
Layer0022
 62
     2
100
AcDbText
 10
25.40000308745058
 20
-78.24999925
 30
0.0
 40
3.0
  1
本体重量：
 41
0.6944444478395061
  7
dcStyle0
 72
     5
 11
37.90000328745058
 21
-78.24999925
 31
0.0
100
AcDbText
  0
TEXT
  5
159
330
1F
100
AcDbEntity
  8
Layer0022
 62
     2
100
AcDbText
 10
37.90000327745059
 20
-78.24999925
 30
0.0
 40
3.0
  1
 22.7
 41
0.666666670222222
  7
dcStyle0
 72
     5
 11
47.90000343745059
 21
-78.24999925
 31
0.0
100
AcDbText
  0
TEXT
  5
15A
330
1F
100
AcDbEntity
  8
Layer0022
 62
     2
100
AcDbText
 10
47.90000342745058
 20
-78.24999925
 30
0.0
 40
3.0
  1
Kg
 41
0.6666666699999997
  7
dcStyle0
 72
     5
 11
51.90000348745058
 21
-78.24999925
 31
0.0
100
AcDbText
  0
TEXT
  5
15B
330
1F
100
AcDbEntity
  8
Layer0022
 62
     2
100
AcDbText
 10
26.85000310745058
 20
-94.64999950000002
 30
0.0
 40
3.0
  1
岡本　
 41
0.8536585384889943
  7
dcStyle0
 72
     5
 11
37.35000326745057
 21
-94.64999950000002
 31
0.0
100
AcDbText
  0
TEXT
  5
15C
330
1F
100
AcDbEntity
  8
Layer0022
 62
     2
100
AcDbText
 10
39.35000329745058
 20
-94.64999950000002
 30
0.0
 40
3.0
  1
戸田　
 41
0.8536585384889945
  7
dcStyle0
 72
     5
 11
49.85000345745058
 21
-94.64999950000002
 31
0.0
100
AcDbText
  0
LINE
  5
15D
330
1F
100
AcDbEntity
  8
Layer0032
  6
Continuous
 62
     4
370
    25
100
AcDbLine
 10
-9.59999743103981
 20
-88.14999940246344
 30
0.0
 11
-9.59999743103981
 21
-88.81666608899832
 31
0.0
  0
LINE
  5
15E
330
1F
100
AcDbEntity
  8
Layer0032
  6
Continuous
 62
     4
370
    25
100
AcDbLine
 10
-9.59999743103981
 20
-88.81666608899832
 30
0.0
 11
-8.599997401237488
 21
-88.81666608899832
 31
0.0
  0
LINE
  5
15F
330
1F
100
AcDbEntity
  8
Layer0032
  6
Continuous
 62
     4
370
    25
100
AcDbLine
 10
-8.599997401237488
 20
-88.81666608899832
 30
0.0
 11
-7.266664028167725
 21
-91.1499994918704
 31
0.0
  0
LINE
  5
160
330
1F
100
AcDbEntity
  8
Layer0032
  6
Continuous
 62
     4
370
    25
100
AcDbLine
 10
-7.266664028167725
 20
-91.1499994918704
 30
0.0
 11
-7.266664028167725
 21
-92.14999952167273
 31
0.0
  0
LINE
  5
161
330
1F
100
AcDbEntity
  8
Layer0032
  6
Continuous
 62
     4
370
    25
100
AcDbLine
 10
-7.266664028167725
 20
-92.14999952167273
 30
0.0
 11
-6.933330684900284
 21
-92.48333286494017
 31
0.0
  0
LINE
  5
162
330
1F
100
AcDbEntity
  8
Layer0032
  6
Continuous
 62
     4
370
    25
100
AcDbLine
 10
-6.933330684900284
 20
-92.48333286494017
 30
0.0
 11
-6.933330684900284
 21
-102.8166665062308
 31
0.0
  0
LINE
  5
163
330
1F
100
AcDbEntity
  8
Layer0032
  6
Continuous
 62
     4
370
    25
100
AcDbLine
 10
-6.933330684900284
 20
-102.8166665062308
 30
0.0
 11
-5.599997311830521
 21
-102.8166665062308
 31
0.0
  0
LINE
  5
164
330
1F
100
AcDbEntity
  8
Layer0032
  6
Continuous
 62
     4
370
    25
100
AcDbLine
 10
-5.599997311830521
 20
-102.8166665062308
 30
0.0
 11
-5.599997311830521
 21
-92.48333286494017
 31
0.0
  0
LINE
  5
165
330
1F
100
AcDbEntity
  8
Layer0032
  6
Continuous
 62
     4
370
    25
100
AcDbLine
 10
-5.599997311830521
 20
-92.48333286494017
 30
0.0
 11
-5.26666396856308
 21
-92.14999952167273
 31
0.0
  0
LINE
  5
166
330
1F
100
AcDbEntity
  8
Layer0032
  6
Continuous
 62
     4
370
    25
100
AcDbLine
 10
-5.26666396856308
 20
-92.14999952167273
 30
0.0
 11
-5.26666396856308
 21
-91.1499994918704
 31
0.0
  0
LINE
  5
167
330
1F
100
AcDbEntity
  8
Layer0032
  6
Continuous
 62
     4
370
    25
100
AcDbLine
 10
-5.26666396856308
 20
-91.1499994918704
 30
0.0
 11
-3.933330595493317
 21
-88.81666608899832
 31
0.0
  0
LINE
  5
168
330
1F
100
AcDbEntity
  8
Layer0032
  6
Continuous
 62
     4
370
    25
100
AcDbLine
 10
-3.933330595493317
 20
-88.81666608899832
 30
0.0
 11
-2.933330565690994
 21
-88.81666608899832
 31
0.0
  0
LINE
  5
169
330
1F
100
AcDbEntity
  8
Layer0032
  6
Continuous
 62
     4
370
    25
100
AcDbLine
 10
-2.933330565690994
 20
-88.81666608899832
 30
0.0
 11
-2.933330565690994
 21
-88.14999940246344
 31
0.0
  0
LINE
  5
16A
330
1F
100
AcDbEntity
  8
Layer0032
  6
Continuous
 62
     4
370
    25
100
AcDbLine
 10
-2.933330565690994
 20
-88.14999940246344
 30
0.0
 11
-4.266663938760757
 21
-88.14999940246344
 31
0.0
  0
LINE
  5
16B
330
1F
100
AcDbEntity
  8
Layer0032
  6
Continuous
 62
     4
370
    25
100
AcDbLine
 10
-4.266663938760757
 20
-88.14999940246344
 30
0.0
 11
-6.266663998365402
 21
-90.14999946206808
 31
0.0
  0
LINE
  5
16C
330
1F
100
AcDbEntity
  8
Layer0032
  6
Continuous
 62
     4
370
    25
100
AcDbLine
 10
-6.266663998365402
 20
-90.14999946206808
 30
0.0
 11
-8.266664057970047
 21
-88.14999940246344
 31
0.0
  0
LINE
  5
16D
330
1F
100
AcDbEntity
  8
Layer0032
  6
Continuous
 62
     4
370
    25
100
AcDbLine
 10
-8.266664057970047
 20
-88.14999940246344
 30
0.0
 11
-9.59999743103981
 21
-88.14999940246344
 31
0.0
  0
CIRCLE
  5
16E
330
1F
100
AcDbEntity
  8
Layer0032
  6
Continuous
 62
     4
370
    25
100
AcDbCircle
 10
-6.266663998365402
 20
-89.14999943226576
 30
0.0
 40
0.6666666865348816
  0
ARC
  5
16F
330
1F
100
AcDbEntity
  8
Layer0032
  6
Continuous
 62
     4
370
    25
100
AcDbCircle
 10
-6.300348309402192
 20
-92.71772633943382
 30
0.0
 40
5.000000149011612
100
AcDbArc
 50
66.00000000000014
 51
113.0000000000003
  0
LINE
  5
170
330
1F
100
AcDbEntity
  8
Layer0032
  6
Continuous
 62
     4
370
    25
100
AcDbLine
 10
-8.266667447487563
 20
-87.64999939501286
 30
0.0
 11
-8.266667447487563
 21
-83.64999933540821
 31
0.0
  0
LINE
  5
171
330
1F
100
AcDbEntity
  8
Layer0032
  6
Continuous
 62
     4
370
    25
100
AcDbLine
 10
-8.266667447487563
 20
-84.64999935030937
 30
0.0
 11
-10.26666747728989
 21
-84.34999934583902
 31
0.0
  0
LINE
  5
172
330
1F
100
AcDbEntity
  8
Layer0032
  6
Continuous
 62
     4
370
    25
100
AcDbLine
 10
-10.26666747728989
 20
-84.34999934583902
 30
0.0
 11
-10.26666747728989
 21
-84.94999935477972
 31
0.0
  0
LINE
  5
173
330
1F
100
AcDbEntity
  8
Layer0032
  6
Continuous
 62
     4
370
    25
100
AcDbLine
 10
-10.26666747728989
 20
-84.94999935477972
 30
0.0
 11
-8.266667447487563
 21
-84.64999935030937
 31
0.0
  0
LINE
  5
174
330
1F
100
AcDbEntity
  8
Layer0032
  6
Continuous
 62
     4
370
    25
100
AcDbLine
 10
-8.266667447487563
 20
-84.64999935030937
 30
0.0
 11
-11.26666749219105
 21
-84.64999935030937
 31
0.0
  0
LINE
  5
175
330
1F
100
AcDbEntity
  8
Layer0032
  6
Continuous
 62
     4
370
    25
100
AcDbLine
 10
-8.266667447487563
 20
-84.64999935030937
 30
0.0
 11
-4.266667387882919
 21
-84.64999935030937
 31
0.0
  0
LINE
  5
176
330
1F
100
AcDbEntity
  8
Layer0032
  6
Continuous
 62
     4
370
    25
100
AcDbLine
 10
-4.266667387882919
 20
-84.64999935030937
 30
0.0
 11
-2.266667358080596
 21
-84.34999934583902
 31
0.0
  0
LINE
  5
177
330
1F
100
AcDbEntity
  8
Layer0032
  6
Continuous
 62
     4
370
    25
100
AcDbLine
 10
-2.266667358080596
 20
-84.34999934583902
 30
0.0
 11
-2.266667358080596
 21
-84.94999935477972
 31
0.0
  0
LINE
  5
178
330
1F
100
AcDbEntity
  8
Layer0032
  6
Continuous
 62
     4
370
    25
100
AcDbLine
 10
-2.266667358080596
 20
-84.94999935477972
 30
0.0
 11
-4.266667387882919
 21
-84.64999935030937
 31
0.0
  0
LINE
  5
179
330
1F
100
AcDbEntity
  8
Layer0032
  6
Continuous
 62
     4
370
    25
100
AcDbLine
 10
-4.266667387882919
 20
-84.64999935030937
 30
0.0
 11
-1.266667343179435
 21
-84.64999935030937
 31
0.0
  0
LINE
  5
17A
330
1F
100
AcDbEntity
  8
Layer0032
  6
Continuous
 62
     4
370
    25
100
AcDbLine
 10
-4.266667387882919
 20
-83.64999933540821
 30
0.0
 11
-4.266667387882919
 21
-87.64999939501286
 31
0.0
  0
LINE
  5
17B
330
1F
100
AcDbEntity
  8
Layer0032
  6
Continuous
 62
     4
370
    25
100
AcDbLine
 10
-6.599997386336323
 20
-87.64999939501286
 30
0.0
 11
-6.966664400200052
 21
-86.08332933535173
 31
0.0
  0
LINE
  5
17C
330
1F
100
AcDbEntity
  8
Layer0032
  6
Continuous
 62
     4
370
    25
100
AcDbLine
 10
-6.599997386336323
 20
-87.64999939501286
 30
0.0
 11
-7.766667440036979
 21
-85.64999936521053
 31
0.0
  0
LINE
  5
17D
330
1F
100
AcDbEntity
  8
Layer0032
  6
Continuous
 62
     4
370
    25
100
AcDbLine
 10
-10.53333751757949
 20
-80.94999929517508
 30
0.0
 11
-11.70000757128015
 21
-78.94999926537275
 31
0.0
  0
LINE
  5
17E
330
1F
100
AcDbEntity
  8
Layer0032
  6
Continuous
 62
     4
370
    25
100
AcDbLine
 10
-20.03333746840566
 20
-78.94999926537275
 30
0.0
 11
-11.70000757128015
 21
-78.94999926537275
 31
0.0
  0
LINE
  5
17F
330
1F
100
AcDbEntity
  8
Layer0032
  6
Continuous
 62
     4
370
    25
100
AcDbLine
 10
-5.932992981865933
 20
-88.48330018868
 30
0.0
 11
-5.699659986788966
 21
-86.88330016483815
 31
0.0
  0
LINE
  5
180
330
1F
100
AcDbEntity
  8
Layer0032
  6
Continuous
 62
     4
370
    25
100
AcDbLine
 10
-5.932992981865933
 20
-88.48330018868
 30
0.0
 11
-4.799663001293918
 21
-86.48330015887768
 31
0.0
  0
LINE
  5
181
330
1F
100
AcDbEntity
  8
Layer0032
  6
Continuous
 62
     4
370
    25
100
AcDbLine
 10
-2.332992928221753
 20
-82.81663025865899
 30
0.0
 11
0.1003370717217713
 21
-78.61663019607411
 31
0.0
  0
LINE
  5
182
330
1F
100
AcDbEntity
  8
Layer0032
  6
Continuous
 62
     4
370
    25
100
AcDbLine
 10
0.1003370717217713
 20
-78.61663019607411
 30
0.0
 11
7.433666953946119
 21
-78.61663019607411
 31
0.0
  0
LINE
  5
183
330
1F
100
AcDbEntity
  8
Layer0032
  6
Continuous
 62
     4
370
    25
100
AcDbLine
 10
-9.59999743103981
 20
-87.64999939501286
 30
0.0
 11
-9.59999743103981
 21
-85.4499993622303
 31
0.0
  0
LINE
  5
184
330
1F
100
AcDbEntity
  8
Layer0032
  6
Continuous
 62
     4
370
    25
100
AcDbLine
 10
-9.59999743103981
 20
-83.84999933838844
 30
0.0
 11
-9.59999743103981
 21
-77.64999924600124
 31
0.0
  0
LINE
  5
185
330
1F
100
AcDbEntity
  8
Layer0032
  6
Continuous
 62
     4
370
    25
100
AcDbLine
 10
-9.59999743103981
 20
-78.6499992609024
 30
0.0
 11
-7.599997401237488
 21
-78.34999925643206
 31
0.0
  0
LINE
  5
186
330
1F
100
AcDbEntity
  8
Layer0032
  6
Continuous
 62
     4
370
    25
100
AcDbLine
 10
-7.599997401237488
 20
-78.94999926537275
 30
0.0
 11
-7.599997401237488
 21
-78.34999925643206
 31
0.0
  0
LINE
  5
187
330
1F
100
AcDbEntity
  8
Layer0032
  6
Continuous
 62
     4
370
    25
100
AcDbLine
 10
-7.599997401237488
 20
-78.94999926537275
 30
0.0
 11
-9.59999743103981
 21
-78.6499992609024
 31
0.0
  0
LINE
  5
188
330
1F
100
AcDbEntity
  8
Layer0032
  6
Continuous
 62
     4
370
    25
100
AcDbLine
 10
-9.59999743103981
 20
-78.6499992609024
 30
0.0
 11
-2.933327104647901
 21
-78.6499992609024
 31
0.0
  0
LINE
  5
189
330
1F
100
AcDbEntity
  8
Layer0032
  6
Continuous
 62
     4
370
    25
100
AcDbLine
 10
-2.933327104647901
 20
-78.6499992609024
 30
0.0
 11
-4.933327134450224
 21
-78.34999925643206
 31
0.0
  0
LINE
  5
18A
330
1F
100
AcDbEntity
  8
Layer0032
  6
Continuous
 62
     4
370
    25
100
AcDbLine
 10
-4.933327134450224
 20
-78.94999926537275
 30
0.0
 11
-4.933327134450224
 21
-78.34999925643206
 31
0.0
  0
LINE
  5
18B
330
1F
100
AcDbEntity
  8
Layer0032
  6
Continuous
 62
     4
370
    25
100
AcDbLine
 10
-4.933327134450224
 20
-78.94999926537275
 30
0.0
 11
-2.933327104647901
 21
-78.6499992609024
 31
0.0
  0
LINE
  5
18C
330
1F
100
AcDbEntity
  8
Layer0032
  6
Continuous
 62
     4
370
    25
100
AcDbLine
 10
-2.933327104647901
 20
-87.64999939501286
 30
0.0
 11
-2.933327104647901
 21
-85.4499993622303
 31
0.0
  0
LINE
  5
18D
330
1F
100
AcDbEntity
  8
Layer0032
  6
Continuous
 62
     4
370
    25
100
AcDbLine
 10
-2.933327104647901
 20
-83.84999933838844
 30
0.0
 11
-2.933327104647901
 21
-77.64999924600124
 31
0.0
  0
LINE
  5
18E
330
1F
100
AcDbEntity
  8
Layer0032
  6
Continuous
 62
     4
370
    25
100
AcDbLine
 10
-14.09999749809504
 20
-88.14999940246344
 30
0.0
 11
-10.09999743849039
 21
-88.14999940246344
 31
0.0
  0
LINE
  5
18F
330
1F
100
AcDbEntity
  8
Layer0032
  6
Continuous
 62
     4
370
    25
100
AcDbLine
 10
-13.09999748319387
 20
-88.14999940246344
 30
0.0
 11
-13.39999748766422
 21
-86.14999937266111
 31
0.0
  0
LINE
  5
190
330
1F
100
AcDbEntity
  8
Layer0032
  6
Continuous
 62
     4
370
    25
100
AcDbLine
 10
-13.39999748766422
 20
-86.14999937266111
 30
0.0
 11
-12.79999747872353
 21
-86.14999937266111
 31
0.0
  0
LINE
  5
191
330
1F
100
AcDbEntity
  8
Layer0032
  6
Continuous
 62
     4
370
    25
100
AcDbLine
 10
-12.79999747872353
 20
-86.14999937266111
 30
0.0
 11
-13.09999748319387
 21
-88.14999940246344
 31
0.0
  0
LINE
  5
192
330
1F
100
AcDbEntity
  8
Layer0032
  6
Continuous
 62
     4
370
    25
100
AcDbLine
 10
-13.09999748319387
 20
-88.14999940246344
 30
0.0
 11
-13.09999748319387
 21
-85.14999935775995
 31
0.0
  0
LINE
  5
193
330
1F
100
AcDbEntity
  8
Layer0032
  6
Continuous
 62
     4
370
    25
100
AcDbLine
 10
-13.09999748319387
 20
-90.14999943226576
 30
0.0
 11
-13.09999748319387
 21
-88.14999940246344
 31
0.0
  0
LINE
  5
194
330
1F
100
AcDbEntity
  8
Layer0032
  6
Continuous
 62
     4
370
    25
100
AcDbLine
 10
-13.39999748766422
 20
-92.14999946206808
 30
0.0
 11
-13.09999748319387
 21
-90.14999943226576
 31
0.0
  0
LINE
  5
195
330
1F
100
AcDbEntity
  8
Layer0032
  6
Continuous
 62
     4
370
    25
100
AcDbLine
 10
-13.39999748766422
 20
-92.14999946206808
 30
0.0
 11
-12.79999747872353
 21
-92.14999946206808
 31
0.0
  0
LINE
  5
196
330
1F
100
AcDbEntity
  8
Layer0032
  6
Continuous
 62
     4
370
    25
100
AcDbLine
 10
-12.79999747872353
 20
-92.14999946206808
 30
0.0
 11
-13.09999748319387
 21
-90.14999943226576
 31
0.0
  0
LINE
  5
197
330
1F
100
AcDbEntity
  8
Layer0032
  6
Continuous
 62
     4
370
    25
100
AcDbLine
 10
-13.09999748319387
 20
-93.14999947696924
 30
0.0
 11
-13.09999748319387
 21
-90.14999943226576
 31
0.0
  0
LINE
  5
198
330
1F
100
AcDbEntity
  8
Layer0032
  6
Continuous
 62
     4
370
    25
100
AcDbLine
 10
-14.09999749809504
 20
-90.14999943226576
 30
0.0
 11
-8.599997416138649
 21
-90.14999943226576
 31
0.0
  0
LINE
  5
199
330
1F
100
AcDbEntity
  8
Layer0032
  6
Continuous
 62
     4
370
    25
100
AcDbLine
 10
-2.433327097197321
 20
-88.14999940246344
 30
0.0
 11
3.566672992209646
 21
-88.14999940246344
 31
0.0
  0
LINE
  5
19A
330
1F
100
AcDbEntity
  8
Layer0032
  6
Continuous
 62
     4
370
    25
100
AcDbLine
 10
2.266672972838137
 20
-90.14999943226576
 30
0.0
 11
2.566672977308485
 21
-88.14999940246344
 31
0.0
  0
LINE
  5
19B
330
1F
100
AcDbEntity
  8
Layer0032
  6
Continuous
 62
     4
370
    25
100
AcDbLine
 10
2.266672972838137
 20
-90.14999943226576
 30
0.0
 11
2.866672981778834
 21
-90.14999943226576
 31
0.0
  0
LINE
  5
19C
330
1F
100
AcDbEntity
  8
Layer0032
  6
Continuous
 62
     4
370
    25
100
AcDbLine
 10
2.866672981778834
 20
-90.14999943226576
 30
0.0
 11
2.566672977308485
 21
-88.14999940246344
 31
0.0
  0
LINE
  5
19D
330
1F
100
AcDbEntity
  8
Layer0032
  6
Continuous
 62
     4
370
    25
100
AcDbLine
 10
2.566672977308485
 20
-102.8167003656432
 30
0.0
 11
2.566672977308485
 21
-88.14999940246344
 31
0.0
  0
LINE
  5
19E
330
1F
100
AcDbEntity
  8
Layer0032
  6
Continuous
 62
     4
370
    25
100
AcDbLine
 10
2.566672977308485
 20
-102.8167003656432
 30
0.0
 11
2.266672972838137
 21
-100.8167003358409
 31
0.0
  0
LINE
  5
19F
330
1F
100
AcDbEntity
  8
Layer0032
  6
Continuous
 62
     4
370
    25
100
AcDbLine
 10
2.266672972838137
 20
-100.8167003358409
 30
0.0
 11
2.866672981778834
 21
-100.8167003358409
 31
0.0
  0
LINE
  5
1A0
330
1F
100
AcDbEntity
  8
Layer0032
  6
Continuous
 62
     4
370
    25
100
AcDbLine
 10
2.866672981778834
 20
-100.8167003358409
 30
0.0
 11
2.566672977308485
 21
-102.8167003656432
 31
0.0
  0
LINE
  5
1A1
330
1F
100
AcDbEntity
  8
Layer0032
  6
Continuous
 62
     4
370
    25
100
AcDbLine
 10
-4.433327126999643
 20
-102.8167003656432
 30
0.0
 11
3.566672992209646
 21
-102.8167003656432
 31
0.0
  0
LINE
  5
1A2
330
1F
100
AcDbEntity
  8
Layer0032
  6
Continuous
 62
     4
370
    25
100
AcDbLine
 10
-6.933327354987412
 20
-108.3167004475996
 30
0.0
 11
-6.933327354987412
 21
-103.3167003730938
 31
0.0
  0
LINE
  5
1A3
330
1F
100
AcDbEntity
  8
Layer0032
  6
Continuous
 62
     4
370
    25
100
AcDbLine
 10
-6.933327354987412
 20
-107.3167004326984
 30
0.0
 11
-8.933327384789735
 21
-107.0167004282281
 31
0.0
  0
LINE
  5
1A4
330
1F
100
AcDbEntity
  8
Layer0032
  6
Continuous
 62
     4
370
    25
100
AcDbLine
 10
-8.933327384789735
 20
-107.6167004371688
 30
0.0
 11
-8.933327384789735
 21
-107.0167004282281
 31
0.0
  0
LINE
  5
1A5
330
1F
100
AcDbEntity
  8
Layer0032
  6
Continuous
 62
     4
370
    25
100
AcDbLine
 10
-8.933327384789735
 20
-107.6167004371688
 30
0.0
 11
-6.933327354987412
 21
-107.3167004326984
 31
0.0
  0
LINE
  5
1A6
330
1F
100
AcDbEntity
  8
Layer0032
  6
Continuous
 62
     4
370
    25
100
AcDbLine
 10
-9.933327399690896
 20
-107.3167004326984
 30
0.0
 11
-6.933327354987412
 21
-107.3167004326984
 31
0.0
  0
LINE
  5
1A7
330
1F
100
AcDbEntity
  8
Layer0032
  6
Continuous
 62
     4
370
    25
100
AcDbLine
 10
-6.933327354987412
 20
-107.3167004326984
 30
0.0
 11
-5.599997371435165
 21
-107.3167004326984
 31
0.0
  0
LINE
  5
1A8
330
1F
100
AcDbEntity
  8
Layer0032
  6
Continuous
 62
     4
370
    25
100
AcDbLine
 10
-5.599997371435165
 20
-107.3167004326984
 30
0.0
 11
-3.599997341632843
 21
-107.0167004282281
 31
0.0
  0
LINE
  5
1A9
330
1F
100
AcDbEntity
  8
Layer0032
  6
Continuous
 62
     4
370
    25
100
AcDbLine
 10
-3.599997341632843
 20
-107.6167004371688
 30
0.0
 11
-3.599997341632843
 21
-107.0167004282281
 31
0.0
  0
LINE
  5
1AA
330
1F
100
AcDbEntity
  8
Layer0032
  6
Continuous
 62
     4
370
    25
100
AcDbLine
 10
-3.599997341632843
 20
-107.6167004371688
 30
0.0
 11
-5.599997371435165
 21
-107.3167004326984
 31
0.0
  0
LINE
  5
1AB
330
1F
100
AcDbEntity
  8
Layer0032
  6
Continuous
 62
     4
370
    25
100
AcDbLine
 10
-5.599997371435165
 20
-107.3167004326984
 30
0.0
 11
-2.599997326731682
 21
-107.3167004326984
 31
0.0
  0
LINE
  5
1AC
330
1F
100
AcDbEntity
  8
Layer0032
  6
Continuous
 62
     4
370
    25
100
AcDbLine
 10
-5.599997371435165
 20
-108.3167004475996
 30
0.0
 11
-5.599997371435165
 21
-103.3167003730938
 31
0.0
  0
TEXT
  5
1AD
330
1F
100
AcDbEntity
  8
Layer0032
 62
     2
100
AcDbText
 10
-9.26666745
 20
-83.34999933
 30
0.0
 40
2.0
  1
12.5
 41
0.7500000018749999
  7
dcStyle0
 72
     5
 11
-3.26666739
 21
-83.34999933
 31
0.0
100
AcDbText
  0
TEXT
  5
1AE
330
1F
100
AcDbEntity
  8
Layer0032
 62
     2
100
AcDbText
 10
-19.53333745
 20
-78.64999926
 30
0.0
 40
2.0
  1
ｾﾗﾐｯｸ
 41
0.7500000019999999
  7
dcStyle0
 72
     5
 11
-12.03333737
 21
-78.64999926
 31
0.0
100
AcDbText
  0
TEXT
  5
1AF
330
1F
100
AcDbEntity
  8
Layer0032
 62
     2
100
AcDbText
 10
0.60033709
 20
-78.31663019
 30
0.0
 40
2.0
  1
剥離防止
 41
0.62500000234375
  7
dcStyle0
 72
     5
 11
6.60033715
 21
-78.31663019
 31
0.0
100
AcDbText
  0
TEXT
  5
1B0
330
1F
100
AcDbEntity
  8
Layer0032
 62
     2
100
AcDbText
 10
0.4336672400000001
 20
-80.81663023
 30
0.0
 40
2.0
  1
スプリング
 41
0.5416666697222222
  7
dcStyle0
 72
     5
 11
6.93366732
 21
-80.81663023
 31
0.0
100
AcDbText
  0
TEXT
  5
1B1
330
1F
100
AcDbEntity
  8
Layer0032
 62
     2
100
AcDbText
 10
-7.76665732
 20
-77.64999925
 30
0.0
 40
2.0
  1
20
 41
0.75000000125
  7
dcStyle0
 72
     5
 11
-4.7666573
 21
-77.64999925
 31
0.0
100
AcDbText
  0
TEXT
  5
1B2
330
1F
100
AcDbEntity
  8
Layer0032
 62
     2
100
AcDbText
 10
-14.39999749759617
 20
-91.1499994367949
 30
0.0
 40
2.0
  1
6.5
 50
90.0000001836389
 41
0.7500000016666672
  7
dcStyle0
 72
     5
 11
-14.39999751201914
 21
-86.6499993967949
 31
0.0
100
AcDbText
  0
TEXT
  5
1B3
330
1F
100
AcDbEntity
  8
Layer0032
 62
     2
100
AcDbText
 10
2.066672972403828
 20
-98.4833701367949
 30
0.0
 40
2.0
  1
 44 
 50
90.0000001836389
 41
0.7500000018750006
  7
dcStyle0
 72
     5
 11
2.066672953173207
 21
-92.4833700767949
 31
0.0
100
AcDbText
  0
TEXT
  5
1B4
330
1F
100
AcDbEntity
  8
Layer0032
 62
     2
100
AcDbText
 10
-5.59999736
 20
-106.61670042
 30
0.0
 40
2.0
  1
 4.5 
 41
0.750000002
  7
dcStyle0
 72
     5
 11
1.900002720000001
 21
-106.61670042
 31
0.0
100
AcDbText
  0
LINE
  5
1B5
330
1F
100
AcDbEntity
  8
Layer0016
  6
Continuous
 62
     3
370
    25
100
AcDbLine
 10
-182.0
 20
-128.25
 30
0.0
 11
-178.9999999552965
 21
-128.25
 31
0.0
  0
LINE
  5
1B6
330
1F
100
AcDbEntity
  8
Layer0016
  6
Continuous
 62
     3
370
    25
100
AcDbLine
 10
-178.9999999552965
 20
-128.25
 30
0.0
 11
-178.9999999552965
 21
-125.2499999552965
 31
0.0
  0
LINE
  5
1B7
330
1F
100
AcDbEntity
  8
Layer0016
  6
Continuous
 62
     3
370
    25
100
AcDbLine
 10
-182.0
 20
-125.2499999552965
 30
0.0
 11
-178.9999999552965
 21
-125.2499999552965
 31
0.0
  0
LINE
  5
1B8
330
1F
100
AcDbEntity
  8
Layer0016
  6
Continuous
 62
     3
370
    25
100
AcDbLine
 10
-182.0
 20
-128.25
 30
0.0
 11
-182.0
 21
-125.2499999552965
 31
0.0
  0
LINE
  5
1B9
330
1F
100
AcDbEntity
  8
Layer0016
  6
Continuous
 62
     3
370
    25
100
AcDbLine
 10
-182.0
 20
-128.25
 30
0.0
 11
-178.9999999552965
 21
-128.25
 31
0.0
  0
LINE
  5
1BA
330
1F
100
AcDbEntity
  8
Layer0016
  6
Continuous
 62
     3
370
    25
100
AcDbLine
 10
-178.9999999552965
 20
-128.25
 30
0.0
 11
-178.9999999552965
 21
-125.2499999552965
 31
0.0
  0
LINE
  5
1BB
330
1F
100
AcDbEntity
  8
Layer0016
  6
Continuous
 62
     3
370
    25
100
AcDbLine
 10
-182.0
 20
-125.2499999552965
 30
0.0
 11
-178.9999999552965
 21
-125.2499999552965
 31
0.0
  0
LINE
  5
1BC
330
1F
100
AcDbEntity
  8
Layer0016
  6
Continuous
 62
     3
370
    25
100
AcDbLine
 10
-182.0
 20
-128.25
 30
0.0
 11
-182.0
 21
-125.2499999552965
 31
0.0
  0
LINE
  5
1BD
330
1F
100
AcDbEntity
  8
Layer0016
  6
Continuous
 62
     3
370
    25
100
AcDbLine
 10
-182.0
 20
-128.25
 30
0.0
 11
-178.9999999552965
 21
-128.25
 31
0.0
  0
LINE
  5
1BE
330
1F
100
AcDbEntity
  8
Layer0016
  6
Continuous
 62
     3
370
    25
100
AcDbLine
 10
-178.9999999552965
 20
-128.25
 30
0.0
 11
-178.9999999552965
 21
-125.2499999552965
 31
0.0
  0
LINE
  5
1BF
330
1F
100
AcDbEntity
  8
Layer0016
  6
Continuous
 62
     3
370
    25
100
AcDbLine
 10
-182.0
 20
-125.2499999552965
 30
0.0
 11
-178.9999999552965
 21
-125.2499999552965
 31
0.0
  0
LINE
  5
1C0
330
1F
100
AcDbEntity
  8
Layer0016
  6
Continuous
 62
     3
370
    25
100
AcDbLine
 10
-182.0
 20
-128.25
 30
0.0
 11
-182.0
 21
-125.2499999552965
 31
0.0
  0
LINE
  5
1C1
330
1F
100
AcDbEntity
  8
Layer0016
  6
Continuous
 62
     3
370
    25
100
AcDbLine
 10
-182.0
 20
-128.25
 30
0.0
 11
-178.9999999552965
 21
-128.25
 31
0.0
  0
LINE
  5
1C2
330
1F
100
AcDbEntity
  8
Layer0016
  6
Continuous
 62
     3
370
    25
100
AcDbLine
 10
-178.9999999552965
 20
-128.25
 30
0.0
 11
-178.9999999552965
 21
-125.2499999552965
 31
0.0
  0
LINE
  5
1C3
330
1F
100
AcDbEntity
  8
Layer0016
  6
Continuous
 62
     3
370
    25
100
AcDbLine
 10
-182.0
 20
-125.2499999552965
 30
0.0
 11
-178.9999999552965
 21
-125.2499999552965
 31
0.0
  0
LINE
  5
1C4
330
1F
100
AcDbEntity
  8
Layer0016
  6
Continuous
 62
     3
370
    25
100
AcDbLine
 10
-182.0
 20
-128.25
 30
0.0
 11
-182.0
 21
-125.2499999552965
 31
0.0
  0
LINE
  5
1C5
330
1F
100
AcDbEntity
  8
Layer0016
  6
Continuous
 62
     3
370
    25
100
AcDbLine
 10
-182.0
 20
-128.25
 30
0.0
 11
-178.9999999552965
 21
-128.25
 31
0.0
  0
LINE
  5
1C6
330
1F
100
AcDbEntity
  8
Layer0016
  6
Continuous
 62
     3
370
    25
100
AcDbLine
 10
-178.9999999552965
 20
-128.25
 30
0.0
 11
-178.9999999552965
 21
-125.2499999552965
 31
0.0
  0
LINE
  5
1C7
330
1F
100
AcDbEntity
  8
Layer0016
  6
Continuous
 62
     3
370
    25
100
AcDbLine
 10
-182.0
 20
-125.2499999552965
 30
0.0
 11
-178.9999999552965
 21
-125.2499999552965
 31
0.0
  0
LINE
  5
1C8
330
1F
100
AcDbEntity
  8
Layer0016
  6
Continuous
 62
     3
370
    25
100
AcDbLine
 10
-182.0
 20
-128.25
 30
0.0
 11
-182.0
 21
-125.2499999552965
 31
0.0
  0
LINE
  5
1C9
330
1F
100
AcDbEntity
  8
Layer0016
  6
Continuous
 62
     3
370
    25
100
AcDbLine
 10
-140.9999993890524
 20
65.85000289231539
 30
0.0
 11
-42.19999791681767
 21
65.85000289231539
 31
0.0
  0
LINE
  5
1CA
330
1F
100
AcDbEntity
  8
Layer0016
  6
Continuous
 62
     3
370
    25
100
AcDbLine
 10
-42.19999791681767
 20
64.650002874434
 30
0.0
 11
-42.19999791681767
 21
65.85000289231539
 31
0.0
  0
LINE
  5
1CB
330
1F
100
AcDbEntity
  8
Layer0016
  6
Continuous
 62
     3
370
    25
100
AcDbLine
 10
-140.9999993890524
 20
64.650002874434
 30
0.0
 11
-42.19999791681767
 21
64.650002874434
 31
0.0
  0
LINE
  5
1CC
330
1F
100
AcDbEntity
  8
Layer0016
  6
Continuous
 62
     3
370
    25
100
AcDbLine
 10
-140.9999993890524
 20
64.650002874434
 30
0.0
 11
-140.9999993890524
 21
65.85000289231539
 31
0.0
  0
LINE
  5
1CD
330
1F
100
AcDbEntity
  8
Layer0016
  6
Continuous
 62
     3
370
    25
100
AcDbLine
 10
-140.9999993890524
 20
-32.94999857991934
 30
0.0
 11
-42.19999791681767
 21
-32.94999857991934
 31
0.0
  0
LINE
  5
1CE
330
1F
100
AcDbEntity
  8
Layer0016
  6
Continuous
 62
     3
370
    25
100
AcDbLine
 10
-42.19999791681767
 20
-34.14999859780073
 30
0.0
 11
-42.19999791681767
 21
-32.94999857991934
 31
0.0
  0
LINE
  5
1CF
330
1F
100
AcDbEntity
  8
Layer0016
  6
Continuous
 62
     3
370
    25
100
AcDbLine
 10
-140.9999993890524
 20
-34.14999859780073
 30
0.0
 11
-42.19999791681767
 21
-34.14999859780073
 31
0.0
  0
LINE
  5
1D0
330
1F
100
AcDbEntity
  8
Layer0016
  6
Continuous
 62
     3
370
    25
100
AcDbLine
 10
-140.9999993890524
 20
-34.14999859780073
 30
0.0
 11
-140.9999993890524
 21
-32.94999857991934
 31
0.0
  0
LINE
  5
1D1
330
1F
100
AcDbEntity
  8
Layer0016
  6
Continuous
 62
     3
370
    25
100
AcDbLine
 10
-136.9999993294477
 20
46.55000260472298
 30
0.0
 11
-135.4199992868305
 21
46.55000260472298
 31
0.0
  0
LINE
  5
1D2
330
1F
100
AcDbEntity
  8
Layer0016
  6
Continuous
 62
     3
370
    25
100
AcDbLine
 10
-131.4200004670024
 20
46.55000260472298
 30
0.0
 11
-129.8400004243851
 21
46.55000260472298
 31
0.0
  0
LINE
  5
1D3
330
1F
100
AcDbEntity
  8
Layer0016
  6
Continuous
 62
     3
370
    25
100
AcDbLine
 10
-125.840001604557
 20
46.55000260472298
 30
0.0
 11
-124.2600015619397
 21
46.55000260472298
 31
0.0
  0
LINE
  5
1D4
330
1F
100
AcDbEntity
  8
Layer0016
  6
Continuous
 62
     3
370
    25
100
AcDbLine
 10
-120.259996638596
 20
46.55000260472298
 30
0.0
 11
-118.6799965959787
 21
46.55000260472298
 31
0.0
  0
LINE
  5
1D5
330
1F
100
AcDbEntity
  8
Layer0016
  6
Continuous
 62
     3
370
    25
100
AcDbLine
 10
-114.6799977761507
 20
46.55000260472298
 30
0.0
 11
-113.0999977335333
 21
46.55000260472298
 31
0.0
  0
LINE
  5
1D6
330
1F
100
AcDbEntity
  8
Layer0016
  6
Continuous
 62
     3
370
    25
100
AcDbLine
 10
-109.0999989137053
 20
46.55000260472298
 30
0.0
 11
-107.519998871088
 21
46.55000260472298
 31
0.0
  0
LINE
  5
1D7
330
1F
100
AcDbEntity
  8
Layer0016
  6
Continuous
 62
     3
370
    25
100
AcDbLine
 10
-103.52000005126
 20
46.55000260472298
 30
0.0
 11
-101.9400000086427
 21
46.55000260472298
 31
0.0
  0
LINE
  5
1D8
330
1F
100
AcDbEntity
  8
Layer0016
  6
Continuous
 62
     3
370
    25
100
AcDbLine
 10
-97.94000118881468
 20
46.55000260472298
 30
0.0
 11
-96.36000114619736
 21
46.55000260472298
 31
0.0
  0
LINE
  5
1D9
330
1F
100
AcDbEntity
  8
Layer0016
  6
Continuous
 62
     3
370
    25
100
AcDbLine
 10
-92.35999622285362
 20
46.55000260472298
 30
0.0
 11
-90.77999618023631
 21
46.55000260472298
 31
0.0
  0
LINE
  5
1DA
330
1F
100
AcDbEntity
  8
Layer0016
  6
Continuous
 62
     3
370
    25
100
AcDbLine
 10
-86.77999736040829
 20
46.55000260472298
 30
0.0
 11
-85.19999731779097
 21
46.55000260472298
 31
0.0
  0
LINE
  5
1DB
330
1F
100
AcDbEntity
  8
Layer0016
  6
Continuous
 62
     3
370
    25
100
AcDbLine
 10
-81.19999849796295
 20
46.55000260472298
 30
0.0
 11
-79.61999845534564
 21
46.55000260472298
 31
0.0
  0
LINE
  5
1DC
330
1F
100
AcDbEntity
  8
Layer0016
  6
Continuous
 62
     3
370
    25
100
AcDbLine
 10
-75.6199935320019
 20
46.55000260472298
 30
0.0
 11
-74.03999348938459
 21
46.55000260472298
 31
0.0
  0
LINE
  5
1DD
330
1F
100
AcDbEntity
  8
Layer0016
  6
Continuous
 62
     3
370
    25
100
AcDbLine
 10
-70.04000077307228
 20
46.55000260472298
 30
0.0
 11
-68.46000073045496
 21
46.55000260472298
 31
0.0
  0
LINE
  5
1DE
330
1F
100
AcDbEntity
  8
Layer0016
  6
Continuous
 62
     3
370
    25
100
AcDbLine
 10
-64.45999580711123
 20
46.55000260472298
 30
0.0
 11
-62.87999576449391
 21
46.55000260472298
 31
0.0
  0
LINE
  5
1DF
330
1F
100
AcDbEntity
  8
Layer0016
  6
Continuous
 62
     3
370
    25
100
AcDbLine
 10
-58.88000304818161
 20
46.55000260472298
 30
0.0
 11
-57.30000300556429
 21
46.55000260472298
 31
0.0
  0
LINE
  5
1E0
330
1F
100
AcDbEntity
  8
Layer0016
  6
Continuous
 62
     3
370
    25
100
AcDbLine
 10
-53.29999808222055
 20
46.55000260472298
 30
0.0
 11
-51.71999803960323
 21
46.55000260472298
 31
0.0
  0
LINE
  5
1E1
330
1F
100
AcDbEntity
  8
Layer0016
  6
Continuous
 62
     3
370
    25
100
AcDbLine
 10
-47.7199931162595
 20
46.55000260472298
 30
0.0
 11
-46.19999110996713
 21
46.55000260472298
 31
0.0
  0
LINE
  5
1E2
330
1F
100
AcDbEntity
  8
Layer0016
  6
Continuous
 62
     3
370
    25
100
AcDbLine
 10
-136.9999993294477
 20
45.15000258386135
 30
0.0
 11
-135.4199992868305
 21
45.15000258386135
 31
0.0
  0
LINE
  5
1E3
330
1F
100
AcDbEntity
  8
Layer0016
  6
Continuous
 62
     3
370
    25
100
AcDbLine
 10
-131.4200004670024
 20
45.15000258386135
 30
0.0
 11
-129.8400004243851
 21
45.15000258386135
 31
0.0
  0
LINE
  5
1E4
330
1F
100
AcDbEntity
  8
Layer0016
  6
Continuous
 62
     3
370
    25
100
AcDbLine
 10
-125.840001604557
 20
45.15000258386135
 30
0.0
 11
-124.2600015619397
 21
45.15000258386135
 31
0.0
  0
LINE
  5
1E5
330
1F
100
AcDbEntity
  8
Layer0016
  6
Continuous
 62
     3
370
    25
100
AcDbLine
 10
-120.259996638596
 20
45.15000258386135
 30
0.0
 11
-118.6799965959787
 21
45.15000258386135
 31
0.0
  0
LINE
  5
1E6
330
1F
100
AcDbEntity
  8
Layer0016
  6
Continuous
 62
     3
370
    25
100
AcDbLine
 10
-114.6799977761507
 20
45.15000258386135
 30
0.0
 11
-113.0999977335333
 21
45.15000258386135
 31
0.0
  0
LINE
  5
1E7
330
1F
100
AcDbEntity
  8
Layer0016
  6
Continuous
 62
     3
370
    25
100
AcDbLine
 10
-109.0999989137053
 20
45.15000258386135
 30
0.0
 11
-107.519998871088
 21
45.15000258386135
 31
0.0
  0
LINE
  5
1E8
330
1F
100
AcDbEntity
  8
Layer0016
  6
Continuous
 62
     3
370
    25
100
AcDbLine
 10
-103.52000005126
 20
45.15000258386135
 30
0.0
 11
-101.9400000086427
 21
45.15000258386135
 31
0.0
  0
LINE
  5
1E9
330
1F
100
AcDbEntity
  8
Layer0016
  6
Continuous
 62
     3
370
    25
100
AcDbLine
 10
-97.94000118881468
 20
45.15000258386135
 30
0.0
 11
-96.36000114619736
 21
45.15000258386135
 31
0.0
  0
LINE
  5
1EA
330
1F
100
AcDbEntity
  8
Layer0016
  6
Continuous
 62
     3
370
    25
100
AcDbLine
 10
-92.35999622285362
 20
45.15000258386135
 30
0.0
 11
-90.77999618023631
 21
45.15000258386135
 31
0.0
  0
LINE
  5
1EB
330
1F
100
AcDbEntity
  8
Layer0016
  6
Continuous
 62
     3
370
    25
100
AcDbLine
 10
-86.77999736040829
 20
45.15000258386135
 30
0.0
 11
-85.19999731779097
 21
45.15000258386135
 31
0.0
  0
LINE
  5
1EC
330
1F
100
AcDbEntity
  8
Layer0016
  6
Continuous
 62
     3
370
    25
100
AcDbLine
 10
-81.19999849796295
 20
45.15000258386135
 30
0.0
 11
-79.61999845534564
 21
45.15000258386135
 31
0.0
  0
LINE
  5
1ED
330
1F
100
AcDbEntity
  8
Layer0016
  6
Continuous
 62
     3
370
    25
100
AcDbLine
 10
-75.6199935320019
 20
45.15000258386135
 30
0.0
 11
-74.03999348938459
 21
45.15000258386135
 31
0.0
  0
LINE
  5
1EE
330
1F
100
AcDbEntity
  8
Layer0016
  6
Continuous
 62
     3
370
    25
100
AcDbLine
 10
-70.04000077307228
 20
45.15000258386135
 30
0.0
 11
-68.46000073045496
 21
45.15000258386135
 31
0.0
  0
LINE
  5
1EF
330
1F
100
AcDbEntity
  8
Layer0016
  6
Continuous
 62
     3
370
    25
100
AcDbLine
 10
-64.45999580711123
 20
45.15000258386135
 30
0.0
 11
-62.87999576449391
 21
45.15000258386135
 31
0.0
  0
LINE
  5
1F0
330
1F
100
AcDbEntity
  8
Layer0016
  6
Continuous
 62
     3
370
    25
100
AcDbLine
 10
-58.88000304818161
 20
45.15000258386135
 30
0.0
 11
-57.30000300556429
 21
45.15000258386135
 31
0.0
  0
LINE
  5
1F1
330
1F
100
AcDbEntity
  8
Layer0016
  6
Continuous
 62
     3
370
    25
100
AcDbLine
 10
-53.29999808222055
 20
45.15000258386135
 30
0.0
 11
-51.71999803960323
 21
45.15000258386135
 31
0.0
  0
LINE
  5
1F2
330
1F
100
AcDbEntity
  8
Layer0016
  6
Continuous
 62
     3
370
    25
100
AcDbLine
 10
-47.7199931162595
 20
45.15000258386135
 30
0.0
 11
-46.19999110996713
 21
45.15000258386135
 31
0.0
  0
LINE
  5
1F3
330
1F
100
AcDbEntity
  8
Layer0016
  6
Continuous
 62
     3
370
    25
100
AcDbLine
 10
-136.9999993294477
 20
26.55000230669975
 30
0.0
 11
-135.4199992868305
 21
26.55000230669975
 31
0.0
  0
LINE
  5
1F4
330
1F
100
AcDbEntity
  8
Layer0016
  6
Continuous
 62
     3
370
    25
100
AcDbLine
 10
-131.4200004670024
 20
26.55000230669975
 30
0.0
 11
-129.8400004243851
 21
26.55000230669975
 31
0.0
  0
LINE
  5
1F5
330
1F
100
AcDbEntity
  8
Layer0016
  6
Continuous
 62
     3
370
    25
100
AcDbLine
 10
-125.840001604557
 20
26.55000230669975
 30
0.0
 11
-124.2600015619397
 21
26.55000230669975
 31
0.0
  0
LINE
  5
1F6
330
1F
100
AcDbEntity
  8
Layer0016
  6
Continuous
 62
     3
370
    25
100
AcDbLine
 10
-120.259996638596
 20
26.55000230669975
 30
0.0
 11
-118.6799965959787
 21
26.55000230669975
 31
0.0
  0
LINE
  5
1F7
330
1F
100
AcDbEntity
  8
Layer0016
  6
Continuous
 62
     3
370
    25
100
AcDbLine
 10
-114.6799977761507
 20
26.55000230669975
 30
0.0
 11
-113.0999977335333
 21
26.55000230669975
 31
0.0
  0
LINE
  5
1F8
330
1F
100
AcDbEntity
  8
Layer0016
  6
Continuous
 62
     3
370
    25
100
AcDbLine
 10
-109.0999989137053
 20
26.55000230669975
 30
0.0
 11
-107.519998871088
 21
26.55000230669975
 31
0.0
  0
LINE
  5
1F9
330
1F
100
AcDbEntity
  8
Layer0016
  6
Continuous
 62
     3
370
    25
100
AcDbLine
 10
-103.52000005126
 20
26.55000230669975
 30
0.0
 11
-101.9400000086427
 21
26.55000230669975
 31
0.0
  0
LINE
  5
1FA
330
1F
100
AcDbEntity
  8
Layer0016
  6
Continuous
 62
     3
370
    25
100
AcDbLine
 10
-97.94000118881468
 20
26.55000230669975
 30
0.0
 11
-96.36000114619736
 21
26.55000230669975
 31
0.0
  0
LINE
  5
1FB
330
1F
100
AcDbEntity
  8
Layer0016
  6
Continuous
 62
     3
370
    25
100
AcDbLine
 10
-92.35999622285362
 20
26.55000230669975
 30
0.0
 11
-90.77999618023631
 21
26.55000230669975
 31
0.0
  0
LINE
  5
1FC
330
1F
100
AcDbEntity
  8
Layer0016
  6
Continuous
 62
     3
370
    25
100
AcDbLine
 10
-86.77999736040829
 20
26.55000230669975
 30
0.0
 11
-85.19999731779097
 21
26.55000230669975
 31
0.0
  0
LINE
  5
1FD
330
1F
100
AcDbEntity
  8
Layer0016
  6
Continuous
 62
     3
370
    25
100
AcDbLine
 10
-81.19999849796295
 20
26.55000230669975
 30
0.0
 11
-79.61999845534564
 21
26.55000230669975
 31
0.0
  0
LINE
  5
1FE
330
1F
100
AcDbEntity
  8
Layer0016
  6
Continuous
 62
     3
370
    25
100
AcDbLine
 10
-75.6199935320019
 20
26.55000230669975
 30
0.0
 11
-74.03999348938459
 21
26.55000230669975
 31
0.0
  0
LINE
  5
1FF
330
1F
100
AcDbEntity
  8
Layer0016
  6
Continuous
 62
     3
370
    25
100
AcDbLine
 10
-70.04000077307228
 20
26.55000230669975
 30
0.0
 11
-68.46000073045496
 21
26.55000230669975
 31
0.0
  0
LINE
  5
200
330
1F
100
AcDbEntity
  8
Layer0016
  6
Continuous
 62
     3
370
    25
100
AcDbLine
 10
-64.45999580711123
 20
26.55000230669975
 30
0.0
 11
-62.87999576449391
 21
26.55000230669975
 31
0.0
  0
LINE
  5
201
330
1F
100
AcDbEntity
  8
Layer0016
  6
Continuous
 62
     3
370
    25
100
AcDbLine
 10
-58.88000304818161
 20
26.55000230669975
 30
0.0
 11
-57.30000300556429
 21
26.55000230669975
 31
0.0
  0
LINE
  5
202
330
1F
100
AcDbEntity
  8
Layer0016
  6
Continuous
 62
     3
370
    25
100
AcDbLine
 10
-53.29999808222055
 20
26.55000230669975
 30
0.0
 11
-51.71999803960323
 21
26.55000230669975
 31
0.0
  0
LINE
  5
203
330
1F
100
AcDbEntity
  8
Layer0016
  6
Continuous
 62
     3
370
    25
100
AcDbLine
 10
-47.7199931162595
 20
26.55000230669975
 30
0.0
 11
-46.19999110996713
 21
26.55000230669975
 31
0.0
  0
LINE
  5
204
330
1F
100
AcDbEntity
  8
Layer0016
  6
Continuous
 62
     3
370
    25
100
AcDbLine
 10
-136.9999993294477
 20
25.15000228583813
 30
0.0
 11
-135.4199992868305
 21
25.15000228583813
 31
0.0
  0
LINE
  5
205
330
1F
100
AcDbEntity
  8
Layer0016
  6
Continuous
 62
     3
370
    25
100
AcDbLine
 10
-131.4200004670024
 20
25.15000228583813
 30
0.0
 11
-129.8400004243851
 21
25.15000228583813
 31
0.0
  0
LINE
  5
206
330
1F
100
AcDbEntity
  8
Layer0016
  6
Continuous
 62
     3
370
    25
100
AcDbLine
 10
-125.840001604557
 20
25.15000228583813
 30
0.0
 11
-124.2600015619397
 21
25.15000228583813
 31
0.0
  0
LINE
  5
207
330
1F
100
AcDbEntity
  8
Layer0016
  6
Continuous
 62
     3
370
    25
100
AcDbLine
 10
-120.259996638596
 20
25.15000228583813
 30
0.0
 11
-118.6799965959787
 21
25.15000228583813
 31
0.0
  0
LINE
  5
208
330
1F
100
AcDbEntity
  8
Layer0016
  6
Continuous
 62
     3
370
    25
100
AcDbLine
 10
-114.6799977761507
 20
25.15000228583813
 30
0.0
 11
-113.0999977335333
 21
25.15000228583813
 31
0.0
  0
LINE
  5
209
330
1F
100
AcDbEntity
  8
Layer0016
  6
Continuous
 62
     3
370
    25
100
AcDbLine
 10
-109.0999989137053
 20
25.15000228583813
 30
0.0
 11
-107.519998871088
 21
25.15000228583813
 31
0.0
  0
LINE
  5
20A
330
1F
100
AcDbEntity
  8
Layer0016
  6
Continuous
 62
     3
370
    25
100
AcDbLine
 10
-103.52000005126
 20
25.15000228583813
 30
0.0
 11
-101.9400000086427
 21
25.15000228583813
 31
0.0
  0
LINE
  5
20B
330
1F
100
AcDbEntity
  8
Layer0016
  6
Continuous
 62
     3
370
    25
100
AcDbLine
 10
-97.94000118881468
 20
25.15000228583813
 30
0.0
 11
-96.36000114619736
 21
25.15000228583813
 31
0.0
  0
LINE
  5
20C
330
1F
100
AcDbEntity
  8
Layer0016
  6
Continuous
 62
     3
370
    25
100
AcDbLine
 10
-92.35999622285362
 20
25.15000228583813
 30
0.0
 11
-90.77999618023631
 21
25.15000228583813
 31
0.0
  0
LINE
  5
20D
330
1F
100
AcDbEntity
  8
Layer0016
  6
Continuous
 62
     3
370
    25
100
AcDbLine
 10
-86.77999736040829
 20
25.15000228583813
 30
0.0
 11
-85.19999731779097
 21
25.15000228583813
 31
0.0
  0
LINE
  5
20E
330
1F
100
AcDbEntity
  8
Layer0016
  6
Continuous
 62
     3
370
    25
100
AcDbLine
 10
-81.19999849796295
 20
25.15000228583813
 30
0.0
 11
-79.61999845534564
 21
25.15000228583813
 31
0.0
  0
LINE
  5
20F
330
1F
100
AcDbEntity
  8
Layer0016
  6
Continuous
 62
     3
370
    25
100
AcDbLine
 10
-75.6199935320019
 20
25.15000228583813
 30
0.0
 11
-74.03999348938459
 21
25.15000228583813
 31
0.0
  0
LINE
  5
210
330
1F
100
AcDbEntity
  8
Layer0016
  6
Continuous
 62
     3
370
    25
100
AcDbLine
 10
-70.04000077307228
 20
25.15000228583813
 30
0.0
 11
-68.46000073045496
 21
25.15000228583813
 31
0.0
  0
LINE
  5
211
330
1F
100
AcDbEntity
  8
Layer0016
  6
Continuous
 62
     3
370
    25
100
AcDbLine
 10
-64.45999580711123
 20
25.15000228583813
 30
0.0
 11
-62.87999576449391
 21
25.15000228583813
 31
0.0
  0
LINE
  5
212
330
1F
100
AcDbEntity
  8
Layer0016
  6
Continuous
 62
     3
370
    25
100
AcDbLine
 10
-58.88000304818161
 20
25.15000228583813
 30
0.0
 11
-57.30000300556429
 21
25.15000228583813
 31
0.0
  0
LINE
  5
213
330
1F
100
AcDbEntity
  8
Layer0016
  6
Continuous
 62
     3
370
    25
100
AcDbLine
 10
-53.29999808222055
 20
25.15000228583813
 30
0.0
 11
-51.71999803960323
 21
25.15000228583813
 31
0.0
  0
LINE
  5
214
330
1F
100
AcDbEntity
  8
Layer0016
  6
Continuous
 62
     3
370
    25
100
AcDbLine
 10
-47.7199931162595
 20
25.15000228583813
 30
0.0
 11
-46.19999110996713
 21
25.15000228583813
 31
0.0
  0
LINE
  5
215
330
1F
100
AcDbEntity
  8
Layer0016
  6
Continuous
 62
     3
370
    25
100
AcDbLine
 10
-136.9999993294477
 20
6.550002008676529
 30
0.0
 11
-135.4199992868305
 21
6.550002008676529
 31
0.0
  0
LINE
  5
216
330
1F
100
AcDbEntity
  8
Layer0016
  6
Continuous
 62
     3
370
    25
100
AcDbLine
 10
-131.4200004670024
 20
6.550002008676529
 30
0.0
 11
-129.8400004243851
 21
6.550002008676529
 31
0.0
  0
LINE
  5
217
330
1F
100
AcDbEntity
  8
Layer0016
  6
Continuous
 62
     3
370
    25
100
AcDbLine
 10
-125.840001604557
 20
6.550002008676529
 30
0.0
 11
-124.2600015619397
 21
6.550002008676529
 31
0.0
  0
LINE
  5
218
330
1F
100
AcDbEntity
  8
Layer0016
  6
Continuous
 62
     3
370
    25
100
AcDbLine
 10
-120.259996638596
 20
6.550002008676529
 30
0.0
 11
-118.6799965959787
 21
6.550002008676529
 31
0.0
  0
LINE
  5
219
330
1F
100
AcDbEntity
  8
Layer0016
  6
Continuous
 62
     3
370
    25
100
AcDbLine
 10
-114.6799977761507
 20
6.550002008676529
 30
0.0
 11
-113.0999977335333
 21
6.550002008676529
 31
0.0
  0
LINE
  5
21A
330
1F
100
AcDbEntity
  8
Layer0016
  6
Continuous
 62
     3
370
    25
100
AcDbLine
 10
-109.0999989137053
 20
6.550002008676529
 30
0.0
 11
-107.519998871088
 21
6.550002008676529
 31
0.0
  0
LINE
  5
21B
330
1F
100
AcDbEntity
  8
Layer0016
  6
Continuous
 62
     3
370
    25
100
AcDbLine
 10
-103.52000005126
 20
6.550002008676529
 30
0.0
 11
-101.9400000086427
 21
6.550002008676529
 31
0.0
  0
LINE
  5
21C
330
1F
100
AcDbEntity
  8
Layer0016
  6
Continuous
 62
     3
370
    25
100
AcDbLine
 10
-97.94000118881468
 20
6.550002008676529
 30
0.0
 11
-96.36000114619736
 21
6.550002008676529
 31
0.0
  0
LINE
  5
21D
330
1F
100
AcDbEntity
  8
Layer0016
  6
Continuous
 62
     3
370
    25
100
AcDbLine
 10
-92.35999622285362
 20
6.550002008676529
 30
0.0
 11
-90.77999618023631
 21
6.550002008676529
 31
0.0
  0
LINE
  5
21E
330
1F
100
AcDbEntity
  8
Layer0016
  6
Continuous
 62
     3
370
    25
100
AcDbLine
 10
-86.77999736040829
 20
6.550002008676529
 30
0.0
 11
-85.19999731779097
 21
6.550002008676529
 31
0.0
  0
LINE
  5
21F
330
1F
100
AcDbEntity
  8
Layer0016
  6
Continuous
 62
     3
370
    25
100
AcDbLine
 10
-81.19999849796295
 20
6.550002008676529
 30
0.0
 11
-79.61999845534564
 21
6.550002008676529
 31
0.0
  0
LINE
  5
220
330
1F
100
AcDbEntity
  8
Layer0016
  6
Continuous
 62
     3
370
    25
100
AcDbLine
 10
-75.6199935320019
 20
6.550002008676529
 30
0.0
 11
-74.03999348938459
 21
6.550002008676529
 31
0.0
  0
LINE
  5
221
330
1F
100
AcDbEntity
  8
Layer0016
  6
Continuous
 62
     3
370
    25
100
AcDbLine
 10
-70.04000077307228
 20
6.550002008676529
 30
0.0
 11
-68.46000073045496
 21
6.550002008676529
 31
0.0
  0
LINE
  5
222
330
1F
100
AcDbEntity
  8
Layer0016
  6
Continuous
 62
     3
370
    25
100
AcDbLine
 10
-64.45999580711123
 20
6.550002008676529
 30
0.0
 11
-62.87999576449391
 21
6.550002008676529
 31
0.0
  0
LINE
  5
223
330
1F
100
AcDbEntity
  8
Layer0016
  6
Continuous
 62
     3
370
    25
100
AcDbLine
 10
-58.88000304818161
 20
6.550002008676529
 30
0.0
 11
-57.30000300556429
 21
6.550002008676529
 31
0.0
  0
LINE
  5
224
330
1F
100
AcDbEntity
  8
Layer0016
  6
Continuous
 62
     3
370
    25
100
AcDbLine
 10
-53.29999808222055
 20
6.550002008676529
 30
0.0
 11
-51.71999803960323
 21
6.550002008676529
 31
0.0
  0
LINE
  5
225
330
1F
100
AcDbEntity
  8
Layer0016
  6
Continuous
 62
     3
370
    25
100
AcDbLine
 10
-47.7199931162595
 20
6.550002008676529
 30
0.0
 11
-46.19999110996713
 21
6.550002008676529
 31
0.0
  0
LINE
  5
226
330
1F
100
AcDbEntity
  8
Layer0016
  6
Continuous
 62
     3
370
    25
100
AcDbLine
 10
-136.9999993294477
 20
5.150001987814903
 30
0.0
 11
-135.4199992868305
 21
5.150001987814903
 31
0.0
  0
LINE
  5
227
330
1F
100
AcDbEntity
  8
Layer0016
  6
Continuous
 62
     3
370
    25
100
AcDbLine
 10
-131.4200004670024
 20
5.150001987814903
 30
0.0
 11
-129.8400004243851
 21
5.150001987814903
 31
0.0
  0
LINE
  5
228
330
1F
100
AcDbEntity
  8
Layer0016
  6
Continuous
 62
     3
370
    25
100
AcDbLine
 10
-125.840001604557
 20
5.150001987814903
 30
0.0
 11
-124.2600015619397
 21
5.150001987814903
 31
0.0
  0
LINE
  5
229
330
1F
100
AcDbEntity
  8
Layer0016
  6
Continuous
 62
     3
370
    25
100
AcDbLine
 10
-120.259996638596
 20
5.150001987814903
 30
0.0
 11
-118.6799965959787
 21
5.150001987814903
 31
0.0
  0
LINE
  5
22A
330
1F
100
AcDbEntity
  8
Layer0016
  6
Continuous
 62
     3
370
    25
100
AcDbLine
 10
-114.6799977761507
 20
5.150001987814903
 30
0.0
 11
-113.0999977335333
 21
5.150001987814903
 31
0.0
  0
LINE
  5
22B
330
1F
100
AcDbEntity
  8
Layer0016
  6
Continuous
 62
     3
370
    25
100
AcDbLine
 10
-109.0999989137053
 20
5.150001987814903
 30
0.0
 11
-107.519998871088
 21
5.150001987814903
 31
0.0
  0
LINE
  5
22C
330
1F
100
AcDbEntity
  8
Layer0016
  6
Continuous
 62
     3
370
    25
100
AcDbLine
 10
-103.52000005126
 20
5.150001987814903
 30
0.0
 11
-101.9400000086427
 21
5.150001987814903
 31
0.0
  0
LINE
  5
22D
330
1F
100
AcDbEntity
  8
Layer0016
  6
Continuous
 62
     3
370
    25
100
AcDbLine
 10
-97.94000118881468
 20
5.150001987814903
 30
0.0
 11
-96.36000114619736
 21
5.150001987814903
 31
0.0
  0
LINE
  5
22E
330
1F
100
AcDbEntity
  8
Layer0016
  6
Continuous
 62
     3
370
    25
100
AcDbLine
 10
-92.35999622285362
 20
5.150001987814903
 30
0.0
 11
-90.77999618023631
 21
5.150001987814903
 31
0.0
  0
LINE
  5
22F
330
1F
100
AcDbEntity
  8
Layer0016
  6
Continuous
 62
     3
370
    25
100
AcDbLine
 10
-86.77999736040829
 20
5.150001987814903
 30
0.0
 11
-85.19999731779097
 21
5.150001987814903
 31
0.0
  0
LINE
  5
230
330
1F
100
AcDbEntity
  8
Layer0016
  6
Continuous
 62
     3
370
    25
100
AcDbLine
 10
-81.19999849796295
 20
5.150001987814903
 30
0.0
 11
-79.61999845534564
 21
5.150001987814903
 31
0.0
  0
LINE
  5
231
330
1F
100
AcDbEntity
  8
Layer0016
  6
Continuous
 62
     3
370
    25
100
AcDbLine
 10
-75.6199935320019
 20
5.150001987814903
 30
0.0
 11
-74.03999348938459
 21
5.150001987814903
 31
0.0
  0
LINE
  5
232
330
1F
100
AcDbEntity
  8
Layer0016
  6
Continuous
 62
     3
370
    25
100
AcDbLine
 10
-70.04000077307228
 20
5.150001987814903
 30
0.0
 11
-68.46000073045496
 21
5.150001987814903
 31
0.0
  0
LINE
  5
233
330
1F
100
AcDbEntity
  8
Layer0016
  6
Continuous
 62
     3
370
    25
100
AcDbLine
 10
-64.45999580711123
 20
5.150001987814903
 30
0.0
 11
-62.87999576449391
 21
5.150001987814903
 31
0.0
  0
LINE
  5
234
330
1F
100
AcDbEntity
  8
Layer0016
  6
Continuous
 62
     3
370
    25
100
AcDbLine
 10
-58.88000304818161
 20
5.150001987814903
 30
0.0
 11
-57.30000300556429
 21
5.150001987814903
 31
0.0
  0
LINE
  5
235
330
1F
100
AcDbEntity
  8
Layer0016
  6
Continuous
 62
     3
370
    25
100
AcDbLine
 10
-53.29999808222055
 20
5.150001987814903
 30
0.0
 11
-51.71999803960323
 21
5.150001987814903
 31
0.0
  0
LINE
  5
236
330
1F
100
AcDbEntity
  8
Layer0016
  6
Continuous
 62
     3
370
    25
100
AcDbLine
 10
-47.7199931162595
 20
5.150001987814903
 30
0.0
 11
-46.19999110996713
 21
5.150001987814903
 31
0.0
  0
LINE
  5
237
330
1F
100
AcDbEntity
  8
Layer0016
  6
Continuous
 62
     3
370
    25
100
AcDbLine
 10
-136.9999993294477
 20
-13.44999828934669
 30
0.0
 11
-135.4199992868305
 21
-13.44999828934669
 31
0.0
  0
LINE
  5
238
330
1F
100
AcDbEntity
  8
Layer0016
  6
Continuous
 62
     3
370
    25
100
AcDbLine
 10
-131.4200004670024
 20
-13.44999828934669
 30
0.0
 11
-129.8400004243851
 21
-13.44999828934669
 31
0.0
  0
LINE
  5
239
330
1F
100
AcDbEntity
  8
Layer0016
  6
Continuous
 62
     3
370
    25
100
AcDbLine
 10
-125.840001604557
 20
-13.44999828934669
 30
0.0
 11
-124.2600015619397
 21
-13.44999828934669
 31
0.0
  0
LINE
  5
23A
330
1F
100
AcDbEntity
  8
Layer0016
  6
Continuous
 62
     3
370
    25
100
AcDbLine
 10
-120.259996638596
 20
-13.44999828934669
 30
0.0
 11
-118.6799965959787
 21
-13.44999828934669
 31
0.0
  0
LINE
  5
23B
330
1F
100
AcDbEntity
  8
Layer0016
  6
Continuous
 62
     3
370
    25
100
AcDbLine
 10
-114.6799977761507
 20
-13.44999828934669
 30
0.0
 11
-113.0999977335333
 21
-13.44999828934669
 31
0.0
  0
LINE
  5
23C
330
1F
100
AcDbEntity
  8
Layer0016
  6
Continuous
 62
     3
370
    25
100
AcDbLine
 10
-109.0999989137053
 20
-13.44999828934669
 30
0.0
 11
-107.519998871088
 21
-13.44999828934669
 31
0.0
  0
LINE
  5
23D
330
1F
100
AcDbEntity
  8
Layer0016
  6
Continuous
 62
     3
370
    25
100
AcDbLine
 10
-103.52000005126
 20
-13.44999828934669
 30
0.0
 11
-101.9400000086427
 21
-13.44999828934669
 31
0.0
  0
LINE
  5
23E
330
1F
100
AcDbEntity
  8
Layer0016
  6
Continuous
 62
     3
370
    25
100
AcDbLine
 10
-97.94000118881468
 20
-13.44999828934669
 30
0.0
 11
-96.36000114619736
 21
-13.44999828934669
 31
0.0
  0
LINE
  5
23F
330
1F
100
AcDbEntity
  8
Layer0016
  6
Continuous
 62
     3
370
    25
100
AcDbLine
 10
-92.35999622285362
 20
-13.44999828934669
 30
0.0
 11
-90.77999618023631
 21
-13.44999828934669
 31
0.0
  0
LINE
  5
240
330
1F
100
AcDbEntity
  8
Layer0016
  6
Continuous
 62
     3
370
    25
100
AcDbLine
 10
-86.77999736040829
 20
-13.44999828934669
 30
0.0
 11
-85.19999731779097
 21
-13.44999828934669
 31
0.0
  0
LINE
  5
241
330
1F
100
AcDbEntity
  8
Layer0016
  6
Continuous
 62
     3
370
    25
100
AcDbLine
 10
-81.19999849796295
 20
-13.44999828934669
 30
0.0
 11
-79.61999845534564
 21
-13.44999828934669
 31
0.0
  0
LINE
  5
242
330
1F
100
AcDbEntity
  8
Layer0016
  6
Continuous
 62
     3
370
    25
100
AcDbLine
 10
-75.6199935320019
 20
-13.44999828934669
 30
0.0
 11
-74.03999348938459
 21
-13.44999828934669
 31
0.0
  0
LINE
  5
243
330
1F
100
AcDbEntity
  8
Layer0016
  6
Continuous
 62
     3
370
    25
100
AcDbLine
 10
-70.04000077307228
 20
-13.44999828934669
 30
0.0
 11
-68.46000073045496
 21
-13.44999828934669
 31
0.0
  0
LINE
  5
244
330
1F
100
AcDbEntity
  8
Layer0016
  6
Continuous
 62
     3
370
    25
100
AcDbLine
 10
-64.45999580711123
 20
-13.44999828934669
 30
0.0
 11
-62.87999576449391
 21
-13.44999828934669
 31
0.0
  0
LINE
  5
245
330
1F
100
AcDbEntity
  8
Layer0016
  6
Continuous
 62
     3
370
    25
100
AcDbLine
 10
-58.88000304818161
 20
-13.44999828934669
 30
0.0
 11
-57.30000300556429
 21
-13.44999828934669
 31
0.0
  0
LINE
  5
246
330
1F
100
AcDbEntity
  8
Layer0016
  6
Continuous
 62
     3
370
    25
100
AcDbLine
 10
-53.29999808222055
 20
-13.44999828934669
 30
0.0
 11
-51.71999803960323
 21
-13.44999828934669
 31
0.0
  0
LINE
  5
247
330
1F
100
AcDbEntity
  8
Layer0016
  6
Continuous
 62
     3
370
    25
100
AcDbLine
 10
-47.7199931162595
 20
-13.44999828934669
 30
0.0
 11
-46.19999110996713
 21
-13.44999828934669
 31
0.0
  0
LINE
  5
248
330
1F
100
AcDbEntity
  8
Layer0016
  6
Continuous
 62
     3
370
    25
100
AcDbLine
 10
-136.9999993294477
 20
-14.84999831020832
 30
0.0
 11
-135.4199992868305
 21
-14.84999831020832
 31
0.0
  0
LINE
  5
249
330
1F
100
AcDbEntity
  8
Layer0016
  6
Continuous
 62
     3
370
    25
100
AcDbLine
 10
-131.4200004670024
 20
-14.84999831020832
 30
0.0
 11
-129.8400004243851
 21
-14.84999831020832
 31
0.0
  0
LINE
  5
24A
330
1F
100
AcDbEntity
  8
Layer0016
  6
Continuous
 62
     3
370
    25
100
AcDbLine
 10
-125.840001604557
 20
-14.84999831020832
 30
0.0
 11
-124.2600015619397
 21
-14.84999831020832
 31
0.0
  0
LINE
  5
24B
330
1F
100
AcDbEntity
  8
Layer0016
  6
Continuous
 62
     3
370
    25
100
AcDbLine
 10
-120.259996638596
 20
-14.84999831020832
 30
0.0
 11
-118.6799965959787
 21
-14.84999831020832
 31
0.0
  0
LINE
  5
24C
330
1F
100
AcDbEntity
  8
Layer0016
  6
Continuous
 62
     3
370
    25
100
AcDbLine
 10
-114.6799977761507
 20
-14.84999831020832
 30
0.0
 11
-113.0999977335333
 21
-14.84999831020832
 31
0.0
  0
LINE
  5
24D
330
1F
100
AcDbEntity
  8
Layer0016
  6
Continuous
 62
     3
370
    25
100
AcDbLine
 10
-109.0999989137053
 20
-14.84999831020832
 30
0.0
 11
-107.519998871088
 21
-14.84999831020832
 31
0.0
  0
LINE
  5
24E
330
1F
100
AcDbEntity
  8
Layer0016
  6
Continuous
 62
     3
370
    25
100
AcDbLine
 10
-103.52000005126
 20
-14.84999831020832
 30
0.0
 11
-101.9400000086427
 21
-14.84999831020832
 31
0.0
  0
LINE
  5
24F
330
1F
100
AcDbEntity
  8
Layer0016
  6
Continuous
 62
     3
370
    25
100
AcDbLine
 10
-97.94000118881468
 20
-14.84999831020832
 30
0.0
 11
-96.36000114619736
 21
-14.84999831020832
 31
0.0
  0
LINE
  5
250
330
1F
100
AcDbEntity
  8
Layer0016
  6
Continuous
 62
     3
370
    25
100
AcDbLine
 10
-92.35999622285362
 20
-14.84999831020832
 30
0.0
 11
-90.77999618023631
 21
-14.84999831020832
 31
0.0
  0
LINE
  5
251
330
1F
100
AcDbEntity
  8
Layer0016
  6
Continuous
 62
     3
370
    25
100
AcDbLine
 10
-86.77999736040829
 20
-14.84999831020832
 30
0.0
 11
-85.19999731779097
 21
-14.84999831020832
 31
0.0
  0
LINE
  5
252
330
1F
100
AcDbEntity
  8
Layer0016
  6
Continuous
 62
     3
370
    25
100
AcDbLine
 10
-81.19999849796295
 20
-14.84999831020832
 30
0.0
 11
-79.61999845534564
 21
-14.84999831020832
 31
0.0
  0
LINE
  5
253
330
1F
100
AcDbEntity
  8
Layer0016
  6
Continuous
 62
     3
370
    25
100
AcDbLine
 10
-75.6199935320019
 20
-14.84999831020832
 30
0.0
 11
-74.03999348938459
 21
-14.84999831020832
 31
0.0
  0
LINE
  5
254
330
1F
100
AcDbEntity
  8
Layer0016
  6
Continuous
 62
     3
370
    25
100
AcDbLine
 10
-70.04000077307228
 20
-14.84999831020832
 30
0.0
 11
-68.46000073045496
 21
-14.84999831020832
 31
0.0
  0
LINE
  5
255
330
1F
100
AcDbEntity
  8
Layer0016
  6
Continuous
 62
     3
370
    25
100
AcDbLine
 10
-64.45999580711123
 20
-14.84999831020832
 30
0.0
 11
-62.87999576449391
 21
-14.84999831020832
 31
0.0
  0
LINE
  5
256
330
1F
100
AcDbEntity
  8
Layer0016
  6
Continuous
 62
     3
370
    25
100
AcDbLine
 10
-58.88000304818161
 20
-14.84999831020832
 30
0.0
 11
-57.30000300556429
 21
-14.84999831020832
 31
0.0
  0
LINE
  5
257
330
1F
100
AcDbEntity
  8
Layer0016
  6
Continuous
 62
     3
370
    25
100
AcDbLine
 10
-53.29999808222055
 20
-14.84999831020832
 30
0.0
 11
-51.71999803960323
 21
-14.84999831020832
 31
0.0
  0
LINE
  5
258
330
1F
100
AcDbEntity
  8
Layer0016
  6
Continuous
 62
     3
370
    25
100
AcDbLine
 10
-47.7199931162595
 20
-14.84999831020832
 30
0.0
 11
-46.19999110996713
 21
-14.84999831020832
 31
0.0
  0
LINE
  5
259
330
1F
100
AcDbEntity
  8
Layer0016
  6
Continuous
 62
     3
370
    25
100
AcDbLine
 10
-140.9999993890524
 20
-32.94999857991934
 30
0.0
 11
-140.9999993890524
 21
64.650002874434
 31
0.0
  0
LINE
  5
25A
330
1F
100
AcDbEntity
  8
Layer0016
  6
Continuous
 62
     3
370
    25
100
AcDbLine
 10
-140.9999993890524
 20
-32.94999857991934
 30
0.0
 11
-136.9999993294477
 21
-32.94999857991934
 31
0.0
  0
LINE
  5
25B
330
1F
100
AcDbEntity
  8
Layer0016
  6
Continuous
 62
     3
370
    25
100
AcDbLine
 10
-136.9999993294477
 20
-32.94999857991934
 30
0.0
 11
-136.9999993294477
 21
64.650002874434
 31
0.0
  0
LINE
  5
25C
330
1F
100
AcDbEntity
  8
Layer0016
  6
Continuous
 62
     3
370
    25
100
AcDbLine
 10
-140.9999993890524
 20
64.650002874434
 30
0.0
 11
-136.9999993294477
 21
64.650002874434
 31
0.0
  0
LINE
  5
25D
330
1F
100
AcDbEntity
  8
Layer0016
  6
Continuous
 62
     3
370
    25
100
AcDbLine
 10
-140.1999993771314
 20
-32.94999857991934
 30
0.0
 11
-140.1999993771314
 21
64.650002874434
 31
0.0
  0
LINE
  5
25E
330
1F
100
AcDbEntity
  8
Layer0016
  6
Continuous
 62
     3
370
    25
100
AcDbLine
 10
-137.7999993413687
 20
-32.94999857991934
 30
0.0
 11
-137.7999993413687
 21
64.650002874434
 31
0.0
  0
LINE
  5
25F
330
1F
100
AcDbEntity
  8
Layer0016
  6
Continuous
 62
     3
370
    25
100
AcDbLine
 10
-138.99999935925
 20
-31.94999856501818
 30
0.0
 11
-138.99999935925
 21
63.65000285953283
 31
0.0
  0
LINE
  5
260
330
1F
100
AcDbEntity
  8
Layer0016
  6
Continuous
 62
     3
370
    25
100
AcDbLine
 10
-135.420000526607
 20
-32.94999857991934
 30
0.0
 11
-135.420000526607
 21
64.650002874434
 31
0.0
  0
LINE
  5
261
330
1F
100
AcDbEntity
  8
Layer0016
  6
Continuous
 62
     3
370
    25
100
AcDbLine
 10
-135.420000526607
 20
-32.94999857991934
 30
0.0
 11
-131.4200004670024
 21
-32.94999857991934
 31
0.0
  0
LINE
  5
262
330
1F
100
AcDbEntity
  8
Layer0016
  6
Continuous
 62
     3
370
    25
100
AcDbLine
 10
-131.4200004670024
 20
-32.94999857991934
 30
0.0
 11
-131.4200004670024
 21
64.650002874434
 31
0.0
  0
LINE
  5
263
330
1F
100
AcDbEntity
  8
Layer0016
  6
Continuous
 62
     3
370
    25
100
AcDbLine
 10
-135.420000526607
 20
64.650002874434
 30
0.0
 11
-131.4200004670024
 21
64.650002874434
 31
0.0
  0
LINE
  5
264
330
1F
100
AcDbEntity
  8
Layer0016
  6
Continuous
 62
     3
370
    25
100
AcDbLine
 10
-134.6200005146861
 20
-32.94999857991934
 30
0.0
 11
-134.6200005146861
 21
64.650002874434
 31
0.0
  0
LINE
  5
265
330
1F
100
AcDbEntity
  8
Layer0016
  6
Continuous
 62
     3
370
    25
100
AcDbLine
 10
-132.2200004789233
 20
-32.94999857991934
 30
0.0
 11
-132.2200004789233
 21
64.650002874434
 31
0.0
  0
LINE
  5
266
330
1F
100
AcDbEntity
  8
Layer0016
  6
Continuous
 62
     3
370
    25
100
AcDbLine
 10
-133.4200004968047
 20
-31.94999856501818
 30
0.0
 11
-133.4200004968047
 21
63.65000285953283
 31
0.0
  0
LINE
  5
267
330
1F
100
AcDbEntity
  8
Layer0016
  6
Continuous
 62
     3
370
    25
100
AcDbLine
 10
-129.8400016641617
 20
-32.94999857991934
 30
0.0
 11
-129.8400016641617
 21
64.650002874434
 31
0.0
  0
LINE
  5
268
330
1F
100
AcDbEntity
  8
Layer0016
  6
Continuous
 62
     3
370
    25
100
AcDbLine
 10
-129.8400016641617
 20
-32.94999857991934
 30
0.0
 11
-125.840001604557
 21
-32.94999857991934
 31
0.0
  0
LINE
  5
269
330
1F
100
AcDbEntity
  8
Layer0016
  6
Continuous
 62
     3
370
    25
100
AcDbLine
 10
-125.840001604557
 20
-32.94999857991934
 30
0.0
 11
-125.840001604557
 21
64.650002874434
 31
0.0
  0
LINE
  5
26A
330
1F
100
AcDbEntity
  8
Layer0016
  6
Continuous
 62
     3
370
    25
100
AcDbLine
 10
-129.8400016641617
 20
64.650002874434
 30
0.0
 11
-125.840001604557
 21
64.650002874434
 31
0.0
  0
LINE
  5
26B
330
1F
100
AcDbEntity
  8
Layer0016
  6
Continuous
 62
     3
370
    25
100
AcDbLine
 10
-129.0400016522408
 20
-32.94999857991934
 30
0.0
 11
-129.0400016522408
 21
64.650002874434
 31
0.0
  0
LINE
  5
26C
330
1F
100
AcDbEntity
  8
Layer0016
  6
Continuous
 62
     3
370
    25
100
AcDbLine
 10
-126.640001616478
 20
-32.94999857991934
 30
0.0
 11
-126.640001616478
 21
64.650002874434
 31
0.0
  0
LINE
  5
26D
330
1F
100
AcDbEntity
  8
Layer0016
  6
Continuous
 62
     3
370
    25
100
AcDbLine
 10
-127.8400016343594
 20
-31.94999856501818
 30
0.0
 11
-127.8400016343594
 21
63.65000285953283
 31
0.0
  0
LINE
  5
26E
330
1F
100
AcDbEntity
  8
Layer0016
  6
Continuous
 62
     3
370
    25
100
AcDbLine
 10
-124.2599966982006
 20
-32.94999857991934
 30
0.0
 11
-124.2599966982006
 21
64.650002874434
 31
0.0
  0
LINE
  5
26F
330
1F
100
AcDbEntity
  8
Layer0016
  6
Continuous
 62
     3
370
    25
100
AcDbLine
 10
-124.2599966982006
 20
-32.94999857991934
 30
0.0
 11
-120.259996638596
 21
-32.94999857991934
 31
0.0
  0
LINE
  5
270
330
1F
100
AcDbEntity
  8
Layer0016
  6
Continuous
 62
     3
370
    25
100
AcDbLine
 10
-120.259996638596
 20
-32.94999857991934
 30
0.0
 11
-120.259996638596
 21
64.650002874434
 31
0.0
  0
LINE
  5
271
330
1F
100
AcDbEntity
  8
Layer0016
  6
Continuous
 62
     3
370
    25
100
AcDbLine
 10
-124.2599966982006
 20
64.650002874434
 30
0.0
 11
-120.259996638596
 21
64.650002874434
 31
0.0
  0
LINE
  5
272
330
1F
100
AcDbEntity
  8
Layer0016
  6
Continuous
 62
     3
370
    25
100
AcDbLine
 10
-123.4599966862797
 20
-32.94999857991934
 30
0.0
 11
-123.4599966862797
 21
64.650002874434
 31
0.0
  0
LINE
  5
273
330
1F
100
AcDbEntity
  8
Layer0016
  6
Continuous
 62
     3
370
    25
100
AcDbLine
 10
-121.0599966505169
 20
-32.94999857991934
 30
0.0
 11
-121.0599966505169
 21
64.650002874434
 31
0.0
  0
LINE
  5
274
330
1F
100
AcDbEntity
  8
Layer0016
  6
Continuous
 62
     3
370
    25
100
AcDbLine
 10
-122.2599966683983
 20
-31.94999856501818
 30
0.0
 11
-122.2599966683983
 21
63.65000285953283
 31
0.0
  0
LINE
  5
275
330
1F
100
AcDbEntity
  8
Layer0016
  6
Continuous
 62
     3
370
    25
100
AcDbLine
 10
-118.6799978357553
 20
-32.94999857991934
 30
0.0
 11
-118.6799978357553
 21
64.650002874434
 31
0.0
  0
LINE
  5
276
330
1F
100
AcDbEntity
  8
Layer0016
  6
Continuous
 62
     3
370
    25
100
AcDbLine
 10
-118.6799978357553
 20
-32.94999857991934
 30
0.0
 11
-114.6799977761507
 21
-32.94999857991934
 31
0.0
  0
LINE
  5
277
330
1F
100
AcDbEntity
  8
Layer0016
  6
Continuous
 62
     3
370
    25
100
AcDbLine
 10
-114.6799977761507
 20
-32.94999857991934
 30
0.0
 11
-114.6799977761507
 21
64.650002874434
 31
0.0
  0
LINE
  5
278
330
1F
100
AcDbEntity
  8
Layer0016
  6
Continuous
 62
     3
370
    25
100
AcDbLine
 10
-118.6799978357553
 20
64.650002874434
 30
0.0
 11
-114.6799977761507
 21
64.650002874434
 31
0.0
  0
LINE
  5
279
330
1F
100
AcDbEntity
  8
Layer0016
  6
Continuous
 62
     3
370
    25
100
AcDbLine
 10
-117.8799978238344
 20
-32.94999857991934
 30
0.0
 11
-117.8799978238344
 21
64.650002874434
 31
0.0
  0
LINE
  5
27A
330
1F
100
AcDbEntity
  8
Layer0016
  6
Continuous
 62
     3
370
    25
100
AcDbLine
 10
-115.4799977880716
 20
-32.94999857991934
 30
0.0
 11
-115.4799977880716
 21
64.650002874434
 31
0.0
  0
LINE
  5
27B
330
1F
100
AcDbEntity
  8
Layer0016
  6
Continuous
 62
     3
370
    25
100
AcDbLine
 10
-116.679997805953
 20
-31.94999856501818
 30
0.0
 11
-116.679997805953
 21
63.65000285953283
 31
0.0
  0
LINE
  5
27C
330
1F
100
AcDbEntity
  8
Layer0016
  6
Continuous
 62
     3
370
    25
100
AcDbLine
 10
-113.09999897331
 20
-32.94999857991934
 30
0.0
 11
-113.09999897331
 21
64.650002874434
 31
0.0
  0
LINE
  5
27D
330
1F
100
AcDbEntity
  8
Layer0016
  6
Continuous
 62
     3
370
    25
100
AcDbLine
 10
-113.09999897331
 20
-32.94999857991934
 30
0.0
 11
-109.0999989137053
 21
-32.94999857991934
 31
0.0
  0
LINE
  5
27E
330
1F
100
AcDbEntity
  8
Layer0016
  6
Continuous
 62
     3
370
    25
100
AcDbLine
 10
-109.0999989137053
 20
-32.94999857991934
 30
0.0
 11
-109.0999989137053
 21
64.650002874434
 31
0.0
  0
LINE
  5
27F
330
1F
100
AcDbEntity
  8
Layer0016
  6
Continuous
 62
     3
370
    25
100
AcDbLine
 10
-113.09999897331
 20
64.650002874434
 30
0.0
 11
-109.0999989137053
 21
64.650002874434
 31
0.0
  0
LINE
  5
280
330
1F
100
AcDbEntity
  8
Layer0016
  6
Continuous
 62
     3
370
    25
100
AcDbLine
 10
-112.299998961389
 20
-32.94999857991934
 30
0.0
 11
-112.299998961389
 21
64.650002874434
 31
0.0
  0
LINE
  5
281
330
1F
100
AcDbEntity
  8
Layer0016
  6
Continuous
 62
     3
370
    25
100
AcDbLine
 10
-109.8999989256263
 20
-32.94999857991934
 30
0.0
 11
-109.8999989256263
 21
64.650002874434
 31
0.0
  0
LINE
  5
282
330
1F
100
AcDbEntity
  8
Layer0016
  6
Continuous
 62
     3
370
    25
100
AcDbLine
 10
-111.0999989435077
 20
-31.94999856501818
 30
0.0
 11
-111.0999989435077
 21
63.65000285953283
 31
0.0
  0
LINE
  5
283
330
1F
100
AcDbEntity
  8
Layer0016
  6
Continuous
 62
     3
370
    25
100
AcDbLine
 10
-107.5200001108646
 20
-32.94999857991934
 30
0.0
 11
-107.5200001108646
 21
64.650002874434
 31
0.0
  0
LINE
  5
284
330
1F
100
AcDbEntity
  8
Layer0016
  6
Continuous
 62
     3
370
    25
100
AcDbLine
 10
-107.5200001108646
 20
-32.94999857991934
 30
0.0
 11
-103.52000005126
 21
-32.94999857991934
 31
0.0
  0
LINE
  5
285
330
1F
100
AcDbEntity
  8
Layer0016
  6
Continuous
 62
     3
370
    25
100
AcDbLine
 10
-103.52000005126
 20
-32.94999857991934
 30
0.0
 11
-103.52000005126
 21
64.650002874434
 31
0.0
  0
LINE
  5
286
330
1F
100
AcDbEntity
  8
Layer0016
  6
Continuous
 62
     3
370
    25
100
AcDbLine
 10
-107.5200001108646
 20
64.650002874434
 30
0.0
 11
-103.52000005126
 21
64.650002874434
 31
0.0
  0
LINE
  5
287
330
1F
100
AcDbEntity
  8
Layer0016
  6
Continuous
 62
     3
370
    25
100
AcDbLine
 10
-106.7200000989437
 20
-32.94999857991934
 30
0.0
 11
-106.7200000989437
 21
64.650002874434
 31
0.0
  0
LINE
  5
288
330
1F
100
AcDbEntity
  8
Layer0016
  6
Continuous
 62
     3
370
    25
100
AcDbLine
 10
-104.3200000631809
 20
-32.94999857991934
 30
0.0
 11
-104.3200000631809
 21
64.650002874434
 31
0.0
  0
LINE
  5
289
330
1F
100
AcDbEntity
  8
Layer0016
  6
Continuous
 62
     3
370
    25
100
AcDbLine
 10
-105.5200000810623
 20
-31.94999856501818
 30
0.0
 11
-105.5200000810623
 21
63.65000285953283
 31
0.0
  0
LINE
  5
28A
330
1F
100
AcDbEntity
  8
Layer0016
  6
Continuous
 62
     3
370
    25
100
AcDbLine
 10
-101.9400012484193
 20
-32.94999857991934
 30
0.0
 11
-101.9400012484193
 21
64.650002874434
 31
0.0
  0
LINE
  5
28B
330
1F
100
AcDbEntity
  8
Layer0016
  6
Continuous
 62
     3
370
    25
100
AcDbLine
 10
-101.9400012484193
 20
-32.94999857991934
 30
0.0
 11
-97.94000118881468
 21
-32.94999857991934
 31
0.0
  0
LINE
  5
28C
330
1F
100
AcDbEntity
  8
Layer0016
  6
Continuous
 62
     3
370
    25
100
AcDbLine
 10
-97.94000118881468
 20
-32.94999857991934
 30
0.0
 11
-97.94000118881468
 21
64.650002874434
 31
0.0
  0
LINE
  5
28D
330
1F
100
AcDbEntity
  8
Layer0016
  6
Continuous
 62
     3
370
    25
100
AcDbLine
 10
-101.9400012484193
 20
64.650002874434
 30
0.0
 11
-97.94000118881468
 21
64.650002874434
 31
0.0
  0
LINE
  5
28E
330
1F
100
AcDbEntity
  8
Layer0016
  6
Continuous
 62
     3
370
    25
100
AcDbLine
 10
-101.1400012364984
 20
-32.94999857991934
 30
0.0
 11
-101.1400012364984
 21
64.650002874434
 31
0.0
  0
LINE
  5
28F
330
1F
100
AcDbEntity
  8
Layer0016
  6
Continuous
 62
     3
370
    25
100
AcDbLine
 10
-98.7400012007356
 20
-32.94999857991934
 30
0.0
 11
-98.7400012007356
 21
64.650002874434
 31
0.0
  0
LINE
  5
290
330
1F
100
AcDbEntity
  8
Layer0016
  6
Continuous
 62
     3
370
    25
100
AcDbLine
 10
-99.94000121861701
 20
-31.94999856501818
 30
0.0
 11
-99.94000121861701
 21
63.65000285953283
 31
0.0
  0
LINE
  5
291
330
1F
100
AcDbEntity
  8
Layer0016
  6
Continuous
 62
     3
370
    25
100
AcDbLine
 10
-96.35999628245827
 20
-32.94999857991934
 30
0.0
 11
-96.35999628245827
 21
64.650002874434
 31
0.0
  0
LINE
  5
292
330
1F
100
AcDbEntity
  8
Layer0016
  6
Continuous
 62
     3
370
    25
100
AcDbLine
 10
-96.35999628245827
 20
-32.94999857991934
 30
0.0
 11
-92.35999622285362
 21
-32.94999857991934
 31
0.0
  0
LINE
  5
293
330
1F
100
AcDbEntity
  8
Layer0016
  6
Continuous
 62
     3
370
    25
100
AcDbLine
 10
-92.35999622285362
 20
-32.94999857991934
 30
0.0
 11
-92.35999622285362
 21
64.650002874434
 31
0.0
  0
LINE
  5
294
330
1F
100
AcDbEntity
  8
Layer0016
  6
Continuous
 62
     3
370
    25
100
AcDbLine
 10
-96.35999628245827
 20
64.650002874434
 30
0.0
 11
-92.35999622285362
 21
64.650002874434
 31
0.0
  0
LINE
  5
295
330
1F
100
AcDbEntity
  8
Layer0016
  6
Continuous
 62
     3
370
    25
100
AcDbLine
 10
-95.55999627053734
 20
-32.94999857991934
 30
0.0
 11
-95.55999627053734
 21
64.650002874434
 31
0.0
  0
LINE
  5
296
330
1F
100
AcDbEntity
  8
Layer0016
  6
Continuous
 62
     3
370
    25
100
AcDbLine
 10
-93.15999623477455
 20
-32.94999857991934
 30
0.0
 11
-93.15999623477455
 21
64.650002874434
 31
0.0
  0
LINE
  5
297
330
1F
100
AcDbEntity
  8
Layer0016
  6
Continuous
 62
     3
370
    25
100
AcDbLine
 10
-94.35999625265595
 20
-31.94999856501818
 30
0.0
 11
-94.35999625265595
 21
63.65000285953283
 31
0.0
  0
LINE
  5
298
330
1F
100
AcDbEntity
  8
Layer0016
  6
Continuous
 62
     3
370
    25
100
AcDbLine
 10
-90.77999742001293
 20
-32.94999857991934
 30
0.0
 11
-90.77999742001293
 21
64.650002874434
 31
0.0
  0
LINE
  5
299
330
1F
100
AcDbEntity
  8
Layer0016
  6
Continuous
 62
     3
370
    25
100
AcDbLine
 10
-90.77999742001293
 20
-32.94999857991934
 30
0.0
 11
-86.77999736040829
 21
-32.94999857991934
 31
0.0
  0
LINE
  5
29A
330
1F
100
AcDbEntity
  8
Layer0016
  6
Continuous
 62
     3
370
    25
100
AcDbLine
 10
-86.77999736040829
 20
-32.94999857991934
 30
0.0
 11
-86.77999736040829
 21
64.650002874434
 31
0.0
  0
LINE
  5
29B
330
1F
100
AcDbEntity
  8
Layer0016
  6
Continuous
 62
     3
370
    25
100
AcDbLine
 10
-90.77999742001293
 20
64.650002874434
 30
0.0
 11
-86.77999736040829
 21
64.650002874434
 31
0.0
  0
LINE
  5
29C
330
1F
100
AcDbEntity
  8
Layer0016
  6
Continuous
 62
     3
370
    25
100
AcDbLine
 10
-89.979997408092
 20
-32.94999857991934
 30
0.0
 11
-89.979997408092
 21
64.650002874434
 31
0.0
  0
LINE
  5
29D
330
1F
100
AcDbEntity
  8
Layer0016
  6
Continuous
 62
     3
370
    25
100
AcDbLine
 10
-87.57999737232922
 20
-32.94999857991934
 30
0.0
 11
-87.57999737232922
 21
64.650002874434
 31
0.0
  0
LINE
  5
29E
330
1F
100
AcDbEntity
  8
Layer0016
  6
Continuous
 62
     3
370
    25
100
AcDbLine
 10
-88.77999739021061
 20
-31.94999856501818
 30
0.0
 11
-88.77999739021061
 21
63.65000285953283
 31
0.0
  0
LINE
  5
29F
330
1F
100
AcDbEntity
  8
Layer0016
  6
Continuous
 62
     3
370
    25
100
AcDbLine
 10
-85.1999985575676
 20
-32.94999857991934
 30
0.0
 11
-85.1999985575676
 21
64.650002874434
 31
0.0
  0
LINE
  5
2A0
330
1F
100
AcDbEntity
  8
Layer0016
  6
Continuous
 62
     3
370
    25
100
AcDbLine
 10
-85.1999985575676
 20
-32.94999857991934
 30
0.0
 11
-81.19999849796295
 21
-32.94999857991934
 31
0.0
  0
LINE
  5
2A1
330
1F
100
AcDbEntity
  8
Layer0016
  6
Continuous
 62
     3
370
    25
100
AcDbLine
 10
-81.19999849796295
 20
-32.94999857991934
 30
0.0
 11
-81.19999849796295
 21
64.650002874434
 31
0.0
  0
LINE
  5
2A2
330
1F
100
AcDbEntity
  8
Layer0016
  6
Continuous
 62
     3
370
    25
100
AcDbLine
 10
-85.1999985575676
 20
64.650002874434
 30
0.0
 11
-81.19999849796295
 21
64.650002874434
 31
0.0
  0
LINE
  5
2A3
330
1F
100
AcDbEntity
  8
Layer0016
  6
Continuous
 62
     3
370
    25
100
AcDbLine
 10
-84.39999854564667
 20
-32.94999857991934
 30
0.0
 11
-84.39999854564667
 21
64.650002874434
 31
0.0
  0
LINE
  5
2A4
330
1F
100
AcDbEntity
  8
Layer0016
  6
Continuous
 62
     3
370
    25
100
AcDbLine
 10
-81.99999850988388
 20
-32.94999857991934
 30
0.0
 11
-81.99999850988388
 21
64.650002874434
 31
0.0
  0
LINE
  5
2A5
330
1F
100
AcDbEntity
  8
Layer0016
  6
Continuous
 62
     3
370
    25
100
AcDbLine
 10
-83.19999852776527
 20
-31.94999856501818
 30
0.0
 11
-83.19999852776527
 21
63.65000285953283
 31
0.0
  0
LINE
  5
2A6
330
1F
100
AcDbEntity
  8
Layer0016
  6
Continuous
 62
     3
370
    25
100
AcDbLine
 10
-79.61999969512226
 20
-32.94999857991934
 30
0.0
 11
-79.61999969512226
 21
64.650002874434
 31
0.0
  0
LINE
  5
2A7
330
1F
100
AcDbEntity
  8
Layer0016
  6
Continuous
 62
     3
370
    25
100
AcDbLine
 10
-79.61999969512226
 20
-32.94999857991934
 30
0.0
 11
-75.61999963551762
 21
-32.94999857991934
 31
0.0
  0
LINE
  5
2A8
330
1F
100
AcDbEntity
  8
Layer0016
  6
Continuous
 62
     3
370
    25
100
AcDbLine
 10
-75.61999963551762
 20
-32.94999857991934
 30
0.0
 11
-75.61999963551762
 21
64.650002874434
 31
0.0
  0
LINE
  5
2A9
330
1F
100
AcDbEntity
  8
Layer0016
  6
Continuous
 62
     3
370
    25
100
AcDbLine
 10
-79.61999969512226
 20
64.650002874434
 30
0.0
 11
-75.61999963551762
 21
64.650002874434
 31
0.0
  0
LINE
  5
2AA
330
1F
100
AcDbEntity
  8
Layer0016
  6
Continuous
 62
     3
370
    25
100
AcDbLine
 10
-78.81999968320133
 20
-32.94999857991934
 30
0.0
 11
-78.81999968320133
 21
64.650002874434
 31
0.0
  0
LINE
  5
2AB
330
1F
100
AcDbEntity
  8
Layer0016
  6
Continuous
 62
     3
370
    25
100
AcDbLine
 10
-76.41999964743854
 20
-32.94999857991934
 30
0.0
 11
-76.41999964743854
 21
64.650002874434
 31
0.0
  0
LINE
  5
2AC
330
1F
100
AcDbEntity
  8
Layer0016
  6
Continuous
 62
     3
370
    25
100
AcDbLine
 10
-77.61999966531994
 20
-31.94999856501818
 30
0.0
 11
-77.61999966531994
 21
63.65000285953283
 31
0.0
  0
LINE
  5
2AD
330
1F
100
AcDbEntity
  8
Layer0016
  6
Continuous
 62
     3
370
    25
100
AcDbLine
 10
-74.04000083267692
 20
-32.94999857991934
 30
0.0
 11
-74.04000083267692
 21
64.650002874434
 31
0.0
  0
LINE
  5
2AE
330
1F
100
AcDbEntity
  8
Layer0016
  6
Continuous
 62
     3
370
    25
100
AcDbLine
 10
-74.04000083267692
 20
-32.94999857991934
 30
0.0
 11
-70.04000077307228
 21
-32.94999857991934
 31
0.0
  0
LINE
  5
2AF
330
1F
100
AcDbEntity
  8
Layer0016
  6
Continuous
 62
     3
370
    25
100
AcDbLine
 10
-70.04000077307228
 20
-32.94999857991934
 30
0.0
 11
-70.04000077307228
 21
64.650002874434
 31
0.0
  0
LINE
  5
2B0
330
1F
100
AcDbEntity
  8
Layer0016
  6
Continuous
 62
     3
370
    25
100
AcDbLine
 10
-74.04000083267692
 20
64.650002874434
 30
0.0
 11
-70.04000077307228
 21
64.650002874434
 31
0.0
  0
LINE
  5
2B1
330
1F
100
AcDbEntity
  8
Layer0016
  6
Continuous
 62
     3
370
    25
100
AcDbLine
 10
-73.240000820756
 20
-32.94999857991934
 30
0.0
 11
-73.240000820756
 21
64.650002874434
 31
0.0
  0
LINE
  5
2B2
330
1F
100
AcDbEntity
  8
Layer0016
  6
Continuous
 62
     3
370
    25
100
AcDbLine
 10
-70.84000078499321
 20
-32.94999857991934
 30
0.0
 11
-70.84000078499321
 21
64.650002874434
 31
0.0
  0
LINE
  5
2B3
330
1F
100
AcDbEntity
  8
Layer0016
  6
Continuous
 62
     3
370
    25
100
AcDbLine
 10
-72.0400008028746
 20
-31.94999856501818
 30
0.0
 11
-72.0400008028746
 21
63.65000285953283
 31
0.0
  0
LINE
  5
2B4
330
1F
100
AcDbEntity
  8
Layer0016
  6
Continuous
 62
     3
370
    25
100
AcDbLine
 10
-68.45999586671587
 20
-32.94999857991934
 30
0.0
 11
-68.45999586671587
 21
64.650002874434
 31
0.0
  0
LINE
  5
2B5
330
1F
100
AcDbEntity
  8
Layer0016
  6
Continuous
 62
     3
370
    25
100
AcDbLine
 10
-68.45999586671587
 20
-32.94999857991934
 30
0.0
 11
-64.45999580711123
 21
-32.94999857991934
 31
0.0
  0
LINE
  5
2B6
330
1F
100
AcDbEntity
  8
Layer0016
  6
Continuous
 62
     3
370
    25
100
AcDbLine
 10
-64.45999580711123
 20
-32.94999857991934
 30
0.0
 11
-64.45999580711123
 21
64.650002874434
 31
0.0
  0
LINE
  5
2B7
330
1F
100
AcDbEntity
  8
Layer0016
  6
Continuous
 62
     3
370
    25
100
AcDbLine
 10
-68.45999586671587
 20
64.650002874434
 30
0.0
 11
-64.45999580711123
 21
64.650002874434
 31
0.0
  0
LINE
  5
2B8
330
1F
100
AcDbEntity
  8
Layer0016
  6
Continuous
 62
     3
370
    25
100
AcDbLine
 10
-67.65999585479494
 20
-32.94999857991934
 30
0.0
 11
-67.65999585479494
 21
64.650002874434
 31
0.0
  0
LINE
  5
2B9
330
1F
100
AcDbEntity
  8
Layer0016
  6
Continuous
 62
     3
370
    25
100
AcDbLine
 10
-65.25999581903216
 20
-32.94999857991934
 30
0.0
 11
-65.25999581903216
 21
64.650002874434
 31
0.0
  0
LINE
  5
2BA
330
1F
100
AcDbEntity
  8
Layer0016
  6
Continuous
 62
     3
370
    25
100
AcDbLine
 10
-66.45999583691355
 20
-31.94999856501818
 30
0.0
 11
-66.45999583691355
 21
63.65000285953283
 31
0.0
  0
LINE
  5
2BB
330
1F
100
AcDbEntity
  8
Layer0016
  6
Continuous
 62
     3
370
    25
100
AcDbLine
 10
-62.88000310778625
 20
-32.94999857991934
 30
0.0
 11
-62.88000310778625
 21
64.650002874434
 31
0.0
  0
LINE
  5
2BC
330
1F
100
AcDbEntity
  8
Layer0016
  6
Continuous
 62
     3
370
    25
100
AcDbLine
 10
-62.88000310778625
 20
-32.94999857991934
 30
0.0
 11
-58.88000304818161
 21
-32.94999857991934
 31
0.0
  0
LINE
  5
2BD
330
1F
100
AcDbEntity
  8
Layer0016
  6
Continuous
 62
     3
370
    25
100
AcDbLine
 10
-58.88000304818161
 20
-32.94999857991934
 30
0.0
 11
-58.88000304818161
 21
64.650002874434
 31
0.0
  0
LINE
  5
2BE
330
1F
100
AcDbEntity
  8
Layer0016
  6
Continuous
 62
     3
370
    25
100
AcDbLine
 10
-62.88000310778625
 20
64.650002874434
 30
0.0
 11
-58.88000304818161
 21
64.650002874434
 31
0.0
  0
LINE
  5
2BF
330
1F
100
AcDbEntity
  8
Layer0016
  6
Continuous
 62
     3
370
    25
100
AcDbLine
 10
-62.08000309586532
 20
-32.94999857991934
 30
0.0
 11
-62.08000309586532
 21
64.650002874434
 31
0.0
  0
LINE
  5
2C0
330
1F
100
AcDbEntity
  8
Layer0016
  6
Continuous
 62
     3
370
    25
100
AcDbLine
 10
-59.68000306010255
 20
-32.94999857991934
 30
0.0
 11
-59.68000306010255
 21
64.650002874434
 31
0.0
  0
LINE
  5
2C1
330
1F
100
AcDbEntity
  8
Layer0016
  6
Continuous
 62
     3
370
    25
100
AcDbLine
 10
-60.88000307798393
 20
-31.94999856501818
 30
0.0
 11
-60.88000307798393
 21
63.65000285953283
 31
0.0
  0
LINE
  5
2C2
330
1F
100
AcDbEntity
  8
Layer0016
  6
Continuous
 62
     3
370
    25
100
AcDbLine
 10
-57.2999981418252
 20
-32.94999857991934
 30
0.0
 11
-57.2999981418252
 21
64.650002874434
 31
0.0
  0
LINE
  5
2C3
330
1F
100
AcDbEntity
  8
Layer0016
  6
Continuous
 62
     3
370
    25
100
AcDbLine
 10
-57.2999981418252
 20
-32.94999857991934
 30
0.0
 11
-53.29999808222055
 21
-32.94999857991934
 31
0.0
  0
LINE
  5
2C4
330
1F
100
AcDbEntity
  8
Layer0016
  6
Continuous
 62
     3
370
    25
100
AcDbLine
 10
-53.29999808222055
 20
-32.94999857991934
 30
0.0
 11
-53.29999808222055
 21
64.650002874434
 31
0.0
  0
LINE
  5
2C5
330
1F
100
AcDbEntity
  8
Layer0016
  6
Continuous
 62
     3
370
    25
100
AcDbLine
 10
-57.2999981418252
 20
64.650002874434
 30
0.0
 11
-53.29999808222055
 21
64.650002874434
 31
0.0
  0
LINE
  5
2C6
330
1F
100
AcDbEntity
  8
Layer0016
  6
Continuous
 62
     3
370
    25
100
AcDbLine
 10
-56.49999812990427
 20
-32.94999857991934
 30
0.0
 11
-56.49999812990427
 21
64.650002874434
 31
0.0
  0
LINE
  5
2C7
330
1F
100
AcDbEntity
  8
Layer0016
  6
Continuous
 62
     3
370
    25
100
AcDbLine
 10
-54.09999809414148
 20
-32.94999857991934
 30
0.0
 11
-54.09999809414148
 21
64.650002874434
 31
0.0
  0
LINE
  5
2C8
330
1F
100
AcDbEntity
  8
Layer0016
  6
Continuous
 62
     3
370
    25
100
AcDbLine
 10
-55.29999811202288
 20
-31.94999856501818
 30
0.0
 11
-55.29999811202288
 21
63.65000285953283
 31
0.0
  0
LINE
  5
2C9
330
1F
100
AcDbEntity
  8
Layer0016
  6
Continuous
 62
     3
370
    25
100
AcDbLine
 10
-51.71999317586415
 20
-32.94999857991934
 30
0.0
 11
-51.71999317586415
 21
64.650002874434
 31
0.0
  0
LINE
  5
2CA
330
1F
100
AcDbEntity
  8
Layer0016
  6
Continuous
 62
     3
370
    25
100
AcDbLine
 10
-51.71999317586415
 20
-32.94999857991934
 30
0.0
 11
-47.7199931162595
 21
-32.94999857991934
 31
0.0
  0
LINE
  5
2CB
330
1F
100
AcDbEntity
  8
Layer0016
  6
Continuous
 62
     3
370
    25
100
AcDbLine
 10
-47.7199931162595
 20
-32.94999857991934
 30
0.0
 11
-47.7199931162595
 21
64.650002874434
 31
0.0
  0
LINE
  5
2CC
330
1F
100
AcDbEntity
  8
Layer0016
  6
Continuous
 62
     3
370
    25
100
AcDbLine
 10
-51.71999317586415
 20
64.650002874434
 30
0.0
 11
-47.7199931162595
 21
64.650002874434
 31
0.0
  0
LINE
  5
2CD
330
1F
100
AcDbEntity
  8
Layer0016
  6
Continuous
 62
     3
370
    25
100
AcDbLine
 10
-50.91999316394322
 20
-32.94999857991934
 30
0.0
 11
-50.91999316394322
 21
64.650002874434
 31
0.0
  0
LINE
  5
2CE
330
1F
100
AcDbEntity
  8
Layer0016
  6
Continuous
 62
     3
370
    25
100
AcDbLine
 10
-48.51999312818043
 20
-32.94999857991934
 30
0.0
 11
-48.51999312818043
 21
64.650002874434
 31
0.0
  0
LINE
  5
2CF
330
1F
100
AcDbEntity
  8
Layer0016
  6
Continuous
 62
     3
370
    25
100
AcDbLine
 10
-49.71999314606182
 20
-31.94999856501818
 30
0.0
 11
-49.71999314606182
 21
63.65000285953283
 31
0.0
  0
LINE
  5
2D0
330
1F
100
AcDbEntity
  8
Layer0016
  6
Continuous
 62
     3
370
    25
100
AcDbLine
 10
-46.19999797642231
 20
-32.94999857991934
 30
0.0
 11
-46.19999797642231
 21
64.650002874434
 31
0.0
  0
LINE
  5
2D1
330
1F
100
AcDbEntity
  8
Layer0016
  6
Continuous
 62
     3
370
    25
100
AcDbLine
 10
-46.19999797642231
 20
-32.94999857991934
 30
0.0
 11
-42.19999791681767
 21
-32.94999857991934
 31
0.0
  0
LINE
  5
2D2
330
1F
100
AcDbEntity
  8
Layer0016
  6
Continuous
 62
     3
370
    25
100
AcDbLine
 10
-42.19999791681767
 20
-32.94999857991934
 30
0.0
 11
-42.19999791681767
 21
64.650002874434
 31
0.0
  0
LINE
  5
2D3
330
1F
100
AcDbEntity
  8
Layer0016
  6
Continuous
 62
     3
370
    25
100
AcDbLine
 10
-46.19999797642231
 20
64.650002874434
 30
0.0
 11
-42.19999791681767
 21
64.650002874434
 31
0.0
  0
LINE
  5
2D4
330
1F
100
AcDbEntity
  8
Layer0016
  6
Continuous
 62
     3
370
    25
100
AcDbLine
 10
-45.39999796450138
 20
-32.94999857991934
 30
0.0
 11
-45.39999796450138
 21
64.650002874434
 31
0.0
  0
LINE
  5
2D5
330
1F
100
AcDbEntity
  8
Layer0016
  6
Continuous
 62
     3
370
    25
100
AcDbLine
 10
-42.99999792873859
 20
-32.94999857991934
 30
0.0
 11
-42.99999792873859
 21
64.650002874434
 31
0.0
  0
LINE
  5
2D6
330
1F
100
AcDbEntity
  8
Layer0016
  6
Continuous
 62
     3
370
    25
100
AcDbLine
 10
-44.19999794661999
 20
-31.94999856501818
 30
0.0
 11
-44.19999794661999
 21
63.65000285953283
 31
0.0
  0
LINE
  5
2D7
330
1F
100
AcDbEntity
  8
Layer0016
  6
Continuous
 62
     3
370
    25
100
AcDbLine
 10
-136.9999993294477
 20
56.6500027552247
 30
0.0
 11
-135.4199992868305
 21
56.6500027552247
 31
0.0
  0
LINE
  5
2D8
330
1F
100
AcDbEntity
  8
Layer0016
  6
Continuous
 62
     3
370
    25
100
AcDbLine
 10
-131.4200004670024
 20
56.6500027552247
 30
0.0
 11
-129.8400004243851
 21
56.6500027552247
 31
0.0
  0
LINE
  5
2D9
330
1F
100
AcDbEntity
  8
Layer0016
  6
Continuous
 62
     3
370
    25
100
AcDbLine
 10
-125.840001604557
 20
56.6500027552247
 30
0.0
 11
-124.2600015619397
 21
56.6500027552247
 31
0.0
  0
LINE
  5
2DA
330
1F
100
AcDbEntity
  8
Layer0016
  6
Continuous
 62
     3
370
    25
100
AcDbLine
 10
-120.259996638596
 20
56.6500027552247
 30
0.0
 11
-118.6799965959787
 21
56.6500027552247
 31
0.0
  0
LINE
  5
2DB
330
1F
100
AcDbEntity
  8
Layer0016
  6
Continuous
 62
     3
370
    25
100
AcDbLine
 10
-114.6799977761507
 20
56.6500027552247
 30
0.0
 11
-113.0999977335333
 21
56.6500027552247
 31
0.0
  0
LINE
  5
2DC
330
1F
100
AcDbEntity
  8
Layer0016
  6
Continuous
 62
     3
370
    25
100
AcDbLine
 10
-109.0999989137053
 20
56.6500027552247
 30
0.0
 11
-107.519998871088
 21
56.6500027552247
 31
0.0
  0
LINE
  5
2DD
330
1F
100
AcDbEntity
  8
Layer0016
  6
Continuous
 62
     3
370
    25
100
AcDbLine
 10
-103.52000005126
 20
56.6500027552247
 30
0.0
 11
-101.9400000086427
 21
56.6500027552247
 31
0.0
  0
LINE
  5
2DE
330
1F
100
AcDbEntity
  8
Layer0016
  6
Continuous
 62
     3
370
    25
100
AcDbLine
 10
-97.94000118881468
 20
56.6500027552247
 30
0.0
 11
-96.36000114619736
 21
56.6500027552247
 31
0.0
  0
LINE
  5
2DF
330
1F
100
AcDbEntity
  8
Layer0016
  6
Continuous
 62
     3
370
    25
100
AcDbLine
 10
-92.35999622285362
 20
56.6500027552247
 30
0.0
 11
-90.77999618023631
 21
56.6500027552247
 31
0.0
  0
LINE
  5
2E0
330
1F
100
AcDbEntity
  8
Layer0016
  6
Continuous
 62
     3
370
    25
100
AcDbLine
 10
-86.77999736040829
 20
56.6500027552247
 30
0.0
 11
-85.19999731779097
 21
56.6500027552247
 31
0.0
  0
LINE
  5
2E1
330
1F
100
AcDbEntity
  8
Layer0016
  6
Continuous
 62
     3
370
    25
100
AcDbLine
 10
-81.19999849796295
 20
56.6500027552247
 30
0.0
 11
-79.61999845534564
 21
56.6500027552247
 31
0.0
  0
LINE
  5
2E2
330
1F
100
AcDbEntity
  8
Layer0016
  6
Continuous
 62
     3
370
    25
100
AcDbLine
 10
-75.6199935320019
 20
56.6500027552247
 30
0.0
 11
-74.03999348938459
 21
56.6500027552247
 31
0.0
  0
LINE
  5
2E3
330
1F
100
AcDbEntity
  8
Layer0016
  6
Continuous
 62
     3
370
    25
100
AcDbLine
 10
-70.04000077307228
 20
56.6500027552247
 30
0.0
 11
-68.46000073045496
 21
56.6500027552247
 31
0.0
  0
LINE
  5
2E4
330
1F
100
AcDbEntity
  8
Layer0016
  6
Continuous
 62
     3
370
    25
100
AcDbLine
 10
-64.45999580711123
 20
56.6500027552247
 30
0.0
 11
-62.87999576449391
 21
56.6500027552247
 31
0.0
  0
LINE
  5
2E5
330
1F
100
AcDbEntity
  8
Layer0016
  6
Continuous
 62
     3
370
    25
100
AcDbLine
 10
-58.88000304818161
 20
56.6500027552247
 30
0.0
 11
-57.30000300556429
 21
56.6500027552247
 31
0.0
  0
LINE
  5
2E6
330
1F
100
AcDbEntity
  8
Layer0016
  6
Continuous
 62
     3
370
    25
100
AcDbLine
 10
-53.29999808222055
 20
56.6500027552247
 30
0.0
 11
-51.71999803960323
 21
56.6500027552247
 31
0.0
  0
LINE
  5
2E7
330
1F
100
AcDbEntity
  8
Layer0016
  6
Continuous
 62
     3
370
    25
100
AcDbLine
 10
-47.7199931162595
 20
56.6500027552247
 30
0.0
 11
-46.13999307364219
 21
56.6500027552247
 31
0.0
  0
LINE
  5
2E8
330
1F
100
AcDbEntity
  8
Layer0016
  6
Continuous
 62
     3
370
    25
100
AcDbLine
 10
-136.9999993294477
 20
-24.94999846071005
 30
0.0
 11
-135.4199992868305
 21
-24.94999846071005
 31
0.0
  0
LINE
  5
2E9
330
1F
100
AcDbEntity
  8
Layer0016
  6
Continuous
 62
     3
370
    25
100
AcDbLine
 10
-131.4200004670024
 20
-24.94999846071005
 30
0.0
 11
-129.8400004243851
 21
-24.94999846071005
 31
0.0
  0
LINE
  5
2EA
330
1F
100
AcDbEntity
  8
Layer0016
  6
Continuous
 62
     3
370
    25
100
AcDbLine
 10
-125.840001604557
 20
-24.94999846071005
 30
0.0
 11
-124.2600015619397
 21
-24.94999846071005
 31
0.0
  0
LINE
  5
2EB
330
1F
100
AcDbEntity
  8
Layer0016
  6
Continuous
 62
     3
370
    25
100
AcDbLine
 10
-120.259996638596
 20
-24.94999846071005
 30
0.0
 11
-118.6799965959787
 21
-24.94999846071005
 31
0.0
  0
LINE
  5
2EC
330
1F
100
AcDbEntity
  8
Layer0016
  6
Continuous
 62
     3
370
    25
100
AcDbLine
 10
-114.6799977761507
 20
-24.94999846071005
 30
0.0
 11
-113.0999977335333
 21
-24.94999846071005
 31
0.0
  0
LINE
  5
2ED
330
1F
100
AcDbEntity
  8
Layer0016
  6
Continuous
 62
     3
370
    25
100
AcDbLine
 10
-109.0999989137053
 20
-24.94999846071005
 30
0.0
 11
-107.519998871088
 21
-24.94999846071005
 31
0.0
  0
LINE
  5
2EE
330
1F
100
AcDbEntity
  8
Layer0016
  6
Continuous
 62
     3
370
    25
100
AcDbLine
 10
-103.52000005126
 20
-24.94999846071005
 30
0.0
 11
-101.9400000086427
 21
-24.94999846071005
 31
0.0
  0
LINE
  5
2EF
330
1F
100
AcDbEntity
  8
Layer0016
  6
Continuous
 62
     3
370
    25
100
AcDbLine
 10
-97.94000118881468
 20
-24.94999846071005
 30
0.0
 11
-96.36000114619736
 21
-24.94999846071005
 31
0.0
  0
LINE
  5
2F0
330
1F
100
AcDbEntity
  8
Layer0016
  6
Continuous
 62
     3
370
    25
100
AcDbLine
 10
-92.35999622285362
 20
-24.94999846071005
 30
0.0
 11
-90.77999618023631
 21
-24.94999846071005
 31
0.0
  0
LINE
  5
2F1
330
1F
100
AcDbEntity
  8
Layer0016
  6
Continuous
 62
     3
370
    25
100
AcDbLine
 10
-86.77999736040829
 20
-24.94999846071005
 30
0.0
 11
-85.19999731779097
 21
-24.94999846071005
 31
0.0
  0
LINE
  5
2F2
330
1F
100
AcDbEntity
  8
Layer0016
  6
Continuous
 62
     3
370
    25
100
AcDbLine
 10
-81.19999849796295
 20
-24.94999846071005
 30
0.0
 11
-79.61999845534564
 21
-24.94999846071005
 31
0.0
  0
LINE
  5
2F3
330
1F
100
AcDbEntity
  8
Layer0016
  6
Continuous
 62
     3
370
    25
100
AcDbLine
 10
-75.6199935320019
 20
-24.94999846071005
 30
0.0
 11
-74.03999348938459
 21
-24.94999846071005
 31
0.0
  0
LINE
  5
2F4
330
1F
100
AcDbEntity
  8
Layer0016
  6
Continuous
 62
     3
370
    25
100
AcDbLine
 10
-70.04000077307228
 20
-24.94999846071005
 30
0.0
 11
-68.46000073045496
 21
-24.94999846071005
 31
0.0
  0
LINE
  5
2F5
330
1F
100
AcDbEntity
  8
Layer0016
  6
Continuous
 62
     3
370
    25
100
AcDbLine
 10
-64.45999580711123
 20
-24.94999846071005
 30
0.0
 11
-62.87999576449391
 21
-24.94999846071005
 31
0.0
  0
LINE
  5
2F6
330
1F
100
AcDbEntity
  8
Layer0016
  6
Continuous
 62
     3
370
    25
100
AcDbLine
 10
-58.88000304818161
 20
-24.94999846071005
 30
0.0
 11
-57.30000300556429
 21
-24.94999846071005
 31
0.0
  0
LINE
  5
2F7
330
1F
100
AcDbEntity
  8
Layer0016
  6
Continuous
 62
     3
370
    25
100
AcDbLine
 10
-53.29999808222055
 20
-24.94999846071005
 30
0.0
 11
-51.71999803960323
 21
-24.94999846071005
 31
0.0
  0
LINE
  5
2F8
330
1F
100
AcDbEntity
  8
Layer0016
  6
Continuous
 62
     3
370
    25
100
AcDbLine
 10
-47.7199931162595
 20
-24.94999846071005
 30
0.0
 11
-46.13999307364219
 21
-24.94999846071005
 31
0.0
  0
LINE
  5
2F9
330
1F
100
AcDbEntity
  8
Layer0016
  6
Continuous
 62
     3
370
    25
100
AcDbLine
 10
2.800002753734589
 20
64.650002874434
 30
0.0
 11
9.20000284910202
 21
64.650002874434
 31
0.0
  0
LINE
  5
2FA
330
1F
100
AcDbEntity
  8
Layer0016
  6
Continuous
 62
     3
370
    25
100
AcDbLine
 10
9.20000284910202
 20
64.650002874434
 30
0.0
 11
9.20000284910202
 21
65.25000288337469
 31
0.0
  0
LINE
  5
2FB
330
1F
100
AcDbEntity
  8
Layer0016
  6
Continuous
 62
     3
370
    25
100
AcDbLine
 10
9.20000284910202
 20
65.25000288337469
 30
0.0
 11
2.800002753734589
 21
65.85000289231539
 31
0.0
  0
LINE
  5
2FC
330
1F
100
AcDbEntity
  8
Layer0016
  6
Continuous
 62
     3
370
    25
100
AcDbLine
 10
2.800002753734589
 20
65.85000289231539
 30
0.0
 11
2.800002753734589
 21
64.650002874434
 31
0.0
  0
LINE
  5
2FD
330
1F
100
AcDbEntity
  8
Layer0016
  6
Continuous
 62
     3
370
    25
100
AcDbLine
 10
2.800002753734589
 20
-32.94999857991934
 30
0.0
 11
9.20000284910202
 21
-32.94999857991934
 31
0.0
  0
LINE
  5
2FE
330
1F
100
AcDbEntity
  8
Layer0016
  6
Continuous
 62
     3
370
    25
100
AcDbLine
 10
9.20000284910202
 20
-32.94999857991934
 30
0.0
 11
9.20000284910202
 21
-33.54999858886003
 31
0.0
  0
LINE
  5
2FF
330
1F
100
AcDbEntity
  8
Layer0016
  6
Continuous
 62
     3
370
    25
100
AcDbLine
 10
9.20000284910202
 20
-33.54999858886003
 30
0.0
 11
2.800002753734589
 21
-34.14999859780073
 31
0.0
  0
LINE
  5
300
330
1F
100
AcDbEntity
  8
Layer0016
  6
Continuous
 62
     3
370
    25
100
AcDbLine
 10
2.800002753734589
 20
-34.14999859780073
 30
0.0
 11
2.800002753734589
 21
-32.94999857991934
 31
0.0
  0
ARC
  5
301
330
1F
100
AcDbEntity
  8
Layer0016
  6
Continuous
 62
     3
370
    25
100
AcDbCircle
 10
6.400002807378769
 20
45.85000259429216
 30
0.0
 40
0.800000011920929
100
AcDbArc
 50
46.60000000000011
 51
133.4000000000003
  0
ARC
  5
302
330
1F
100
AcDbEntity
  8
Layer0016
  6
Continuous
 62
     3
370
    25
100
AcDbCircle
 10
6.400002807378769
 20
45.85000259429216
 30
0.0
 40
0.800000011920929
100
AcDbArc
 50
226.6000000000004
 51
313.4000000000007
  0
LINE
  5
303
330
1F
100
AcDbEntity
  8
Layer0016
  6
Continuous
 62
     3
370
    25
100
AcDbLine
 10
6.800002813339233
 20
46.45000260323286
 30
0.0
 11
6.000002801418304
 21
46.45000260323286
 31
0.0
  0
ARC
  5
304
330
1F
100
AcDbEntity
  8
Layer0016
  6
Continuous
 62
     3
370
    25
100
AcDbCircle
 10
6.000002605341365
 20
45.8500025942922
 30
0.0
 40
0.6000000089406967
100
AcDbArc
 50
90.0000000000002
 51
270.0000000000006
  0
LINE
  5
305
330
1F
100
AcDbEntity
  8
Layer0016
  6
Continuous
 62
     3
370
    25
100
AcDbLine
 10
6.000002017110543
 20
45.25000258535179
 30
0.0
 11
6.800002029031472
 21
45.25000258535179
 31
0.0
  0
ARC
  5
306
330
1F
100
AcDbEntity
  8
Layer0016
  6
Continuous
 62
     3
370
    25
100
AcDbCircle
 10
6.800002617262294
 20
45.8500025942922
 30
0.0
 40
0.6000000089406967
100
AcDbArc
 50
270.0000000000006
 51
90.00000000000102
  0
LINE
  5
307
330
1F
100
AcDbEntity
  8
Layer0016
  6
Continuous
 62
     3
370
    25
100
AcDbLine
 10
4.800002783536911
 20
45.85000259429216
 30
0.0
 11
8.000002831220627
 21
45.85000259429216
 31
0.0
  0
LINE
  5
308
330
1F
100
AcDbEntity
  8
Layer0016
  6
Continuous
 62
     3
370
    25
100
AcDbLine
 10
6.400002807378769
 20
47.05000261217356
 30
0.0
 11
6.400002807378769
 21
44.65000257641077
 31
0.0
  0
ARC
  5
309
330
1F
100
AcDbEntity
  8
Layer0016
  6
Continuous
 62
     3
370
    25
100
AcDbCircle
 10
6.400002807378769
 20
25.85000229626894
 30
0.0
 40
0.800000011920929
100
AcDbArc
 50
46.60000000000011
 51
133.4000000000003
  0
ARC
  5
30A
330
1F
100
AcDbEntity
  8
Layer0016
  6
Continuous
 62
     3
370
    25
100
AcDbCircle
 10
6.400002807378769
 20
25.85000229626894
 30
0.0
 40
0.800000011920929
100
AcDbArc
 50
226.6000000000004
 51
313.4000000000007
  0
LINE
  5
30B
330
1F
100
AcDbEntity
  8
Layer0016
  6
Continuous
 62
     3
370
    25
100
AcDbLine
 10
6.800002813339233
 20
26.45000230520964
 30
0.0
 11
6.000002801418304
 21
26.45000230520964
 31
0.0
  0
ARC
  5
30C
330
1F
100
AcDbEntity
  8
Layer0016
  6
Continuous
 62
     3
370
    25
100
AcDbCircle
 10
6.000002605341365
 20
25.85000229626897
 30
0.0
 40
0.6000000089406967
100
AcDbArc
 50
90.0000000000002
 51
270.0000000000006
  0
LINE
  5
30D
330
1F
100
AcDbEntity
  8
Layer0016
  6
Continuous
 62
     3
370
    25
100
AcDbLine
 10
6.000002017110543
 20
25.25000228732856
 30
0.0
 11
6.800002029031472
 21
25.25000228732856
 31
0.0
  0
ARC
  5
30E
330
1F
100
AcDbEntity
  8
Layer0016
  6
Continuous
 62
     3
370
    25
100
AcDbCircle
 10
6.800002617262294
 20
25.85000229626897
 30
0.0
 40
0.6000000089406967
100
AcDbArc
 50
270.0000000000006
 51
90.00000000000102
  0
LINE
  5
30F
330
1F
100
AcDbEntity
  8
Layer0016
  6
Continuous
 62
     3
370
    25
100
AcDbLine
 10
4.800002783536911
 20
25.85000229626894
 30
0.0
 11
8.000002831220627
 21
25.85000229626894
 31
0.0
  0
LINE
  5
310
330
1F
100
AcDbEntity
  8
Layer0016
  6
Continuous
 62
     3
370
    25
100
AcDbLine
 10
6.400002807378769
 20
27.05000231415033
 30
0.0
 11
6.400002807378769
 21
24.65000227838755
 31
0.0
  0
ARC
  5
311
330
1F
100
AcDbEntity
  8
Layer0016
  6
Continuous
 62
     3
370
    25
100
AcDbCircle
 10
6.400002807378769
 20
5.850001998245716
 30
0.0
 40
0.800000011920929
100
AcDbArc
 50
46.60000000000011
 51
133.4000000000003
  0
ARC
  5
312
330
1F
100
AcDbEntity
  8
Layer0016
  6
Continuous
 62
     3
370
    25
100
AcDbCircle
 10
6.400002807378769
 20
5.850001998245716
 30
0.0
 40
0.800000011920929
100
AcDbArc
 50
226.6000000000004
 51
313.4000000000007
  0
LINE
  5
313
330
1F
100
AcDbEntity
  8
Layer0016
  6
Continuous
 62
     3
370
    25
100
AcDbLine
 10
6.800002813339233
 20
6.450002007186413
 30
0.0
 11
6.000002801418304
 21
6.450002007186413
 31
0.0
  0
ARC
  5
314
330
1F
100
AcDbEntity
  8
Layer0016
  6
Continuous
 62
     3
370
    25
100
AcDbCircle
 10
6.000002605341365
 20
5.850001998245748
 30
0.0
 40
0.6000000089406967
100
AcDbArc
 50
90.0000000000002
 51
270.0000000000006
  0
LINE
  5
315
330
1F
100
AcDbEntity
  8
Layer0016
  6
Continuous
 62
     3
370
    25
100
AcDbLine
 10
6.000002017110543
 20
5.250001989305339
 30
0.0
 11
6.800002029031472
 21
5.250001989305339
 31
0.0
  0
ARC
  5
316
330
1F
100
AcDbEntity
  8
Layer0016
  6
Continuous
 62
     3
370
    25
100
AcDbCircle
 10
6.800002617262294
 20
5.850001998245748
 30
0.0
 40
0.6000000089406967
100
AcDbArc
 50
270.0000000000006
 51
90.00000000000102
  0
LINE
  5
317
330
1F
100
AcDbEntity
  8
Layer0016
  6
Continuous
 62
     3
370
    25
100
AcDbLine
 10
4.800002783536911
 20
5.850001998245716
 30
0.0
 11
8.000002831220627
 21
5.850001998245716
 31
0.0
  0
LINE
  5
318
330
1F
100
AcDbEntity
  8
Layer0016
  6
Continuous
 62
     3
370
    25
100
AcDbLine
 10
6.400002807378769
 20
7.050002016127109
 30
0.0
 11
6.400002807378769
 21
4.650001980364323
 31
0.0
  0
ARC
  5
319
330
1F
100
AcDbEntity
  8
Layer0016
  6
Continuous
 62
     3
370
    25
100
AcDbCircle
 10
6.400002807378769
 20
-14.14999829977751
 30
0.0
 40
0.800000011920929
100
AcDbArc
 50
46.60000000000011
 51
133.4000000000003
  0
ARC
  5
31A
330
1F
100
AcDbEntity
  8
Layer0016
  6
Continuous
 62
     3
370
    25
100
AcDbCircle
 10
6.400002807378769
 20
-14.14999829977751
 30
0.0
 40
0.800000011920929
100
AcDbArc
 50
226.6000000000004
 51
313.4000000000007
  0
LINE
  5
31B
330
1F
100
AcDbEntity
  8
Layer0016
  6
Continuous
 62
     3
370
    25
100
AcDbLine
 10
6.800002813339233
 20
-13.54999829083681
 30
0.0
 11
6.000002801418304
 21
-13.54999829083681
 31
0.0
  0
ARC
  5
31C
330
1F
100
AcDbEntity
  8
Layer0016
  6
Continuous
 62
     3
370
    25
100
AcDbCircle
 10
6.000002605341365
 20
-14.14999829977748
 30
0.0
 40
0.6000000089406967
100
AcDbArc
 50
90.0000000000002
 51
270.0000000000006
  0
LINE
  5
31D
330
1F
100
AcDbEntity
  8
Layer0016
  6
Continuous
 62
     3
370
    25
100
AcDbLine
 10
6.000002017110543
 20
-14.74999830871788
 30
0.0
 11
6.800002029031472
 21
-14.74999830871788
 31
0.0
  0
ARC
  5
31E
330
1F
100
AcDbEntity
  8
Layer0016
  6
Continuous
 62
     3
370
    25
100
AcDbCircle
 10
6.800002617262294
 20
-14.14999829977748
 30
0.0
 40
0.6000000089406967
100
AcDbArc
 50
270.0000000000006
 51
90.00000000000102
  0
LINE
  5
31F
330
1F
100
AcDbEntity
  8
Layer0016
  6
Continuous
 62
     3
370
    25
100
AcDbLine
 10
4.800002783536911
 20
-14.14999829977751
 30
0.0
 11
8.000002831220627
 21
-14.14999829977751
 31
0.0
  0
LINE
  5
320
330
1F
100
AcDbEntity
  8
Layer0016
  6
Continuous
 62
     3
370
    25
100
AcDbLine
 10
6.400002807378769
 20
-12.94999828189611
 30
0.0
 11
6.400002807378769
 21
-15.3499983176589
 31
0.0
  0
LINE
  5
321
330
1F
100
AcDbEntity
  8
Layer0016
  6
Continuous
 62
     3
370
    25
100
AcDbLine
 10
2.800002753734589
 20
64.650002874434
 30
0.0
 11
2.800002753734589
 21
-32.94999857991934
 31
0.0
  0
LINE
  5
322
330
1F
100
AcDbEntity
  8
Layer0016
  6
Continuous
 62
     3
370
    25
100
AcDbLine
 10
2.800002753734589
 20
-32.94999857991934
 30
0.0
 11
11.60000288486481
 21
-32.94999857991934
 31
0.0
  0
LINE
  5
323
330
1F
100
AcDbEntity
  8
Layer0016
  6
Continuous
 62
     3
370
    25
100
AcDbLine
 10
11.60000288486481
 20
-32.94999857991934
 30
0.0
 11
11.60000288486481
 21
64.650002874434
 31
0.0
  0
LINE
  5
324
330
1F
100
AcDbEntity
  8
Layer0016
  6
Continuous
 62
     3
370
    25
100
AcDbLine
 10
11.60000288486481
 20
64.650002874434
 30
0.0
 11
2.800002753734589
 21
64.650002874434
 31
0.0
  0
LINE
  5
325
330
1F
100
AcDbEntity
  8
Layer0016
  6
Continuous
 62
     3
370
    25
100
AcDbLine
 10
3.200002759695053
 20
64.650002874434
 30
0.0
 11
3.200002759695053
 21
-32.94999857991934
 31
0.0
  0
LINE
  5
326
330
1F
100
AcDbEntity
  8
Layer0016
  6
Continuous
 62
     3
370
    25
100
AcDbLine
 10
4.600002780556679
 20
-32.94999857991934
 30
0.0
 11
4.600002780556679
 21
64.650002874434
 31
0.0
  0
LINE
  5
327
330
1F
100
AcDbEntity
  8
Layer0016
  6
Continuous
 62
     3
370
    25
100
AcDbLine
 10
5.400002792477608
 20
64.650002874434
 30
0.0
 11
5.400002792477608
 21
-32.94999857991934
 31
0.0
  0
LINE
  5
328
330
1F
100
AcDbEntity
  8
Layer0016
  6
Continuous
 62
     3
370
    25
100
AcDbLine
 10
11.60000288486481
 20
64.0500028654933
 30
0.0
 11
24.6000030785799
 21
64.0500028654933
 31
0.0
  0
LINE
  5
329
330
1F
100
AcDbEntity
  8
Layer0016
  6
Continuous
 62
     3
370
    25
100
AcDbLine
 10
24.6000030785799
 20
64.0500028654933
 30
0.0
 11
24.6000030785799
 21
56.05000274628401
 31
0.0
  0
LINE
  5
32A
330
1F
100
AcDbEntity
  8
Layer0016
  6
Continuous
 62
     3
370
    25
100
AcDbLine
 10
24.6000030785799
 20
56.05000274628401
 30
0.0
 11
11.60000288486481
 21
56.05000274628401
 31
0.0
  0
LINE
  5
32B
330
1F
100
AcDbEntity
  8
Layer0016
  6
Continuous
 62
     3
370
    25
100
AcDbLine
 10
11.60000288486481
 20
56.05000274628401
 30
0.0
 11
11.60000288486481
 21
64.0500028654933
 31
0.0
  0
LINE
  5
32C
330
1F
100
AcDbEntity
  8
Layer0016
  6
Continuous
 62
     3
370
    25
100
AcDbLine
 10
12.2000028938055
 20
63.4500028565526
 30
0.0
 11
24.00000306963921
 21
63.4500028565526
 31
0.0
  0
LINE
  5
32D
330
1F
100
AcDbEntity
  8
Layer0016
  6
Continuous
 62
     3
370
    25
100
AcDbLine
 10
24.00000306963921
 20
63.4500028565526
 30
0.0
 11
24.00000306963921
 21
56.6500027552247
 31
0.0
  0
LINE
  5
32E
330
1F
100
AcDbEntity
  8
Layer0016
  6
Continuous
 62
     3
370
    25
100
AcDbLine
 10
24.00000306963921
 20
56.6500027552247
 30
0.0
 11
12.2000028938055
 21
56.6500027552247
 31
0.0
  0
LINE
  5
32F
330
1F
100
AcDbEntity
  8
Layer0016
  6
Continuous
 62
     3
370
    25
100
AcDbLine
 10
12.2000028938055
 20
56.6500027552247
 30
0.0
 11
12.2000028938055
 21
63.4500028565526
 31
0.0
  0
LINE
  5
330
330
1F
100
AcDbEntity
  8
Layer0016
  6
Continuous
 62
     3
370
    25
100
AcDbLine
 10
11.60000288486481
 20
-32.34999857097864
 30
0.0
 11
24.6000030785799
 21
-32.34999857097864
 31
0.0
  0
LINE
  5
331
330
1F
100
AcDbEntity
  8
Layer0016
  6
Continuous
 62
     3
370
    25
100
AcDbLine
 10
24.6000030785799
 20
-32.34999857097864
 30
0.0
 11
24.6000030785799
 21
-24.34999845176935
 31
0.0
  0
LINE
  5
332
330
1F
100
AcDbEntity
  8
Layer0016
  6
Continuous
 62
     3
370
    25
100
AcDbLine
 10
24.6000030785799
 20
-24.34999845176935
 30
0.0
 11
11.60000288486481
 21
-24.34999845176935
 31
0.0
  0
LINE
  5
333
330
1F
100
AcDbEntity
  8
Layer0016
  6
Continuous
 62
     3
370
    25
100
AcDbLine
 10
11.60000288486481
 20
-24.34999845176935
 30
0.0
 11
11.60000288486481
 21
-32.34999857097864
 31
0.0
  0
LINE
  5
334
330
1F
100
AcDbEntity
  8
Layer0016
  6
Continuous
 62
     3
370
    25
100
AcDbLine
 10
12.2000028938055
 20
-31.74999856203794
 30
0.0
 11
24.00000306963921
 21
-31.74999856203794
 31
0.0
  0
LINE
  5
335
330
1F
100
AcDbEntity
  8
Layer0016
  6
Continuous
 62
     3
370
    25
100
AcDbLine
 10
24.00000306963921
 20
-31.74999856203794
 30
0.0
 11
24.00000306963921
 21
-24.94999846071005
 31
0.0
  0
LINE
  5
336
330
1F
100
AcDbEntity
  8
Layer0016
  6
Continuous
 62
     3
370
    25
100
AcDbLine
 10
24.00000306963921
 20
-24.94999846071005
 30
0.0
 11
12.2000028938055
 21
-24.94999846071005
 31
0.0
  0
LINE
  5
337
330
1F
100
AcDbEntity
  8
Layer0016
  6
Continuous
 62
     3
370
    25
100
AcDbLine
 10
12.2000028938055
 20
-24.94999846071005
 30
0.0
 11
12.2000028938055
 21
-31.74999856203794
 31
0.0
  0
LINE
  5
338
330
1F
100
AcDbEntity
  8
Layer0016
  6
Continuous
 62
     3
370
    25
100
AcDbLine
 10
-140.9999993890524
 20
-77.94999925047159
 30
0.0
 11
-140.9999993890524
 21
-78.34999925643206
 31
0.0
  0
LINE
  5
339
330
1F
100
AcDbEntity
  8
Layer0016
  6
Continuous
 62
     3
370
    25
100
AcDbLine
 10
-140.9999993890524
 20
-78.34999925643206
 30
0.0
 11
-140.3999993801117
 21
-78.34999925643206
 31
0.0
  0
LINE
  5
33A
330
1F
100
AcDbEntity
  8
Layer0016
  6
Continuous
 62
     3
370
    25
100
AcDbLine
 10
-140.3999993801117
 20
-78.34999925643206
 30
0.0
 11
-139.5999993681907
 21
-79.74999927729368
 31
0.0
  0
LINE
  5
33B
330
1F
100
AcDbEntity
  8
Layer0016
  6
Continuous
 62
     3
370
    25
100
AcDbLine
 10
-139.5999993681907
 20
-79.74999927729368
 30
0.0
 11
-139.5999993681907
 21
-80.34999928623438
 31
0.0
  0
LINE
  5
33C
330
1F
100
AcDbEntity
  8
Layer0016
  6
Continuous
 62
     3
370
    25
100
AcDbLine
 10
-139.5999993681907
 20
-80.34999928623438
 30
0.0
 11
-139.3999993652105
 21
-80.54999928921461
 31
0.0
  0
LINE
  5
33D
330
1F
100
AcDbEntity
  8
Layer0016
  6
Continuous
 62
     3
370
    25
100
AcDbLine
 10
-139.3999993652105
 20
-80.54999928921461
 30
0.0
 11
-139.3999993652105
 21
-86.74999938160181
 31
0.0
  0
LINE
  5
33E
330
1F
100
AcDbEntity
  8
Layer0016
  6
Continuous
 62
     3
370
    25
100
AcDbLine
 10
-139.3999993652105
 20
-86.74999938160181
 30
0.0
 11
-138.5999993532896
 21
-86.74999938160181
 31
0.0
  0
LINE
  5
33F
330
1F
100
AcDbEntity
  8
Layer0016
  6
Continuous
 62
     3
370
    25
100
AcDbLine
 10
-138.5999993532896
 20
-86.74999938160181
 30
0.0
 11
-138.5999993532896
 21
-80.54999928921461
 31
0.0
  0
LINE
  5
340
330
1F
100
AcDbEntity
  8
Layer0016
  6
Continuous
 62
     3
370
    25
100
AcDbLine
 10
-138.5999993532896
 20
-80.54999928921461
 30
0.0
 11
-138.3999993503093
 21
-80.34999928623438
 31
0.0
  0
LINE
  5
341
330
1F
100
AcDbEntity
  8
Layer0016
  6
Continuous
 62
     3
370
    25
100
AcDbLine
 10
-138.3999993503093
 20
-80.34999928623438
 30
0.0
 11
-138.3999993503093
 21
-79.74999927729368
 31
0.0
  0
LINE
  5
342
330
1F
100
AcDbEntity
  8
Layer0016
  6
Continuous
 62
     3
370
    25
100
AcDbLine
 10
-138.3999993503093
 20
-79.74999927729368
 30
0.0
 11
-137.5999993383884
 21
-78.34999925643206
 31
0.0
  0
LINE
  5
343
330
1F
100
AcDbEntity
  8
Layer0016
  6
Continuous
 62
     3
370
    25
100
AcDbLine
 10
-137.5999993383884
 20
-78.34999925643206
 30
0.0
 11
-136.9999993294477
 21
-78.34999925643206
 31
0.0
  0
LINE
  5
344
330
1F
100
AcDbEntity
  8
Layer0016
  6
Continuous
 62
     3
370
    25
100
AcDbLine
 10
-136.9999993294477
 20
-78.34999925643206
 30
0.0
 11
-136.9999993294477
 21
-77.94999925047159
 31
0.0
  0
LINE
  5
345
330
1F
100
AcDbEntity
  8
Layer0016
  6
Continuous
 62
     3
370
    25
100
AcDbLine
 10
-136.9999993294477
 20
-77.94999925047159
 30
0.0
 11
-137.7999993413687
 21
-77.94999925047159
 31
0.0
  0
LINE
  5
346
330
1F
100
AcDbEntity
  8
Layer0016
  6
Continuous
 62
     3
370
    25
100
AcDbLine
 10
-137.7999993413687
 20
-77.94999925047159
 30
0.0
 11
-138.99999935925
 21
-79.14999926835299
 31
0.0
  0
LINE
  5
347
330
1F
100
AcDbEntity
  8
Layer0016
  6
Continuous
 62
     3
370
    25
100
AcDbLine
 10
-138.99999935925
 20
-79.14999926835299
 30
0.0
 11
-140.1999993771314
 21
-77.94999925047159
 31
0.0
  0
LINE
  5
348
330
1F
100
AcDbEntity
  8
Layer0016
  6
Continuous
 62
     3
370
    25
100
AcDbLine
 10
-140.1999993771314
 20
-77.94999925047159
 30
0.0
 11
-140.9999993890524
 21
-77.94999925047159
 31
0.0
  0
CIRCLE
  5
349
330
1F
100
AcDbEntity
  8
Layer0016
  6
Continuous
 62
     3
370
    25
100
AcDbCircle
 10
-138.9999994768962
 20
-78.64999926090239
 30
0.0
 40
0.3599999958276747
  0
LINE
  5
34A
330
1F
100
AcDbEntity
  8
Layer0016
  6
Continuous
 62
     3
370
    25
100
AcDbLine
 10
-135.420000526607
 20
-77.94999925047159
 30
0.0
 11
-135.420000526607
 21
-78.34999925643206
 31
0.0
  0
LINE
  5
34B
330
1F
100
AcDbEntity
  8
Layer0016
  6
Continuous
 62
     3
370
    25
100
AcDbLine
 10
-135.420000526607
 20
-78.34999925643206
 30
0.0
 11
-134.8200005176663
 21
-78.34999925643206
 31
0.0
  0
LINE
  5
34C
330
1F
100
AcDbEntity
  8
Layer0016
  6
Continuous
 62
     3
370
    25
100
AcDbLine
 10
-134.8200005176663
 20
-78.34999925643206
 30
0.0
 11
-134.0200005057454
 21
-79.74999927729368
 31
0.0
  0
LINE
  5
34D
330
1F
100
AcDbEntity
  8
Layer0016
  6
Continuous
 62
     3
370
    25
100
AcDbLine
 10
-134.0200005057454
 20
-79.74999927729368
 30
0.0
 11
-134.0200005057454
 21
-80.34999928623438
 31
0.0
  0
LINE
  5
34E
330
1F
100
AcDbEntity
  8
Layer0016
  6
Continuous
 62
     3
370
    25
100
AcDbLine
 10
-134.0200005057454
 20
-80.34999928623438
 30
0.0
 11
-133.8200005027652
 21
-80.54999928921461
 31
0.0
  0
LINE
  5
34F
330
1F
100
AcDbEntity
  8
Layer0016
  6
Continuous
 62
     3
370
    25
100
AcDbLine
 10
-133.8200005027652
 20
-80.54999928921461
 30
0.0
 11
-133.8200005027652
 21
-86.74999938160181
 31
0.0
  0
LINE
  5
350
330
1F
100
AcDbEntity
  8
Layer0016
  6
Continuous
 62
     3
370
    25
100
AcDbLine
 10
-133.8200005027652
 20
-86.74999938160181
 30
0.0
 11
-133.0200004908442
 21
-86.74999938160181
 31
0.0
  0
LINE
  5
351
330
1F
100
AcDbEntity
  8
Layer0016
  6
Continuous
 62
     3
370
    25
100
AcDbLine
 10
-133.0200004908442
 20
-86.74999938160181
 30
0.0
 11
-133.0200004908442
 21
-80.54999928921461
 31
0.0
  0
LINE
  5
352
330
1F
100
AcDbEntity
  8
Layer0016
  6
Continuous
 62
     3
370
    25
100
AcDbLine
 10
-133.0200004908442
 20
-80.54999928921461
 30
0.0
 11
-132.820000487864
 21
-80.34999928623438
 31
0.0
  0
LINE
  5
353
330
1F
100
AcDbEntity
  8
Layer0016
  6
Continuous
 62
     3
370
    25
100
AcDbLine
 10
-132.820000487864
 20
-80.34999928623438
 30
0.0
 11
-132.820000487864
 21
-79.74999927729368
 31
0.0
  0
LINE
  5
354
330
1F
100
AcDbEntity
  8
Layer0016
  6
Continuous
 62
     3
370
    25
100
AcDbLine
 10
-132.820000487864
 20
-79.74999927729368
 30
0.0
 11
-132.0200004759431
 21
-78.34999925643206
 31
0.0
  0
LINE
  5
355
330
1F
100
AcDbEntity
  8
Layer0016
  6
Continuous
 62
     3
370
    25
100
AcDbLine
 10
-132.0200004759431
 20
-78.34999925643206
 30
0.0
 11
-131.4200004670024
 21
-78.34999925643206
 31
0.0
  0
LINE
  5
356
330
1F
100
AcDbEntity
  8
Layer0016
  6
Continuous
 62
     3
370
    25
100
AcDbLine
 10
-131.4200004670024
 20
-78.34999925643206
 30
0.0
 11
-131.4200004670024
 21
-77.94999925047159
 31
0.0
  0
LINE
  5
357
330
1F
100
AcDbEntity
  8
Layer0016
  6
Continuous
 62
     3
370
    25
100
AcDbLine
 10
-131.4200004670024
 20
-77.94999925047159
 30
0.0
 11
-132.2200004789233
 21
-77.94999925047159
 31
0.0
  0
LINE
  5
358
330
1F
100
AcDbEntity
  8
Layer0016
  6
Continuous
 62
     3
370
    25
100
AcDbLine
 10
-132.2200004789233
 20
-77.94999925047159
 30
0.0
 11
-133.4200004968047
 21
-79.14999926835299
 31
0.0
  0
LINE
  5
359
330
1F
100
AcDbEntity
  8
Layer0016
  6
Continuous
 62
     3
370
    25
100
AcDbLine
 10
-133.4200004968047
 20
-79.14999926835299
 30
0.0
 11
-134.6200005146861
 21
-77.94999925047159
 31
0.0
  0
LINE
  5
35A
330
1F
100
AcDbEntity
  8
Layer0016
  6
Continuous
 62
     3
370
    25
100
AcDbLine
 10
-134.6200005146861
 20
-77.94999925047159
 30
0.0
 11
-135.420000526607
 21
-77.94999925047159
 31
0.0
  0
CIRCLE
  5
35B
330
1F
100
AcDbEntity
  8
Layer0016
  6
Continuous
 62
     3
370
    25
100
AcDbCircle
 10
-133.4200006144509
 20
-78.64999926090239
 30
0.0
 40
0.3599999958276747
  0
LINE
  5
35C
330
1F
100
AcDbEntity
  8
Layer0016
  6
Continuous
 62
     3
370
    25
100
AcDbLine
 10
-129.8400016641617
 20
-77.94999925047159
 30
0.0
 11
-129.8400016641617
 21
-78.34999925643206
 31
0.0
  0
LINE
  5
35D
330
1F
100
AcDbEntity
  8
Layer0016
  6
Continuous
 62
     3
370
    25
100
AcDbLine
 10
-129.8400016641617
 20
-78.34999925643206
 30
0.0
 11
-129.240001655221
 21
-78.34999925643206
 31
0.0
  0
LINE
  5
35E
330
1F
100
AcDbEntity
  8
Layer0016
  6
Continuous
 62
     3
370
    25
100
AcDbLine
 10
-129.240001655221
 20
-78.34999925643206
 30
0.0
 11
-128.4400016433001
 21
-79.74999927729368
 31
0.0
  0
LINE
  5
35F
330
1F
100
AcDbEntity
  8
Layer0016
  6
Continuous
 62
     3
370
    25
100
AcDbLine
 10
-128.4400016433001
 20
-79.74999927729368
 30
0.0
 11
-128.4400016433001
 21
-80.34999928623438
 31
0.0
  0
LINE
  5
360
330
1F
100
AcDbEntity
  8
Layer0016
  6
Continuous
 62
     3
370
    25
100
AcDbLine
 10
-128.4400016433001
 20
-80.34999928623438
 30
0.0
 11
-128.2400016403198
 21
-80.54999928921461
 31
0.0
  0
LINE
  5
361
330
1F
100
AcDbEntity
  8
Layer0016
  6
Continuous
 62
     3
370
    25
100
AcDbLine
 10
-128.2400016403198
 20
-80.54999928921461
 30
0.0
 11
-128.2400016403198
 21
-86.74999938160181
 31
0.0
  0
LINE
  5
362
330
1F
100
AcDbEntity
  8
Layer0016
  6
Continuous
 62
     3
370
    25
100
AcDbLine
 10
-128.2400016403198
 20
-86.74999938160181
 30
0.0
 11
-127.4400016283989
 21
-86.74999938160181
 31
0.0
  0
LINE
  5
363
330
1F
100
AcDbEntity
  8
Layer0016
  6
Continuous
 62
     3
370
    25
100
AcDbLine
 10
-127.4400016283989
 20
-86.74999938160181
 30
0.0
 11
-127.4400016283989
 21
-80.54999928921461
 31
0.0
  0
LINE
  5
364
330
1F
100
AcDbEntity
  8
Layer0016
  6
Continuous
 62
     3
370
    25
100
AcDbLine
 10
-127.4400016283989
 20
-80.54999928921461
 30
0.0
 11
-127.2400016254187
 21
-80.34999928623438
 31
0.0
  0
LINE
  5
365
330
1F
100
AcDbEntity
  8
Layer0016
  6
Continuous
 62
     3
370
    25
100
AcDbLine
 10
-127.2400016254187
 20
-80.34999928623438
 30
0.0
 11
-127.2400016254187
 21
-79.74999927729368
 31
0.0
  0
LINE
  5
366
330
1F
100
AcDbEntity
  8
Layer0016
  6
Continuous
 62
     3
370
    25
100
AcDbLine
 10
-127.2400016254187
 20
-79.74999927729368
 30
0.0
 11
-126.4400016134977
 21
-78.34999925643206
 31
0.0
  0
LINE
  5
367
330
1F
100
AcDbEntity
  8
Layer0016
  6
Continuous
 62
     3
370
    25
100
AcDbLine
 10
-126.4400016134977
 20
-78.34999925643206
 30
0.0
 11
-125.840001604557
 21
-78.34999925643206
 31
0.0
  0
LINE
  5
368
330
1F
100
AcDbEntity
  8
Layer0016
  6
Continuous
 62
     3
370
    25
100
AcDbLine
 10
-125.840001604557
 20
-78.34999925643206
 30
0.0
 11
-125.840001604557
 21
-77.94999925047159
 31
0.0
  0
LINE
  5
369
330
1F
100
AcDbEntity
  8
Layer0016
  6
Continuous
 62
     3
370
    25
100
AcDbLine
 10
-125.840001604557
 20
-77.94999925047159
 30
0.0
 11
-126.640001616478
 21
-77.94999925047159
 31
0.0
  0
LINE
  5
36A
330
1F
100
AcDbEntity
  8
Layer0016
  6
Continuous
 62
     3
370
    25
100
AcDbLine
 10
-126.640001616478
 20
-77.94999925047159
 30
0.0
 11
-127.8400016343594
 21
-79.14999926835299
 31
0.0
  0
LINE
  5
36B
330
1F
100
AcDbEntity
  8
Layer0016
  6
Continuous
 62
     3
370
    25
100
AcDbLine
 10
-127.8400016343594
 20
-79.14999926835299
 30
0.0
 11
-129.0400016522408
 21
-77.94999925047159
 31
0.0
  0
LINE
  5
36C
330
1F
100
AcDbEntity
  8
Layer0016
  6
Continuous
 62
     3
370
    25
100
AcDbLine
 10
-129.0400016522408
 20
-77.94999925047159
 30
0.0
 11
-129.8400016641617
 21
-77.94999925047159
 31
0.0
  0
CIRCLE
  5
36D
330
1F
100
AcDbEntity
  8
Layer0016
  6
Continuous
 62
     3
370
    25
100
AcDbCircle
 10
-127.8400017520055
 20
-78.64999926090239
 30
0.0
 40
0.3599999958276747
  0
LINE
  5
36E
330
1F
100
AcDbEntity
  8
Layer0016
  6
Continuous
 62
     3
370
    25
100
AcDbLine
 10
-124.2599966982006
 20
-77.94999925047159
 30
0.0
 11
-124.2599966982006
 21
-78.34999925643206
 31
0.0
  0
LINE
  5
36F
330
1F
100
AcDbEntity
  8
Layer0016
  6
Continuous
 62
     3
370
    25
100
AcDbLine
 10
-124.2599966982006
 20
-78.34999925643206
 30
0.0
 11
-123.6599966892599
 21
-78.34999925643206
 31
0.0
  0
LINE
  5
370
330
1F
100
AcDbEntity
  8
Layer0016
  6
Continuous
 62
     3
370
    25
100
AcDbLine
 10
-123.6599966892599
 20
-78.34999925643206
 30
0.0
 11
-122.859996677339
 21
-79.74999927729368
 31
0.0
  0
LINE
  5
371
330
1F
100
AcDbEntity
  8
Layer0016
  6
Continuous
 62
     3
370
    25
100
AcDbLine
 10
-122.859996677339
 20
-79.74999927729368
 30
0.0
 11
-122.859996677339
 21
-80.34999928623438
 31
0.0
  0
LINE
  5
372
330
1F
100
AcDbEntity
  8
Layer0016
  6
Continuous
 62
     3
370
    25
100
AcDbLine
 10
-122.859996677339
 20
-80.34999928623438
 30
0.0
 11
-122.6599966743588
 21
-80.54999928921461
 31
0.0
  0
LINE
  5
373
330
1F
100
AcDbEntity
  8
Layer0016
  6
Continuous
 62
     3
370
    25
100
AcDbLine
 10
-122.6599966743588
 20
-80.54999928921461
 30
0.0
 11
-122.6599966743588
 21
-86.74999938160181
 31
0.0
  0
LINE
  5
374
330
1F
100
AcDbEntity
  8
Layer0016
  6
Continuous
 62
     3
370
    25
100
AcDbLine
 10
-122.6599966743588
 20
-86.74999938160181
 30
0.0
 11
-121.8599966624379
 21
-86.74999938160181
 31
0.0
  0
LINE
  5
375
330
1F
100
AcDbEntity
  8
Layer0016
  6
Continuous
 62
     3
370
    25
100
AcDbLine
 10
-121.8599966624379
 20
-86.74999938160181
 30
0.0
 11
-121.8599966624379
 21
-80.54999928921461
 31
0.0
  0
LINE
  5
376
330
1F
100
AcDbEntity
  8
Layer0016
  6
Continuous
 62
     3
370
    25
100
AcDbLine
 10
-121.8599966624379
 20
-80.54999928921461
 30
0.0
 11
-121.6599966594576
 21
-80.34999928623438
 31
0.0
  0
LINE
  5
377
330
1F
100
AcDbEntity
  8
Layer0016
  6
Continuous
 62
     3
370
    25
100
AcDbLine
 10
-121.6599966594576
 20
-80.34999928623438
 30
0.0
 11
-121.6599966594576
 21
-79.74999927729368
 31
0.0
  0
LINE
  5
378
330
1F
100
AcDbEntity
  8
Layer0016
  6
Continuous
 62
     3
370
    25
100
AcDbLine
 10
-121.6599966594576
 20
-79.74999927729368
 30
0.0
 11
-120.8599966475367
 21
-78.34999925643206
 31
0.0
  0
LINE
  5
379
330
1F
100
AcDbEntity
  8
Layer0016
  6
Continuous
 62
     3
370
    25
100
AcDbLine
 10
-120.8599966475367
 20
-78.34999925643206
 30
0.0
 11
-120.259996638596
 21
-78.34999925643206
 31
0.0
  0
LINE
  5
37A
330
1F
100
AcDbEntity
  8
Layer0016
  6
Continuous
 62
     3
370
    25
100
AcDbLine
 10
-120.259996638596
 20
-78.34999925643206
 30
0.0
 11
-120.259996638596
 21
-77.94999925047159
 31
0.0
  0
LINE
  5
37B
330
1F
100
AcDbEntity
  8
Layer0016
  6
Continuous
 62
     3
370
    25
100
AcDbLine
 10
-120.259996638596
 20
-77.94999925047159
 30
0.0
 11
-121.0599966505169
 21
-77.94999925047159
 31
0.0
  0
LINE
  5
37C
330
1F
100
AcDbEntity
  8
Layer0016
  6
Continuous
 62
     3
370
    25
100
AcDbLine
 10
-121.0599966505169
 20
-77.94999925047159
 30
0.0
 11
-122.2599966683983
 21
-79.14999926835299
 31
0.0
  0
LINE
  5
37D
330
1F
100
AcDbEntity
  8
Layer0016
  6
Continuous
 62
     3
370
    25
100
AcDbLine
 10
-122.2599966683983
 20
-79.14999926835299
 30
0.0
 11
-123.4599966862797
 21
-77.94999925047159
 31
0.0
  0
LINE
  5
37E
330
1F
100
AcDbEntity
  8
Layer0016
  6
Continuous
 62
     3
370
    25
100
AcDbLine
 10
-123.4599966862797
 20
-77.94999925047159
 30
0.0
 11
-124.2599966982006
 21
-77.94999925047159
 31
0.0
  0
CIRCLE
  5
37F
330
1F
100
AcDbEntity
  8
Layer0016
  6
Continuous
 62
     3
370
    25
100
AcDbCircle
 10
-122.2599967860445
 20
-78.64999926090239
 30
0.0
 40
0.3599999958276747
  0
LINE
  5
380
330
1F
100
AcDbEntity
  8
Layer0016
  6
Continuous
 62
     3
370
    25
100
AcDbLine
 10
-118.6799978357553
 20
-77.94999925047159
 30
0.0
 11
-118.6799978357553
 21
-78.34999925643206
 31
0.0
  0
LINE
  5
381
330
1F
100
AcDbEntity
  8
Layer0016
  6
Continuous
 62
     3
370
    25
100
AcDbLine
 10
-118.6799978357553
 20
-78.34999925643206
 30
0.0
 11
-118.0799978268146
 21
-78.34999925643206
 31
0.0
  0
LINE
  5
382
330
1F
100
AcDbEntity
  8
Layer0016
  6
Continuous
 62
     3
370
    25
100
AcDbLine
 10
-118.0799978268146
 20
-78.34999925643206
 30
0.0
 11
-117.2799978148937
 21
-79.74999927729368
 31
0.0
  0
LINE
  5
383
330
1F
100
AcDbEntity
  8
Layer0016
  6
Continuous
 62
     3
370
    25
100
AcDbLine
 10
-117.2799978148937
 20
-79.74999927729368
 30
0.0
 11
-117.2799978148937
 21
-80.34999928623438
 31
0.0
  0
LINE
  5
384
330
1F
100
AcDbEntity
  8
Layer0016
  6
Continuous
 62
     3
370
    25
100
AcDbLine
 10
-117.2799978148937
 20
-80.34999928623438
 30
0.0
 11
-117.0799978119135
 21
-80.54999928921461
 31
0.0
  0
LINE
  5
385
330
1F
100
AcDbEntity
  8
Layer0016
  6
Continuous
 62
     3
370
    25
100
AcDbLine
 10
-117.0799978119135
 20
-80.54999928921461
 30
0.0
 11
-117.0799978119135
 21
-86.74999938160181
 31
0.0
  0
LINE
  5
386
330
1F
100
AcDbEntity
  8
Layer0016
  6
Continuous
 62
     3
370
    25
100
AcDbLine
 10
-117.0799978119135
 20
-86.74999938160181
 30
0.0
 11
-116.2799977999925
 21
-86.74999938160181
 31
0.0
  0
LINE
  5
387
330
1F
100
AcDbEntity
  8
Layer0016
  6
Continuous
 62
     3
370
    25
100
AcDbLine
 10
-116.2799977999925
 20
-86.74999938160181
 30
0.0
 11
-116.2799977999925
 21
-80.54999928921461
 31
0.0
  0
LINE
  5
388
330
1F
100
AcDbEntity
  8
Layer0016
  6
Continuous
 62
     3
370
    25
100
AcDbLine
 10
-116.2799977999925
 20
-80.54999928921461
 30
0.0
 11
-116.0799977970123
 21
-80.34999928623438
 31
0.0
  0
LINE
  5
389
330
1F
100
AcDbEntity
  8
Layer0016
  6
Continuous
 62
     3
370
    25
100
AcDbLine
 10
-116.0799977970123
 20
-80.34999928623438
 30
0.0
 11
-116.0799977970123
 21
-79.74999927729368
 31
0.0
  0
LINE
  5
38A
330
1F
100
AcDbEntity
  8
Layer0016
  6
Continuous
 62
     3
370
    25
100
AcDbLine
 10
-116.0799977970123
 20
-79.74999927729368
 30
0.0
 11
-115.2799977850914
 21
-78.34999925643206
 31
0.0
  0
LINE
  5
38B
330
1F
100
AcDbEntity
  8
Layer0016
  6
Continuous
 62
     3
370
    25
100
AcDbLine
 10
-115.2799977850914
 20
-78.34999925643206
 30
0.0
 11
-114.6799977761507
 21
-78.34999925643206
 31
0.0
  0
LINE
  5
38C
330
1F
100
AcDbEntity
  8
Layer0016
  6
Continuous
 62
     3
370
    25
100
AcDbLine
 10
-114.6799977761507
 20
-78.34999925643206
 30
0.0
 11
-114.6799977761507
 21
-77.94999925047159
 31
0.0
  0
LINE
  5
38D
330
1F
100
AcDbEntity
  8
Layer0016
  6
Continuous
 62
     3
370
    25
100
AcDbLine
 10
-114.6799977761507
 20
-77.94999925047159
 30
0.0
 11
-115.4799977880716
 21
-77.94999925047159
 31
0.0
  0
LINE
  5
38E
330
1F
100
AcDbEntity
  8
Layer0016
  6
Continuous
 62
     3
370
    25
100
AcDbLine
 10
-115.4799977880716
 20
-77.94999925047159
 30
0.0
 11
-116.679997805953
 21
-79.14999926835299
 31
0.0
  0
LINE
  5
38F
330
1F
100
AcDbEntity
  8
Layer0016
  6
Continuous
 62
     3
370
    25
100
AcDbLine
 10
-116.679997805953
 20
-79.14999926835299
 30
0.0
 11
-117.8799978238344
 21
-77.94999925047159
 31
0.0
  0
LINE
  5
390
330
1F
100
AcDbEntity
  8
Layer0016
  6
Continuous
 62
     3
370
    25
100
AcDbLine
 10
-117.8799978238344
 20
-77.94999925047159
 30
0.0
 11
-118.6799978357553
 21
-77.94999925047159
 31
0.0
  0
CIRCLE
  5
391
330
1F
100
AcDbEntity
  8
Layer0016
  6
Continuous
 62
     3
370
    25
100
AcDbCircle
 10
-116.6799979235991
 20
-78.64999926090239
 30
0.0
 40
0.3599999958276747
  0
LINE
  5
392
330
1F
100
AcDbEntity
  8
Layer0016
  6
Continuous
 62
     3
370
    25
100
AcDbLine
 10
-113.09999897331
 20
-77.94999925047159
 30
0.0
 11
-113.09999897331
 21
-78.34999925643206
 31
0.0
  0
LINE
  5
393
330
1F
100
AcDbEntity
  8
Layer0016
  6
Continuous
 62
     3
370
    25
100
AcDbLine
 10
-113.09999897331
 20
-78.34999925643206
 30
0.0
 11
-112.4999989643693
 21
-78.34999925643206
 31
0.0
  0
LINE
  5
394
330
1F
100
AcDbEntity
  8
Layer0016
  6
Continuous
 62
     3
370
    25
100
AcDbLine
 10
-112.4999989643693
 20
-78.34999925643206
 30
0.0
 11
-111.6999989524483
 21
-79.74999927729368
 31
0.0
  0
LINE
  5
395
330
1F
100
AcDbEntity
  8
Layer0016
  6
Continuous
 62
     3
370
    25
100
AcDbLine
 10
-111.6999989524483
 20
-79.74999927729368
 30
0.0
 11
-111.6999989524483
 21
-80.34999928623438
 31
0.0
  0
LINE
  5
396
330
1F
100
AcDbEntity
  8
Layer0016
  6
Continuous
 62
     3
370
    25
100
AcDbLine
 10
-111.6999989524483
 20
-80.34999928623438
 30
0.0
 11
-111.4999989494681
 21
-80.54999928921461
 31
0.0
  0
LINE
  5
397
330
1F
100
AcDbEntity
  8
Layer0016
  6
Continuous
 62
     3
370
    25
100
AcDbLine
 10
-111.4999989494681
 20
-80.54999928921461
 30
0.0
 11
-111.4999989494681
 21
-86.74999938160181
 31
0.0
  0
LINE
  5
398
330
1F
100
AcDbEntity
  8
Layer0016
  6
Continuous
 62
     3
370
    25
100
AcDbLine
 10
-111.4999989494681
 20
-86.74999938160181
 30
0.0
 11
-110.6999989375472
 21
-86.74999938160181
 31
0.0
  0
LINE
  5
399
330
1F
100
AcDbEntity
  8
Layer0016
  6
Continuous
 62
     3
370
    25
100
AcDbLine
 10
-110.6999989375472
 20
-86.74999938160181
 30
0.0
 11
-110.6999989375472
 21
-80.54999928921461
 31
0.0
  0
LINE
  5
39A
330
1F
100
AcDbEntity
  8
Layer0016
  6
Continuous
 62
     3
370
    25
100
AcDbLine
 10
-110.6999989375472
 20
-80.54999928921461
 30
0.0
 11
-110.499998934567
 21
-80.34999928623438
 31
0.0
  0
LINE
  5
39B
330
1F
100
AcDbEntity
  8
Layer0016
  6
Continuous
 62
     3
370
    25
100
AcDbLine
 10
-110.499998934567
 20
-80.34999928623438
 30
0.0
 11
-110.499998934567
 21
-79.74999927729368
 31
0.0
  0
LINE
  5
39C
330
1F
100
AcDbEntity
  8
Layer0016
  6
Continuous
 62
     3
370
    25
100
AcDbLine
 10
-110.499998934567
 20
-79.74999927729368
 30
0.0
 11
-109.699998922646
 21
-78.34999925643206
 31
0.0
  0
LINE
  5
39D
330
1F
100
AcDbEntity
  8
Layer0016
  6
Continuous
 62
     3
370
    25
100
AcDbLine
 10
-109.699998922646
 20
-78.34999925643206
 30
0.0
 11
-109.0999989137053
 21
-78.34999925643206
 31
0.0
  0
LINE
  5
39E
330
1F
100
AcDbEntity
  8
Layer0016
  6
Continuous
 62
     3
370
    25
100
AcDbLine
 10
-109.0999989137053
 20
-78.34999925643206
 30
0.0
 11
-109.0999989137053
 21
-77.94999925047159
 31
0.0
  0
LINE
  5
39F
330
1F
100
AcDbEntity
  8
Layer0016
  6
Continuous
 62
     3
370
    25
100
AcDbLine
 10
-109.0999989137053
 20
-77.94999925047159
 30
0.0
 11
-109.8999989256263
 21
-77.94999925047159
 31
0.0
  0
LINE
  5
3A0
330
1F
100
AcDbEntity
  8
Layer0016
  6
Continuous
 62
     3
370
    25
100
AcDbLine
 10
-109.8999989256263
 20
-77.94999925047159
 30
0.0
 11
-111.0999989435077
 21
-79.14999926835299
 31
0.0
  0
LINE
  5
3A1
330
1F
100
AcDbEntity
  8
Layer0016
  6
Continuous
 62
     3
370
    25
100
AcDbLine
 10
-111.0999989435077
 20
-79.14999926835299
 30
0.0
 11
-112.299998961389
 21
-77.94999925047159
 31
0.0
  0
LINE
  5
3A2
330
1F
100
AcDbEntity
  8
Layer0016
  6
Continuous
 62
     3
370
    25
100
AcDbLine
 10
-112.299998961389
 20
-77.94999925047159
 30
0.0
 11
-113.09999897331
 21
-77.94999925047159
 31
0.0
  0
CIRCLE
  5
3A3
330
1F
100
AcDbEntity
  8
Layer0016
  6
Continuous
 62
     3
370
    25
100
AcDbCircle
 10
-111.0999990611538
 20
-78.64999926090239
 30
0.0
 40
0.3599999958276747
  0
LINE
  5
3A4
330
1F
100
AcDbEntity
  8
Layer0016
  6
Continuous
 62
     3
370
    25
100
AcDbLine
 10
-107.5200001108646
 20
-77.94999925047159
 30
0.0
 11
-107.5200001108646
 21
-78.34999925643206
 31
0.0
  0
LINE
  5
3A5
330
1F
100
AcDbEntity
  8
Layer0016
  6
Continuous
 62
     3
370
    25
100
AcDbLine
 10
-107.5200001108646
 20
-78.34999925643206
 30
0.0
 11
-106.9200001019239
 21
-78.34999925643206
 31
0.0
  0
LINE
  5
3A6
330
1F
100
AcDbEntity
  8
Layer0016
  6
Continuous
 62
     3
370
    25
100
AcDbLine
 10
-106.9200001019239
 20
-78.34999925643206
 30
0.0
 11
-106.120000090003
 21
-79.74999927729368
 31
0.0
  0
LINE
  5
3A7
330
1F
100
AcDbEntity
  8
Layer0016
  6
Continuous
 62
     3
370
    25
100
AcDbLine
 10
-106.120000090003
 20
-79.74999927729368
 30
0.0
 11
-106.120000090003
 21
-80.34999928623438
 31
0.0
  0
LINE
  5
3A8
330
1F
100
AcDbEntity
  8
Layer0016
  6
Continuous
 62
     3
370
    25
100
AcDbLine
 10
-106.120000090003
 20
-80.34999928623438
 30
0.0
 11
-105.9200000870228
 21
-80.54999928921461
 31
0.0
  0
LINE
  5
3A9
330
1F
100
AcDbEntity
  8
Layer0016
  6
Continuous
 62
     3
370
    25
100
AcDbLine
 10
-105.9200000870228
 20
-80.54999928921461
 30
0.0
 11
-105.9200000870228
 21
-86.74999938160181
 31
0.0
  0
LINE
  5
3AA
330
1F
100
AcDbEntity
  8
Layer0016
  6
Continuous
 62
     3
370
    25
100
AcDbLine
 10
-105.9200000870228
 20
-86.74999938160181
 30
0.0
 11
-105.1200000751018
 21
-86.74999938160181
 31
0.0
  0
LINE
  5
3AB
330
1F
100
AcDbEntity
  8
Layer0016
  6
Continuous
 62
     3
370
    25
100
AcDbLine
 10
-105.1200000751018
 20
-86.74999938160181
 30
0.0
 11
-105.1200000751018
 21
-80.54999928921461
 31
0.0
  0
LINE
  5
3AC
330
1F
100
AcDbEntity
  8
Layer0016
  6
Continuous
 62
     3
370
    25
100
AcDbLine
 10
-105.1200000751018
 20
-80.54999928921461
 30
0.0
 11
-104.9200000721216
 21
-80.34999928623438
 31
0.0
  0
LINE
  5
3AD
330
1F
100
AcDbEntity
  8
Layer0016
  6
Continuous
 62
     3
370
    25
100
AcDbLine
 10
-104.9200000721216
 20
-80.34999928623438
 30
0.0
 11
-104.9200000721216
 21
-79.74999927729368
 31
0.0
  0
LINE
  5
3AE
330
1F
100
AcDbEntity
  8
Layer0016
  6
Continuous
 62
     3
370
    25
100
AcDbLine
 10
-104.9200000721216
 20
-79.74999927729368
 30
0.0
 11
-104.1200000602007
 21
-78.34999925643206
 31
0.0
  0
LINE
  5
3AF
330
1F
100
AcDbEntity
  8
Layer0016
  6
Continuous
 62
     3
370
    25
100
AcDbLine
 10
-104.1200000602007
 20
-78.34999925643206
 30
0.0
 11
-103.52000005126
 21
-78.34999925643206
 31
0.0
  0
LINE
  5
3B0
330
1F
100
AcDbEntity
  8
Layer0016
  6
Continuous
 62
     3
370
    25
100
AcDbLine
 10
-103.52000005126
 20
-78.34999925643206
 30
0.0
 11
-103.52000005126
 21
-77.94999925047159
 31
0.0
  0
LINE
  5
3B1
330
1F
100
AcDbEntity
  8
Layer0016
  6
Continuous
 62
     3
370
    25
100
AcDbLine
 10
-103.52000005126
 20
-77.94999925047159
 30
0.0
 11
-104.3200000631809
 21
-77.94999925047159
 31
0.0
  0
LINE
  5
3B2
330
1F
100
AcDbEntity
  8
Layer0016
  6
Continuous
 62
     3
370
    25
100
AcDbLine
 10
-104.3200000631809
 20
-77.94999925047159
 30
0.0
 11
-105.5200000810623
 21
-79.14999926835299
 31
0.0
  0
LINE
  5
3B3
330
1F
100
AcDbEntity
  8
Layer0016
  6
Continuous
 62
     3
370
    25
100
AcDbLine
 10
-105.5200000810623
 20
-79.14999926835299
 30
0.0
 11
-106.7200000989437
 21
-77.94999925047159
 31
0.0
  0
LINE
  5
3B4
330
1F
100
AcDbEntity
  8
Layer0016
  6
Continuous
 62
     3
370
    25
100
AcDbLine
 10
-106.7200000989437
 20
-77.94999925047159
 30
0.0
 11
-107.5200001108646
 21
-77.94999925047159
 31
0.0
  0
CIRCLE
  5
3B5
330
1F
100
AcDbEntity
  8
Layer0016
  6
Continuous
 62
     3
370
    25
100
AcDbCircle
 10
-105.5200001987085
 20
-78.64999926090239
 30
0.0
 40
0.3599999958276747
  0
LINE
  5
3B6
330
1F
100
AcDbEntity
  8
Layer0016
  6
Continuous
 62
     3
370
    25
100
AcDbLine
 10
-101.9400012484193
 20
-77.94999925047159
 30
0.0
 11
-101.9400012484193
 21
-78.34999925643206
 31
0.0
  0
LINE
  5
3B7
330
1F
100
AcDbEntity
  8
Layer0016
  6
Continuous
 62
     3
370
    25
100
AcDbLine
 10
-101.9400012484193
 20
-78.34999925643206
 30
0.0
 11
-101.3400012394786
 21
-78.34999925643206
 31
0.0
  0
LINE
  5
3B8
330
1F
100
AcDbEntity
  8
Layer0016
  6
Continuous
 62
     3
370
    25
100
AcDbLine
 10
-101.3400012394786
 20
-78.34999925643206
 30
0.0
 11
-100.5400012275577
 21
-79.74999927729368
 31
0.0
  0
LINE
  5
3B9
330
1F
100
AcDbEntity
  8
Layer0016
  6
Continuous
 62
     3
370
    25
100
AcDbLine
 10
-100.5400012275577
 20
-79.74999927729368
 30
0.0
 11
-100.5400012275577
 21
-80.34999928623438
 31
0.0
  0
LINE
  5
3BA
330
1F
100
AcDbEntity
  8
Layer0016
  6
Continuous
 62
     3
370
    25
100
AcDbLine
 10
-100.5400012275577
 20
-80.34999928623438
 30
0.0
 11
-100.3400012245774
 21
-80.54999928921461
 31
0.0
  0
LINE
  5
3BB
330
1F
100
AcDbEntity
  8
Layer0016
  6
Continuous
 62
     3
370
    25
100
AcDbLine
 10
-100.3400012245774
 20
-80.54999928921461
 30
0.0
 11
-100.3400012245774
 21
-86.74999938160181
 31
0.0
  0
LINE
  5
3BC
330
1F
100
AcDbEntity
  8
Layer0016
  6
Continuous
 62
     3
370
    25
100
AcDbLine
 10
-100.3400012245774
 20
-86.74999938160181
 30
0.0
 11
-99.54000121265653
 21
-86.74999938160181
 31
0.0
  0
LINE
  5
3BD
330
1F
100
AcDbEntity
  8
Layer0016
  6
Continuous
 62
     3
370
    25
100
AcDbLine
 10
-99.54000121265653
 20
-86.74999938160181
 30
0.0
 11
-99.54000121265653
 21
-80.54999928921461
 31
0.0
  0
LINE
  5
3BE
330
1F
100
AcDbEntity
  8
Layer0016
  6
Continuous
 62
     3
370
    25
100
AcDbLine
 10
-99.54000121265653
 20
-80.54999928921461
 30
0.0
 11
-99.3400012096763
 21
-80.34999928623438
 31
0.0
  0
LINE
  5
3BF
330
1F
100
AcDbEntity
  8
Layer0016
  6
Continuous
 62
     3
370
    25
100
AcDbLine
 10
-99.3400012096763
 20
-80.34999928623438
 30
0.0
 11
-99.3400012096763
 21
-79.74999927729368
 31
0.0
  0
LINE
  5
3C0
330
1F
100
AcDbEntity
  8
Layer0016
  6
Continuous
 62
     3
370
    25
100
AcDbLine
 10
-99.3400012096763
 20
-79.74999927729368
 30
0.0
 11
-98.54000119775537
 21
-78.34999925643206
 31
0.0
  0
LINE
  5
3C1
330
1F
100
AcDbEntity
  8
Layer0016
  6
Continuous
 62
     3
370
    25
100
AcDbLine
 10
-98.54000119775537
 20
-78.34999925643206
 30
0.0
 11
-97.94000118881468
 21
-78.34999925643206
 31
0.0
  0
LINE
  5
3C2
330
1F
100
AcDbEntity
  8
Layer0016
  6
Continuous
 62
     3
370
    25
100
AcDbLine
 10
-97.94000118881468
 20
-78.34999925643206
 30
0.0
 11
-97.94000118881468
 21
-77.94999925047159
 31
0.0
  0
LINE
  5
3C3
330
1F
100
AcDbEntity
  8
Layer0016
  6
Continuous
 62
     3
370
    25
100
AcDbLine
 10
-97.94000118881468
 20
-77.94999925047159
 30
0.0
 11
-98.7400012007356
 21
-77.94999925047159
 31
0.0
  0
LINE
  5
3C4
330
1F
100
AcDbEntity
  8
Layer0016
  6
Continuous
 62
     3
370
    25
100
AcDbLine
 10
-98.7400012007356
 20
-77.94999925047159
 30
0.0
 11
-99.94000121861701
 21
-79.14999926835299
 31
0.0
  0
LINE
  5
3C5
330
1F
100
AcDbEntity
  8
Layer0016
  6
Continuous
 62
     3
370
    25
100
AcDbLine
 10
-99.94000121861701
 20
-79.14999926835299
 30
0.0
 11
-101.1400012364984
 21
-77.94999925047159
 31
0.0
  0
LINE
  5
3C6
330
1F
100
AcDbEntity
  8
Layer0016
  6
Continuous
 62
     3
370
    25
100
AcDbLine
 10
-101.1400012364984
 20
-77.94999925047159
 30
0.0
 11
-101.9400012484193
 21
-77.94999925047159
 31
0.0
  0
CIRCLE
  5
3C7
330
1F
100
AcDbEntity
  8
Layer0016
  6
Continuous
 62
     3
370
    25
100
AcDbCircle
 10
-99.94000133626312
 20
-78.64999926090239
 30
0.0
 40
0.3599999958276747
  0
LINE
  5
3C8
330
1F
100
AcDbEntity
  8
Layer0016
  6
Continuous
 62
     3
370
    25
100
AcDbLine
 10
-96.35999628245827
 20
-77.94999925047159
 30
0.0
 11
-96.35999628245827
 21
-78.34999925643206
 31
0.0
  0
LINE
  5
3C9
330
1F
100
AcDbEntity
  8
Layer0016
  6
Continuous
 62
     3
370
    25
100
AcDbLine
 10
-96.35999628245827
 20
-78.34999925643206
 30
0.0
 11
-95.75999627351757
 21
-78.34999925643206
 31
0.0
  0
LINE
  5
3CA
330
1F
100
AcDbEntity
  8
Layer0016
  6
Continuous
 62
     3
370
    25
100
AcDbLine
 10
-95.75999627351757
 20
-78.34999925643206
 30
0.0
 11
-94.95999626159664
 21
-79.74999927729368
 31
0.0
  0
LINE
  5
3CB
330
1F
100
AcDbEntity
  8
Layer0016
  6
Continuous
 62
     3
370
    25
100
AcDbLine
 10
-94.95999626159664
 20
-79.74999927729368
 30
0.0
 11
-94.95999626159664
 21
-80.34999928623438
 31
0.0
  0
LINE
  5
3CC
330
1F
100
AcDbEntity
  8
Layer0016
  6
Continuous
 62
     3
370
    25
100
AcDbLine
 10
-94.95999626159664
 20
-80.34999928623438
 30
0.0
 11
-94.75999625861641
 21
-80.54999928921461
 31
0.0
  0
LINE
  5
3CD
330
1F
100
AcDbEntity
  8
Layer0016
  6
Continuous
 62
     3
370
    25
100
AcDbLine
 10
-94.75999625861641
 20
-80.54999928921461
 30
0.0
 11
-94.75999625861641
 21
-86.74999938160181
 31
0.0
  0
LINE
  5
3CE
330
1F
100
AcDbEntity
  8
Layer0016
  6
Continuous
 62
     3
370
    25
100
AcDbLine
 10
-94.75999625861641
 20
-86.74999938160181
 30
0.0
 11
-93.95999624669548
 21
-86.74999938160181
 31
0.0
  0
LINE
  5
3CF
330
1F
100
AcDbEntity
  8
Layer0016
  6
Continuous
 62
     3
370
    25
100
AcDbLine
 10
-93.95999624669548
 20
-86.74999938160181
 30
0.0
 11
-93.95999624669548
 21
-80.54999928921461
 31
0.0
  0
LINE
  5
3D0
330
1F
100
AcDbEntity
  8
Layer0016
  6
Continuous
 62
     3
370
    25
100
AcDbLine
 10
-93.95999624669548
 20
-80.54999928921461
 30
0.0
 11
-93.75999624371525
 21
-80.34999928623438
 31
0.0
  0
LINE
  5
3D1
330
1F
100
AcDbEntity
  8
Layer0016
  6
Continuous
 62
     3
370
    25
100
AcDbLine
 10
-93.75999624371525
 20
-80.34999928623438
 30
0.0
 11
-93.75999624371525
 21
-79.74999927729368
 31
0.0
  0
LINE
  5
3D2
330
1F
100
AcDbEntity
  8
Layer0016
  6
Continuous
 62
     3
370
    25
100
AcDbLine
 10
-93.75999624371525
 20
-79.74999927729368
 30
0.0
 11
-92.95999623179432
 21
-78.34999925643206
 31
0.0
  0
LINE
  5
3D3
330
1F
100
AcDbEntity
  8
Layer0016
  6
Continuous
 62
     3
370
    25
100
AcDbLine
 10
-92.95999623179432
 20
-78.34999925643206
 30
0.0
 11
-92.35999622285362
 21
-78.34999925643206
 31
0.0
  0
LINE
  5
3D4
330
1F
100
AcDbEntity
  8
Layer0016
  6
Continuous
 62
     3
370
    25
100
AcDbLine
 10
-92.35999622285362
 20
-78.34999925643206
 30
0.0
 11
-92.35999622285362
 21
-77.94999925047159
 31
0.0
  0
LINE
  5
3D5
330
1F
100
AcDbEntity
  8
Layer0016
  6
Continuous
 62
     3
370
    25
100
AcDbLine
 10
-92.35999622285362
 20
-77.94999925047159
 30
0.0
 11
-93.15999623477455
 21
-77.94999925047159
 31
0.0
  0
LINE
  5
3D6
330
1F
100
AcDbEntity
  8
Layer0016
  6
Continuous
 62
     3
370
    25
100
AcDbLine
 10
-93.15999623477455
 20
-77.94999925047159
 30
0.0
 11
-94.35999625265595
 21
-79.14999926835299
 31
0.0
  0
LINE
  5
3D7
330
1F
100
AcDbEntity
  8
Layer0016
  6
Continuous
 62
     3
370
    25
100
AcDbLine
 10
-94.35999625265595
 20
-79.14999926835299
 30
0.0
 11
-95.55999627053734
 21
-77.94999925047159
 31
0.0
  0
LINE
  5
3D8
330
1F
100
AcDbEntity
  8
Layer0016
  6
Continuous
 62
     3
370
    25
100
AcDbLine
 10
-95.55999627053734
 20
-77.94999925047159
 30
0.0
 11
-96.35999628245827
 21
-77.94999925047159
 31
0.0
  0
CIRCLE
  5
3D9
330
1F
100
AcDbEntity
  8
Layer0016
  6
Continuous
 62
     3
370
    25
100
AcDbCircle
 10
-94.35999637030211
 20
-78.64999926090239
 30
0.0
 40
0.3599999958276747
  0
LINE
  5
3DA
330
1F
100
AcDbEntity
  8
Layer0016
  6
Continuous
 62
     3
370
    25
100
AcDbLine
 10
-90.77999742001293
 20
-77.94999925047159
 30
0.0
 11
-90.77999742001293
 21
-78.34999925643206
 31
0.0
  0
LINE
  5
3DB
330
1F
100
AcDbEntity
  8
Layer0016
  6
Continuous
 62
     3
370
    25
100
AcDbLine
 10
-90.77999742001293
 20
-78.34999925643206
 30
0.0
 11
-90.17999741107224
 21
-78.34999925643206
 31
0.0
  0
LINE
  5
3DC
330
1F
100
AcDbEntity
  8
Layer0016
  6
Continuous
 62
     3
370
    25
100
AcDbLine
 10
-90.17999741107224
 20
-78.34999925643206
 30
0.0
 11
-89.3799973991513
 21
-79.74999927729368
 31
0.0
  0
LINE
  5
3DD
330
1F
100
AcDbEntity
  8
Layer0016
  6
Continuous
 62
     3
370
    25
100
AcDbLine
 10
-89.3799973991513
 20
-79.74999927729368
 30
0.0
 11
-89.3799973991513
 21
-80.34999928623438
 31
0.0
  0
LINE
  5
3DE
330
1F
100
AcDbEntity
  8
Layer0016
  6
Continuous
 62
     3
370
    25
100
AcDbLine
 10
-89.3799973991513
 20
-80.34999928623438
 30
0.0
 11
-89.17999739617107
 21
-80.54999928921461
 31
0.0
  0
LINE
  5
3DF
330
1F
100
AcDbEntity
  8
Layer0016
  6
Continuous
 62
     3
370
    25
100
AcDbLine
 10
-89.17999739617107
 20
-80.54999928921461
 30
0.0
 11
-89.17999739617107
 21
-86.74999938160181
 31
0.0
  0
LINE
  5
3E0
330
1F
100
AcDbEntity
  8
Layer0016
  6
Continuous
 62
     3
370
    25
100
AcDbLine
 10
-89.17999739617107
 20
-86.74999938160181
 30
0.0
 11
-88.37999738425015
 21
-86.74999938160181
 31
0.0
  0
LINE
  5
3E1
330
1F
100
AcDbEntity
  8
Layer0016
  6
Continuous
 62
     3
370
    25
100
AcDbLine
 10
-88.37999738425015
 20
-86.74999938160181
 30
0.0
 11
-88.37999738425015
 21
-80.54999928921461
 31
0.0
  0
LINE
  5
3E2
330
1F
100
AcDbEntity
  8
Layer0016
  6
Continuous
 62
     3
370
    25
100
AcDbLine
 10
-88.37999738425015
 20
-80.54999928921461
 30
0.0
 11
-88.17999738126991
 21
-80.34999928623438
 31
0.0
  0
LINE
  5
3E3
330
1F
100
AcDbEntity
  8
Layer0016
  6
Continuous
 62
     3
370
    25
100
AcDbLine
 10
-88.17999738126991
 20
-80.34999928623438
 30
0.0
 11
-88.17999738126991
 21
-79.74999927729368
 31
0.0
  0
LINE
  5
3E4
330
1F
100
AcDbEntity
  8
Layer0016
  6
Continuous
 62
     3
370
    25
100
AcDbLine
 10
-88.17999738126991
 20
-79.74999927729368
 30
0.0
 11
-87.37999736934898
 21
-78.34999925643206
 31
0.0
  0
LINE
  5
3E5
330
1F
100
AcDbEntity
  8
Layer0016
  6
Continuous
 62
     3
370
    25
100
AcDbLine
 10
-87.37999736934898
 20
-78.34999925643206
 30
0.0
 11
-86.77999736040829
 21
-78.34999925643206
 31
0.0
  0
LINE
  5
3E6
330
1F
100
AcDbEntity
  8
Layer0016
  6
Continuous
 62
     3
370
    25
100
AcDbLine
 10
-86.77999736040829
 20
-78.34999925643206
 30
0.0
 11
-86.77999736040829
 21
-77.94999925047159
 31
0.0
  0
LINE
  5
3E7
330
1F
100
AcDbEntity
  8
Layer0016
  6
Continuous
 62
     3
370
    25
100
AcDbLine
 10
-86.77999736040829
 20
-77.94999925047159
 30
0.0
 11
-87.57999737232922
 21
-77.94999925047159
 31
0.0
  0
LINE
  5
3E8
330
1F
100
AcDbEntity
  8
Layer0016
  6
Continuous
 62
     3
370
    25
100
AcDbLine
 10
-87.57999737232922
 20
-77.94999925047159
 30
0.0
 11
-88.77999739021061
 21
-79.14999926835299
 31
0.0
  0
LINE
  5
3E9
330
1F
100
AcDbEntity
  8
Layer0016
  6
Continuous
 62
     3
370
    25
100
AcDbLine
 10
-88.77999739021061
 20
-79.14999926835299
 30
0.0
 11
-89.979997408092
 21
-77.94999925047159
 31
0.0
  0
LINE
  5
3EA
330
1F
100
AcDbEntity
  8
Layer0016
  6
Continuous
 62
     3
370
    25
100
AcDbLine
 10
-89.979997408092
 20
-77.94999925047159
 30
0.0
 11
-90.77999742001293
 21
-77.94999925047159
 31
0.0
  0
CIRCLE
  5
3EB
330
1F
100
AcDbEntity
  8
Layer0016
  6
Continuous
 62
     3
370
    25
100
AcDbCircle
 10
-88.77999750785676
 20
-78.64999926090239
 30
0.0
 40
0.3599999958276747
  0
LINE
  5
3EC
330
1F
100
AcDbEntity
  8
Layer0016
  6
Continuous
 62
     3
370
    25
100
AcDbLine
 10
-85.1999985575676
 20
-77.94999925047159
 30
0.0
 11
-85.1999985575676
 21
-78.34999925643206
 31
0.0
  0
LINE
  5
3ED
330
1F
100
AcDbEntity
  8
Layer0016
  6
Continuous
 62
     3
370
    25
100
AcDbLine
 10
-85.1999985575676
 20
-78.34999925643206
 30
0.0
 11
-84.5999985486269
 21
-78.34999925643206
 31
0.0
  0
LINE
  5
3EE
330
1F
100
AcDbEntity
  8
Layer0016
  6
Continuous
 62
     3
370
    25
100
AcDbLine
 10
-84.5999985486269
 20
-78.34999925643206
 30
0.0
 11
-83.79999853670597
 21
-79.74999927729368
 31
0.0
  0
LINE
  5
3EF
330
1F
100
AcDbEntity
  8
Layer0016
  6
Continuous
 62
     3
370
    25
100
AcDbLine
 10
-83.79999853670597
 20
-79.74999927729368
 30
0.0
 11
-83.79999853670597
 21
-80.34999928623438
 31
0.0
  0
LINE
  5
3F0
330
1F
100
AcDbEntity
  8
Layer0016
  6
Continuous
 62
     3
370
    25
100
AcDbLine
 10
-83.79999853670597
 20
-80.34999928623438
 30
0.0
 11
-83.59999853372574
 21
-80.54999928921461
 31
0.0
  0
LINE
  5
3F1
330
1F
100
AcDbEntity
  8
Layer0016
  6
Continuous
 62
     3
370
    25
100
AcDbLine
 10
-83.59999853372574
 20
-80.54999928921461
 30
0.0
 11
-83.59999853372574
 21
-86.74999938160181
 31
0.0
  0
LINE
  5
3F2
330
1F
100
AcDbEntity
  8
Layer0016
  6
Continuous
 62
     3
370
    25
100
AcDbLine
 10
-83.59999853372574
 20
-86.74999938160181
 30
0.0
 11
-82.79999852180481
 21
-86.74999938160181
 31
0.0
  0
LINE
  5
3F3
330
1F
100
AcDbEntity
  8
Layer0016
  6
Continuous
 62
     3
370
    25
100
AcDbLine
 10
-82.79999852180481
 20
-86.74999938160181
 30
0.0
 11
-82.79999852180481
 21
-80.54999928921461
 31
0.0
  0
LINE
  5
3F4
330
1F
100
AcDbEntity
  8
Layer0016
  6
Continuous
 62
     3
370
    25
100
AcDbLine
 10
-82.79999852180481
 20
-80.54999928921461
 30
0.0
 11
-82.59999851882458
 21
-80.34999928623438
 31
0.0
  0
LINE
  5
3F5
330
1F
100
AcDbEntity
  8
Layer0016
  6
Continuous
 62
     3
370
    25
100
AcDbLine
 10
-82.59999851882458
 20
-80.34999928623438
 30
0.0
 11
-82.59999851882458
 21
-79.74999927729368
 31
0.0
  0
LINE
  5
3F6
330
1F
100
AcDbEntity
  8
Layer0016
  6
Continuous
 62
     3
370
    25
100
AcDbLine
 10
-82.59999851882458
 20
-79.74999927729368
 30
0.0
 11
-81.79999850690365
 21
-78.34999925643206
 31
0.0
  0
LINE
  5
3F7
330
1F
100
AcDbEntity
  8
Layer0016
  6
Continuous
 62
     3
370
    25
100
AcDbLine
 10
-81.79999850690365
 20
-78.34999925643206
 30
0.0
 11
-81.19999849796295
 21
-78.34999925643206
 31
0.0
  0
LINE
  5
3F8
330
1F
100
AcDbEntity
  8
Layer0016
  6
Continuous
 62
     3
370
    25
100
AcDbLine
 10
-81.19999849796295
 20
-78.34999925643206
 30
0.0
 11
-81.19999849796295
 21
-77.94999925047159
 31
0.0
  0
LINE
  5
3F9
330
1F
100
AcDbEntity
  8
Layer0016
  6
Continuous
 62
     3
370
    25
100
AcDbLine
 10
-81.19999849796295
 20
-77.94999925047159
 30
0.0
 11
-81.99999850988388
 21
-77.94999925047159
 31
0.0
  0
LINE
  5
3FA
330
1F
100
AcDbEntity
  8
Layer0016
  6
Continuous
 62
     3
370
    25
100
AcDbLine
 10
-81.99999850988388
 20
-77.94999925047159
 30
0.0
 11
-83.19999852776527
 21
-79.14999926835299
 31
0.0
  0
LINE
  5
3FB
330
1F
100
AcDbEntity
  8
Layer0016
  6
Continuous
 62
     3
370
    25
100
AcDbLine
 10
-83.19999852776527
 20
-79.14999926835299
 30
0.0
 11
-84.39999854564667
 21
-77.94999925047159
 31
0.0
  0
LINE
  5
3FC
330
1F
100
AcDbEntity
  8
Layer0016
  6
Continuous
 62
     3
370
    25
100
AcDbLine
 10
-84.39999854564667
 20
-77.94999925047159
 30
0.0
 11
-85.1999985575676
 21
-77.94999925047159
 31
0.0
  0
CIRCLE
  5
3FD
330
1F
100
AcDbEntity
  8
Layer0016
  6
Continuous
 62
     3
370
    25
100
AcDbCircle
 10
-83.19999864541143
 20
-78.64999926090239
 30
0.0
 40
0.3599999958276747
  0
LINE
  5
3FE
330
1F
100
AcDbEntity
  8
Layer0016
  6
Continuous
 62
     3
370
    25
100
AcDbLine
 10
-79.61999969512226
 20
-77.94999925047159
 30
0.0
 11
-79.61999969512226
 21
-78.34999925643206
 31
0.0
  0
LINE
  5
3FF
330
1F
100
AcDbEntity
  8
Layer0016
  6
Continuous
 62
     3
370
    25
100
AcDbLine
 10
-79.61999969512226
 20
-78.34999925643206
 30
0.0
 11
-79.01999968618156
 21
-78.34999925643206
 31
0.0
  0
LINE
  5
400
330
1F
100
AcDbEntity
  8
Layer0016
  6
Continuous
 62
     3
370
    25
100
AcDbLine
 10
-79.01999968618156
 20
-78.34999925643206
 30
0.0
 11
-78.21999967426063
 21
-79.74999927729368
 31
0.0
  0
LINE
  5
401
330
1F
100
AcDbEntity
  8
Layer0016
  6
Continuous
 62
     3
370
    25
100
AcDbLine
 10
-78.21999967426063
 20
-79.74999927729368
 30
0.0
 11
-78.21999967426063
 21
-80.34999928623438
 31
0.0
  0
LINE
  5
402
330
1F
100
AcDbEntity
  8
Layer0016
  6
Continuous
 62
     3
370
    25
100
AcDbLine
 10
-78.21999967426063
 20
-80.34999928623438
 30
0.0
 11
-78.0199996712804
 21
-80.54999928921461
 31
0.0
  0
LINE
  5
403
330
1F
100
AcDbEntity
  8
Layer0016
  6
Continuous
 62
     3
370
    25
100
AcDbLine
 10
-78.0199996712804
 20
-80.54999928921461
 30
0.0
 11
-78.0199996712804
 21
-86.74999938160181
 31
0.0
  0
LINE
  5
404
330
1F
100
AcDbEntity
  8
Layer0016
  6
Continuous
 62
     3
370
    25
100
AcDbLine
 10
-78.0199996712804
 20
-86.74999938160181
 30
0.0
 11
-77.21999965935947
 21
-86.74999938160181
 31
0.0
  0
LINE
  5
405
330
1F
100
AcDbEntity
  8
Layer0016
  6
Continuous
 62
     3
370
    25
100
AcDbLine
 10
-77.21999965935947
 20
-86.74999938160181
 30
0.0
 11
-77.21999965935947
 21
-80.54999928921461
 31
0.0
  0
LINE
  5
406
330
1F
100
AcDbEntity
  8
Layer0016
  6
Continuous
 62
     3
370
    25
100
AcDbLine
 10
-77.21999965935947
 20
-80.54999928921461
 30
0.0
 11
-77.01999965637924
 21
-80.34999928623438
 31
0.0
  0
LINE
  5
407
330
1F
100
AcDbEntity
  8
Layer0016
  6
Continuous
 62
     3
370
    25
100
AcDbLine
 10
-77.01999965637924
 20
-80.34999928623438
 30
0.0
 11
-77.01999965637924
 21
-79.74999927729368
 31
0.0
  0
LINE
  5
408
330
1F
100
AcDbEntity
  8
Layer0016
  6
Continuous
 62
     3
370
    25
100
AcDbLine
 10
-77.01999965637924
 20
-79.74999927729368
 30
0.0
 11
-76.21999964445831
 21
-78.34999925643206
 31
0.0
  0
LINE
  5
409
330
1F
100
AcDbEntity
  8
Layer0016
  6
Continuous
 62
     3
370
    25
100
AcDbLine
 10
-76.21999964445831
 20
-78.34999925643206
 30
0.0
 11
-75.61999963551762
 21
-78.34999925643206
 31
0.0
  0
LINE
  5
40A
330
1F
100
AcDbEntity
  8
Layer0016
  6
Continuous
 62
     3
370
    25
100
AcDbLine
 10
-75.61999963551762
 20
-78.34999925643206
 30
0.0
 11
-75.61999963551762
 21
-77.94999925047159
 31
0.0
  0
LINE
  5
40B
330
1F
100
AcDbEntity
  8
Layer0016
  6
Continuous
 62
     3
370
    25
100
AcDbLine
 10
-75.61999963551762
 20
-77.94999925047159
 30
0.0
 11
-76.41999964743854
 21
-77.94999925047159
 31
0.0
  0
LINE
  5
40C
330
1F
100
AcDbEntity
  8
Layer0016
  6
Continuous
 62
     3
370
    25
100
AcDbLine
 10
-76.41999964743854
 20
-77.94999925047159
 30
0.0
 11
-77.61999966531994
 21
-79.14999926835299
 31
0.0
  0
LINE
  5
40D
330
1F
100
AcDbEntity
  8
Layer0016
  6
Continuous
 62
     3
370
    25
100
AcDbLine
 10
-77.61999966531994
 20
-79.14999926835299
 30
0.0
 11
-78.81999968320133
 21
-77.94999925047159
 31
0.0
  0
LINE
  5
40E
330
1F
100
AcDbEntity
  8
Layer0016
  6
Continuous
 62
     3
370
    25
100
AcDbLine
 10
-78.81999968320133
 20
-77.94999925047159
 30
0.0
 11
-79.61999969512226
 21
-77.94999925047159
 31
0.0
  0
CIRCLE
  5
40F
330
1F
100
AcDbEntity
  8
Layer0016
  6
Continuous
 62
     3
370
    25
100
AcDbCircle
 10
-77.6199997829661
 20
-78.64999926090239
 30
0.0
 40
0.3599999958276747
  0
LINE
  5
410
330
1F
100
AcDbEntity
  8
Layer0016
  6
Continuous
 62
     3
370
    25
100
AcDbLine
 10
-74.04000083267692
 20
-77.94999925047159
 30
0.0
 11
-74.04000083267692
 21
-78.34999925643206
 31
0.0
  0
LINE
  5
411
330
1F
100
AcDbEntity
  8
Layer0016
  6
Continuous
 62
     3
370
    25
100
AcDbLine
 10
-74.04000083267692
 20
-78.34999925643206
 30
0.0
 11
-73.44000082373623
 21
-78.34999925643206
 31
0.0
  0
LINE
  5
412
330
1F
100
AcDbEntity
  8
Layer0016
  6
Continuous
 62
     3
370
    25
100
AcDbLine
 10
-73.44000082373623
 20
-78.34999925643206
 30
0.0
 11
-72.6400008118153
 21
-79.74999927729368
 31
0.0
  0
LINE
  5
413
330
1F
100
AcDbEntity
  8
Layer0016
  6
Continuous
 62
     3
370
    25
100
AcDbLine
 10
-72.6400008118153
 20
-79.74999927729368
 30
0.0
 11
-72.6400008118153
 21
-80.34999928623438
 31
0.0
  0
LINE
  5
414
330
1F
100
AcDbEntity
  8
Layer0016
  6
Continuous
 62
     3
370
    25
100
AcDbLine
 10
-72.6400008118153
 20
-80.34999928623438
 30
0.0
 11
-72.44000080883507
 21
-80.54999928921461
 31
0.0
  0
LINE
  5
415
330
1F
100
AcDbEntity
  8
Layer0016
  6
Continuous
 62
     3
370
    25
100
AcDbLine
 10
-72.44000080883507
 20
-80.54999928921461
 30
0.0
 11
-72.44000080883507
 21
-86.74999938160181
 31
0.0
  0
LINE
  5
416
330
1F
100
AcDbEntity
  8
Layer0016
  6
Continuous
 62
     3
370
    25
100
AcDbLine
 10
-72.44000080883507
 20
-86.74999938160181
 30
0.0
 11
-71.64000079691414
 21
-86.74999938160181
 31
0.0
  0
LINE
  5
417
330
1F
100
AcDbEntity
  8
Layer0016
  6
Continuous
 62
     3
370
    25
100
AcDbLine
 10
-71.64000079691414
 20
-86.74999938160181
 30
0.0
 11
-71.64000079691414
 21
-80.54999928921461
 31
0.0
  0
LINE
  5
418
330
1F
100
AcDbEntity
  8
Layer0016
  6
Continuous
 62
     3
370
    25
100
AcDbLine
 10
-71.64000079691414
 20
-80.54999928921461
 30
0.0
 11
-71.4400007939339
 21
-80.34999928623438
 31
0.0
  0
LINE
  5
419
330
1F
100
AcDbEntity
  8
Layer0016
  6
Continuous
 62
     3
370
    25
100
AcDbLine
 10
-71.4400007939339
 20
-80.34999928623438
 30
0.0
 11
-71.4400007939339
 21
-79.74999927729368
 31
0.0
  0
LINE
  5
41A
330
1F
100
AcDbEntity
  8
Layer0016
  6
Continuous
 62
     3
370
    25
100
AcDbLine
 10
-71.4400007939339
 20
-79.74999927729368
 30
0.0
 11
-70.64000078201298
 21
-78.34999925643206
 31
0.0
  0
LINE
  5
41B
330
1F
100
AcDbEntity
  8
Layer0016
  6
Continuous
 62
     3
370
    25
100
AcDbLine
 10
-70.64000078201298
 20
-78.34999925643206
 30
0.0
 11
-70.04000077307228
 21
-78.34999925643206
 31
0.0
  0
LINE
  5
41C
330
1F
100
AcDbEntity
  8
Layer0016
  6
Continuous
 62
     3
370
    25
100
AcDbLine
 10
-70.04000077307228
 20
-78.34999925643206
 30
0.0
 11
-70.04000077307228
 21
-77.94999925047159
 31
0.0
  0
LINE
  5
41D
330
1F
100
AcDbEntity
  8
Layer0016
  6
Continuous
 62
     3
370
    25
100
AcDbLine
 10
-70.04000077307228
 20
-77.94999925047159
 30
0.0
 11
-70.84000078499321
 21
-77.94999925047159
 31
0.0
  0
LINE
  5
41E
330
1F
100
AcDbEntity
  8
Layer0016
  6
Continuous
 62
     3
370
    25
100
AcDbLine
 10
-70.84000078499321
 20
-77.94999925047159
 30
0.0
 11
-72.0400008028746
 21
-79.14999926835299
 31
0.0
  0
LINE
  5
41F
330
1F
100
AcDbEntity
  8
Layer0016
  6
Continuous
 62
     3
370
    25
100
AcDbLine
 10
-72.0400008028746
 20
-79.14999926835299
 30
0.0
 11
-73.240000820756
 21
-77.94999925047159
 31
0.0
  0
LINE
  5
420
330
1F
100
AcDbEntity
  8
Layer0016
  6
Continuous
 62
     3
370
    25
100
AcDbLine
 10
-73.240000820756
 20
-77.94999925047159
 30
0.0
 11
-74.04000083267692
 21
-77.94999925047159
 31
0.0
  0
CIRCLE
  5
421
330
1F
100
AcDbEntity
  8
Layer0016
  6
Continuous
 62
     3
370
    25
100
AcDbCircle
 10
-72.04000092052075
 20
-78.64999926090239
 30
0.0
 40
0.3599999958276747
  0
LINE
  5
422
330
1F
100
AcDbEntity
  8
Layer0016
  6
Continuous
 62
     3
370
    25
100
AcDbLine
 10
-68.45999586671587
 20
-77.94999925047159
 30
0.0
 11
-68.45999586671587
 21
-78.34999925643206
 31
0.0
  0
LINE
  5
423
330
1F
100
AcDbEntity
  8
Layer0016
  6
Continuous
 62
     3
370
    25
100
AcDbLine
 10
-68.45999586671587
 20
-78.34999925643206
 30
0.0
 11
-67.85999585777517
 21
-78.34999925643206
 31
0.0
  0
LINE
  5
424
330
1F
100
AcDbEntity
  8
Layer0016
  6
Continuous
 62
     3
370
    25
100
AcDbLine
 10
-67.85999585777517
 20
-78.34999925643206
 30
0.0
 11
-67.05999584585425
 21
-79.74999927729368
 31
0.0
  0
LINE
  5
425
330
1F
100
AcDbEntity
  8
Layer0016
  6
Continuous
 62
     3
370
    25
100
AcDbLine
 10
-67.05999584585425
 20
-79.74999927729368
 30
0.0
 11
-67.05999584585425
 21
-80.34999928623438
 31
0.0
  0
LINE
  5
426
330
1F
100
AcDbEntity
  8
Layer0016
  6
Continuous
 62
     3
370
    25
100
AcDbLine
 10
-67.05999584585425
 20
-80.34999928623438
 30
0.0
 11
-66.85999584287401
 21
-80.54999928921461
 31
0.0
  0
LINE
  5
427
330
1F
100
AcDbEntity
  8
Layer0016
  6
Continuous
 62
     3
370
    25
100
AcDbLine
 10
-66.85999584287401
 20
-80.54999928921461
 30
0.0
 11
-66.85999584287401
 21
-86.74999938160181
 31
0.0
  0
LINE
  5
428
330
1F
100
AcDbEntity
  8
Layer0016
  6
Continuous
 62
     3
370
    25
100
AcDbLine
 10
-66.85999584287401
 20
-86.74999938160181
 30
0.0
 11
-66.05999583095308
 21
-86.74999938160181
 31
0.0
  0
LINE
  5
429
330
1F
100
AcDbEntity
  8
Layer0016
  6
Continuous
 62
     3
370
    25
100
AcDbLine
 10
-66.05999583095308
 20
-86.74999938160181
 30
0.0
 11
-66.05999583095308
 21
-80.54999928921461
 31
0.0
  0
LINE
  5
42A
330
1F
100
AcDbEntity
  8
Layer0016
  6
Continuous
 62
     3
370
    25
100
AcDbLine
 10
-66.05999583095308
 20
-80.54999928921461
 30
0.0
 11
-65.85999582797285
 21
-80.34999928623438
 31
0.0
  0
LINE
  5
42B
330
1F
100
AcDbEntity
  8
Layer0016
  6
Continuous
 62
     3
370
    25
100
AcDbLine
 10
-65.85999582797285
 20
-80.34999928623438
 30
0.0
 11
-65.85999582797285
 21
-79.74999927729368
 31
0.0
  0
LINE
  5
42C
330
1F
100
AcDbEntity
  8
Layer0016
  6
Continuous
 62
     3
370
    25
100
AcDbLine
 10
-65.85999582797285
 20
-79.74999927729368
 30
0.0
 11
-65.05999581605192
 21
-78.34999925643206
 31
0.0
  0
LINE
  5
42D
330
1F
100
AcDbEntity
  8
Layer0016
  6
Continuous
 62
     3
370
    25
100
AcDbLine
 10
-65.05999581605192
 20
-78.34999925643206
 30
0.0
 11
-64.45999580711123
 21
-78.34999925643206
 31
0.0
  0
LINE
  5
42E
330
1F
100
AcDbEntity
  8
Layer0016
  6
Continuous
 62
     3
370
    25
100
AcDbLine
 10
-64.45999580711123
 20
-78.34999925643206
 30
0.0
 11
-64.45999580711123
 21
-77.94999925047159
 31
0.0
  0
LINE
  5
42F
330
1F
100
AcDbEntity
  8
Layer0016
  6
Continuous
 62
     3
370
    25
100
AcDbLine
 10
-64.45999580711123
 20
-77.94999925047159
 30
0.0
 11
-65.25999581903216
 21
-77.94999925047159
 31
0.0
  0
LINE
  5
430
330
1F
100
AcDbEntity
  8
Layer0016
  6
Continuous
 62
     3
370
    25
100
AcDbLine
 10
-65.25999581903216
 20
-77.94999925047159
 30
0.0
 11
-66.45999583691355
 21
-79.14999926835299
 31
0.0
  0
LINE
  5
431
330
1F
100
AcDbEntity
  8
Layer0016
  6
Continuous
 62
     3
370
    25
100
AcDbLine
 10
-66.45999583691355
 20
-79.14999926835299
 30
0.0
 11
-67.65999585479494
 21
-77.94999925047159
 31
0.0
  0
LINE
  5
432
330
1F
100
AcDbEntity
  8
Layer0016
  6
Continuous
 62
     3
370
    25
100
AcDbLine
 10
-67.65999585479494
 20
-77.94999925047159
 30
0.0
 11
-68.45999586671587
 21
-77.94999925047159
 31
0.0
  0
CIRCLE
  5
433
330
1F
100
AcDbEntity
  8
Layer0016
  6
Continuous
 62
     3
370
    25
100
AcDbCircle
 10
-66.45999595455972
 20
-78.64999926090239
 30
0.0
 40
0.3599999958276747
  0
LINE
  5
434
330
1F
100
AcDbEntity
  8
Layer0016
  6
Continuous
 62
     3
370
    25
100
AcDbLine
 10
-62.88000310778625
 20
-77.94999925047159
 30
0.0
 11
-62.88000310778625
 21
-78.34999925643206
 31
0.0
  0
LINE
  5
435
330
1F
100
AcDbEntity
  8
Layer0016
  6
Continuous
 62
     3
370
    25
100
AcDbLine
 10
-62.88000310778625
 20
-78.34999925643206
 30
0.0
 11
-62.28000309884555
 21
-78.34999925643206
 31
0.0
  0
LINE
  5
436
330
1F
100
AcDbEntity
  8
Layer0016
  6
Continuous
 62
     3
370
    25
100
AcDbLine
 10
-62.28000309884555
 20
-78.34999925643206
 30
0.0
 11
-61.48000308692464
 21
-79.74999927729368
 31
0.0
  0
LINE
  5
437
330
1F
100
AcDbEntity
  8
Layer0016
  6
Continuous
 62
     3
370
    25
100
AcDbLine
 10
-61.48000308692464
 20
-79.74999927729368
 30
0.0
 11
-61.48000308692464
 21
-80.34999928623438
 31
0.0
  0
LINE
  5
438
330
1F
100
AcDbEntity
  8
Layer0016
  6
Continuous
 62
     3
370
    25
100
AcDbLine
 10
-61.48000308692464
 20
-80.34999928623438
 30
0.0
 11
-61.28000308394439
 21
-80.54999928921461
 31
0.0
  0
LINE
  5
439
330
1F
100
AcDbEntity
  8
Layer0016
  6
Continuous
 62
     3
370
    25
100
AcDbLine
 10
-61.28000308394439
 20
-80.54999928921461
 30
0.0
 11
-61.28000308394439
 21
-86.74999938160181
 31
0.0
  0
LINE
  5
43A
330
1F
100
AcDbEntity
  8
Layer0016
  6
Continuous
 62
     3
370
    25
100
AcDbLine
 10
-61.28000308394439
 20
-86.74999938160181
 30
0.0
 11
-60.48000307202346
 21
-86.74999938160181
 31
0.0
  0
LINE
  5
43B
330
1F
100
AcDbEntity
  8
Layer0016
  6
Continuous
 62
     3
370
    25
100
AcDbLine
 10
-60.48000307202346
 20
-86.74999938160181
 30
0.0
 11
-60.48000307202346
 21
-80.54999928921461
 31
0.0
  0
LINE
  5
43C
330
1F
100
AcDbEntity
  8
Layer0016
  6
Continuous
 62
     3
370
    25
100
AcDbLine
 10
-60.48000307202346
 20
-80.54999928921461
 30
0.0
 11
-60.28000306904323
 21
-80.34999928623438
 31
0.0
  0
LINE
  5
43D
330
1F
100
AcDbEntity
  8
Layer0016
  6
Continuous
 62
     3
370
    25
100
AcDbLine
 10
-60.28000306904323
 20
-80.34999928623438
 30
0.0
 11
-60.28000306904323
 21
-79.74999927729368
 31
0.0
  0
LINE
  5
43E
330
1F
100
AcDbEntity
  8
Layer0016
  6
Continuous
 62
     3
370
    25
100
AcDbLine
 10
-60.28000306904323
 20
-79.74999927729368
 30
0.0
 11
-59.4800030571223
 21
-78.34999925643206
 31
0.0
  0
LINE
  5
43F
330
1F
100
AcDbEntity
  8
Layer0016
  6
Continuous
 62
     3
370
    25
100
AcDbLine
 10
-59.4800030571223
 20
-78.34999925643206
 30
0.0
 11
-58.88000304818161
 21
-78.34999925643206
 31
0.0
  0
LINE
  5
440
330
1F
100
AcDbEntity
  8
Layer0016
  6
Continuous
 62
     3
370
    25
100
AcDbLine
 10
-58.88000304818161
 20
-78.34999925643206
 30
0.0
 11
-58.88000304818161
 21
-77.94999925047159
 31
0.0
  0
LINE
  5
441
330
1F
100
AcDbEntity
  8
Layer0016
  6
Continuous
 62
     3
370
    25
100
AcDbLine
 10
-58.88000304818161
 20
-77.94999925047159
 30
0.0
 11
-59.68000306010255
 21
-77.94999925047159
 31
0.0
  0
LINE
  5
442
330
1F
100
AcDbEntity
  8
Layer0016
  6
Continuous
 62
     3
370
    25
100
AcDbLine
 10
-59.68000306010255
 20
-77.94999925047159
 30
0.0
 11
-60.88000307798393
 21
-79.14999926835299
 31
0.0
  0
LINE
  5
443
330
1F
100
AcDbEntity
  8
Layer0016
  6
Continuous
 62
     3
370
    25
100
AcDbLine
 10
-60.88000307798393
 20
-79.14999926835299
 30
0.0
 11
-62.08000309586532
 21
-77.94999925047159
 31
0.0
  0
LINE
  5
444
330
1F
100
AcDbEntity
  8
Layer0016
  6
Continuous
 62
     3
370
    25
100
AcDbLine
 10
-62.08000309586532
 20
-77.94999925047159
 30
0.0
 11
-62.88000310778625
 21
-77.94999925047159
 31
0.0
  0
CIRCLE
  5
445
330
1F
100
AcDbEntity
  8
Layer0016
  6
Continuous
 62
     3
370
    25
100
AcDbCircle
 10
-60.8800031956301
 20
-78.64999926090239
 30
0.0
 40
0.3599999958276747
  0
LINE
  5
446
330
1F
100
AcDbEntity
  8
Layer0016
  6
Continuous
 62
     3
370
    25
100
AcDbLine
 10
-57.2999981418252
 20
-77.94999925047159
 30
0.0
 11
-57.2999981418252
 21
-78.34999925643206
 31
0.0
  0
LINE
  5
447
330
1F
100
AcDbEntity
  8
Layer0016
  6
Continuous
 62
     3
370
    25
100
AcDbLine
 10
-57.2999981418252
 20
-78.34999925643206
 30
0.0
 11
-56.6999981328845
 21
-78.34999925643206
 31
0.0
  0
LINE
  5
448
330
1F
100
AcDbEntity
  8
Layer0016
  6
Continuous
 62
     3
370
    25
100
AcDbLine
 10
-56.6999981328845
 20
-78.34999925643206
 30
0.0
 11
-55.89999812096357
 21
-79.74999927729368
 31
0.0
  0
LINE
  5
449
330
1F
100
AcDbEntity
  8
Layer0016
  6
Continuous
 62
     3
370
    25
100
AcDbLine
 10
-55.89999812096357
 20
-79.74999927729368
 30
0.0
 11
-55.89999812096357
 21
-80.34999928623438
 31
0.0
  0
LINE
  5
44A
330
1F
100
AcDbEntity
  8
Layer0016
  6
Continuous
 62
     3
370
    25
100
AcDbLine
 10
-55.89999812096357
 20
-80.34999928623438
 30
0.0
 11
-55.69999811798334
 21
-80.54999928921461
 31
0.0
  0
LINE
  5
44B
330
1F
100
AcDbEntity
  8
Layer0016
  6
Continuous
 62
     3
370
    25
100
AcDbLine
 10
-55.69999811798334
 20
-80.54999928921461
 30
0.0
 11
-55.69999811798334
 21
-86.74999938160181
 31
0.0
  0
LINE
  5
44C
330
1F
100
AcDbEntity
  8
Layer0016
  6
Continuous
 62
     3
370
    25
100
AcDbLine
 10
-55.69999811798334
 20
-86.74999938160181
 30
0.0
 11
-54.89999810606241
 21
-86.74999938160181
 31
0.0
  0
LINE
  5
44D
330
1F
100
AcDbEntity
  8
Layer0016
  6
Continuous
 62
     3
370
    25
100
AcDbLine
 10
-54.89999810606241
 20
-86.74999938160181
 30
0.0
 11
-54.89999810606241
 21
-80.54999928921461
 31
0.0
  0
LINE
  5
44E
330
1F
100
AcDbEntity
  8
Layer0016
  6
Continuous
 62
     3
370
    25
100
AcDbLine
 10
-54.89999810606241
 20
-80.54999928921461
 30
0.0
 11
-54.69999810308218
 21
-80.34999928623438
 31
0.0
  0
LINE
  5
44F
330
1F
100
AcDbEntity
  8
Layer0016
  6
Continuous
 62
     3
370
    25
100
AcDbLine
 10
-54.69999810308218
 20
-80.34999928623438
 30
0.0
 11
-54.69999810308218
 21
-79.74999927729368
 31
0.0
  0
LINE
  5
450
330
1F
100
AcDbEntity
  8
Layer0016
  6
Continuous
 62
     3
370
    25
100
AcDbLine
 10
-54.69999810308218
 20
-79.74999927729368
 30
0.0
 11
-53.89999809116125
 21
-78.34999925643206
 31
0.0
  0
LINE
  5
451
330
1F
100
AcDbEntity
  8
Layer0016
  6
Continuous
 62
     3
370
    25
100
AcDbLine
 10
-53.89999809116125
 20
-78.34999925643206
 30
0.0
 11
-53.29999808222055
 21
-78.34999925643206
 31
0.0
  0
LINE
  5
452
330
1F
100
AcDbEntity
  8
Layer0016
  6
Continuous
 62
     3
370
    25
100
AcDbLine
 10
-53.29999808222055
 20
-78.34999925643206
 30
0.0
 11
-53.29999808222055
 21
-77.94999925047159
 31
0.0
  0
LINE
  5
453
330
1F
100
AcDbEntity
  8
Layer0016
  6
Continuous
 62
     3
370
    25
100
AcDbLine
 10
-53.29999808222055
 20
-77.94999925047159
 30
0.0
 11
-54.09999809414148
 21
-77.94999925047159
 31
0.0
  0
LINE
  5
454
330
1F
100
AcDbEntity
  8
Layer0016
  6
Continuous
 62
     3
370
    25
100
AcDbLine
 10
-54.09999809414148
 20
-77.94999925047159
 30
0.0
 11
-55.29999811202288
 21
-79.14999926835299
 31
0.0
  0
LINE
  5
455
330
1F
100
AcDbEntity
  8
Layer0016
  6
Continuous
 62
     3
370
    25
100
AcDbLine
 10
-55.29999811202288
 20
-79.14999926835299
 30
0.0
 11
-56.49999812990427
 21
-77.94999925047159
 31
0.0
  0
LINE
  5
456
330
1F
100
AcDbEntity
  8
Layer0016
  6
Continuous
 62
     3
370
    25
100
AcDbLine
 10
-56.49999812990427
 20
-77.94999925047159
 30
0.0
 11
-57.2999981418252
 21
-77.94999925047159
 31
0.0
  0
CIRCLE
  5
457
330
1F
100
AcDbEntity
  8
Layer0016
  6
Continuous
 62
     3
370
    25
100
AcDbCircle
 10
-55.29999822966904
 20
-78.64999926090239
 30
0.0
 40
0.3599999958276747
  0
LINE
  5
458
330
1F
100
AcDbEntity
  8
Layer0016
  6
Continuous
 62
     3
370
    25
100
AcDbLine
 10
-51.71999317586415
 20
-77.94999925047159
 30
0.0
 11
-51.71999317586415
 21
-78.34999925643206
 31
0.0
  0
LINE
  5
459
330
1F
100
AcDbEntity
  8
Layer0016
  6
Continuous
 62
     3
370
    25
100
AcDbLine
 10
-51.71999317586415
 20
-78.34999925643206
 30
0.0
 11
-51.11999316692345
 21
-78.34999925643206
 31
0.0
  0
LINE
  5
45A
330
1F
100
AcDbEntity
  8
Layer0016
  6
Continuous
 62
     3
370
    25
100
AcDbLine
 10
-51.11999316692345
 20
-78.34999925643206
 30
0.0
 11
-50.31999315500252
 21
-79.74999927729368
 31
0.0
  0
LINE
  5
45B
330
1F
100
AcDbEntity
  8
Layer0016
  6
Continuous
 62
     3
370
    25
100
AcDbLine
 10
-50.31999315500252
 20
-79.74999927729368
 30
0.0
 11
-50.31999315500252
 21
-80.34999928623438
 31
0.0
  0
LINE
  5
45C
330
1F
100
AcDbEntity
  8
Layer0016
  6
Continuous
 62
     3
370
    25
100
AcDbLine
 10
-50.31999315500252
 20
-80.34999928623438
 30
0.0
 11
-50.11999315202229
 21
-80.54999928921461
 31
0.0
  0
LINE
  5
45D
330
1F
100
AcDbEntity
  8
Layer0016
  6
Continuous
 62
     3
370
    25
100
AcDbLine
 10
-50.11999315202229
 20
-80.54999928921461
 30
0.0
 11
-50.11999315202229
 21
-86.74999938160181
 31
0.0
  0
LINE
  5
45E
330
1F
100
AcDbEntity
  8
Layer0016
  6
Continuous
 62
     3
370
    25
100
AcDbLine
 10
-50.11999315202229
 20
-86.74999938160181
 30
0.0
 11
-49.31999314010136
 21
-86.74999938160181
 31
0.0
  0
LINE
  5
45F
330
1F
100
AcDbEntity
  8
Layer0016
  6
Continuous
 62
     3
370
    25
100
AcDbLine
 10
-49.31999314010136
 20
-86.74999938160181
 30
0.0
 11
-49.31999314010136
 21
-80.54999928921461
 31
0.0
  0
LINE
  5
460
330
1F
100
AcDbEntity
  8
Layer0016
  6
Continuous
 62
     3
370
    25
100
AcDbLine
 10
-49.31999314010136
 20
-80.54999928921461
 30
0.0
 11
-49.11999313712113
 21
-80.34999928623438
 31
0.0
  0
LINE
  5
461
330
1F
100
AcDbEntity
  8
Layer0016
  6
Continuous
 62
     3
370
    25
100
AcDbLine
 10
-49.11999313712113
 20
-80.34999928623438
 30
0.0
 11
-49.11999313712113
 21
-79.74999927729368
 31
0.0
  0
LINE
  5
462
330
1F
100
AcDbEntity
  8
Layer0016
  6
Continuous
 62
     3
370
    25
100
AcDbLine
 10
-49.11999313712113
 20
-79.74999927729368
 30
0.0
 11
-48.3199931252002
 21
-78.34999925643206
 31
0.0
  0
LINE
  5
463
330
1F
100
AcDbEntity
  8
Layer0016
  6
Continuous
 62
     3
370
    25
100
AcDbLine
 10
-48.3199931252002
 20
-78.34999925643206
 30
0.0
 11
-47.7199931162595
 21
-78.34999925643206
 31
0.0
  0
LINE
  5
464
330
1F
100
AcDbEntity
  8
Layer0016
  6
Continuous
 62
     3
370
    25
100
AcDbLine
 10
-47.7199931162595
 20
-78.34999925643206
 30
0.0
 11
-47.7199931162595
 21
-77.94999925047159
 31
0.0
  0
LINE
  5
465
330
1F
100
AcDbEntity
  8
Layer0016
  6
Continuous
 62
     3
370
    25
100
AcDbLine
 10
-47.7199931162595
 20
-77.94999925047159
 30
0.0
 11
-48.51999312818043
 21
-77.94999925047159
 31
0.0
  0
LINE
  5
466
330
1F
100
AcDbEntity
  8
Layer0016
  6
Continuous
 62
     3
370
    25
100
AcDbLine
 10
-48.51999312818043
 20
-77.94999925047159
 30
0.0
 11
-49.71999314606182
 21
-79.14999926835299
 31
0.0
  0
LINE
  5
467
330
1F
100
AcDbEntity
  8
Layer0016
  6
Continuous
 62
     3
370
    25
100
AcDbLine
 10
-49.71999314606182
 20
-79.14999926835299
 30
0.0
 11
-50.91999316394322
 21
-77.94999925047159
 31
0.0
  0
LINE
  5
468
330
1F
100
AcDbEntity
  8
Layer0016
  6
Continuous
 62
     3
370
    25
100
AcDbLine
 10
-50.91999316394322
 20
-77.94999925047159
 30
0.0
 11
-51.71999317586415
 21
-77.94999925047159
 31
0.0
  0
CIRCLE
  5
469
330
1F
100
AcDbEntity
  8
Layer0016
  6
Continuous
 62
     3
370
    25
100
AcDbCircle
 10
-49.71999326370799
 20
-78.64999926090239
 30
0.0
 40
0.3599999958276747
  0
LINE
  5
46A
330
1F
100
AcDbEntity
  8
Layer0016
  6
Continuous
 62
     3
370
    25
100
AcDbLine
 10
-46.19999797642231
 20
-77.94999925047159
 30
0.0
 11
-46.19999797642231
 21
-78.34999925643206
 31
0.0
  0
LINE
  5
46B
330
1F
100
AcDbEntity
  8
Layer0016
  6
Continuous
 62
     3
370
    25
100
AcDbLine
 10
-46.19999797642231
 20
-78.34999925643206
 30
0.0
 11
-45.59999796748161
 21
-78.34999925643206
 31
0.0
  0
LINE
  5
46C
330
1F
100
AcDbEntity
  8
Layer0016
  6
Continuous
 62
     3
370
    25
100
AcDbLine
 10
-45.59999796748161
 20
-78.34999925643206
 30
0.0
 11
-44.79999795556068
 21
-79.74999927729368
 31
0.0
  0
LINE
  5
46D
330
1F
100
AcDbEntity
  8
Layer0016
  6
Continuous
 62
     3
370
    25
100
AcDbLine
 10
-44.79999795556068
 20
-79.74999927729368
 30
0.0
 11
-44.79999795556068
 21
-80.34999928623438
 31
0.0
  0
LINE
  5
46E
330
1F
100
AcDbEntity
  8
Layer0016
  6
Continuous
 62
     3
370
    25
100
AcDbLine
 10
-44.79999795556068
 20
-80.34999928623438
 30
0.0
 11
-44.59999795258045
 21
-80.54999928921461
 31
0.0
  0
LINE
  5
46F
330
1F
100
AcDbEntity
  8
Layer0016
  6
Continuous
 62
     3
370
    25
100
AcDbLine
 10
-44.59999795258045
 20
-80.54999928921461
 30
0.0
 11
-44.59999795258045
 21
-86.74999938160181
 31
0.0
  0
LINE
  5
470
330
1F
100
AcDbEntity
  8
Layer0016
  6
Continuous
 62
     3
370
    25
100
AcDbLine
 10
-44.59999795258045
 20
-86.74999938160181
 30
0.0
 11
-43.79999794065952
 21
-86.74999938160181
 31
0.0
  0
LINE
  5
471
330
1F
100
AcDbEntity
  8
Layer0016
  6
Continuous
 62
     3
370
    25
100
AcDbLine
 10
-43.79999794065952
 20
-86.74999938160181
 30
0.0
 11
-43.79999794065952
 21
-80.54999928921461
 31
0.0
  0
LINE
  5
472
330
1F
100
AcDbEntity
  8
Layer0016
  6
Continuous
 62
     3
370
    25
100
AcDbLine
 10
-43.79999794065952
 20
-80.54999928921461
 30
0.0
 11
-43.59999793767929
 21
-80.34999928623438
 31
0.0
  0
LINE
  5
473
330
1F
100
AcDbEntity
  8
Layer0016
  6
Continuous
 62
     3
370
    25
100
AcDbLine
 10
-43.59999793767929
 20
-80.34999928623438
 30
0.0
 11
-43.59999793767929
 21
-79.74999927729368
 31
0.0
  0
LINE
  5
474
330
1F
100
AcDbEntity
  8
Layer0016
  6
Continuous
 62
     3
370
    25
100
AcDbLine
 10
-43.59999793767929
 20
-79.74999927729368
 30
0.0
 11
-42.79999792575836
 21
-78.34999925643206
 31
0.0
  0
LINE
  5
475
330
1F
100
AcDbEntity
  8
Layer0016
  6
Continuous
 62
     3
370
    25
100
AcDbLine
 10
-42.79999792575836
 20
-78.34999925643206
 30
0.0
 11
-42.19999791681767
 21
-78.34999925643206
 31
0.0
  0
LINE
  5
476
330
1F
100
AcDbEntity
  8
Layer0016
  6
Continuous
 62
     3
370
    25
100
AcDbLine
 10
-42.19999791681767
 20
-78.34999925643206
 30
0.0
 11
-42.19999791681767
 21
-77.94999925047159
 31
0.0
  0
LINE
  5
477
330
1F
100
AcDbEntity
  8
Layer0016
  6
Continuous
 62
     3
370
    25
100
AcDbLine
 10
-42.19999791681767
 20
-77.94999925047159
 30
0.0
 11
-42.99999792873859
 21
-77.94999925047159
 31
0.0
  0
LINE
  5
478
330
1F
100
AcDbEntity
  8
Layer0016
  6
Continuous
 62
     3
370
    25
100
AcDbLine
 10
-42.99999792873859
 20
-77.94999925047159
 30
0.0
 11
-44.19999794661999
 21
-79.14999926835299
 31
0.0
  0
LINE
  5
479
330
1F
100
AcDbEntity
  8
Layer0016
  6
Continuous
 62
     3
370
    25
100
AcDbLine
 10
-44.19999794661999
 20
-79.14999926835299
 30
0.0
 11
-45.39999796450138
 21
-77.94999925047159
 31
0.0
  0
LINE
  5
47A
330
1F
100
AcDbEntity
  8
Layer0016
  6
Continuous
 62
     3
370
    25
100
AcDbLine
 10
-45.39999796450138
 20
-77.94999925047159
 30
0.0
 11
-46.19999797642231
 21
-77.94999925047159
 31
0.0
  0
CIRCLE
  5
47B
330
1F
100
AcDbEntity
  8
Layer0016
  6
Continuous
 62
     3
370
    25
100
AcDbCircle
 10
-44.19999806426615
 20
-78.64999926090239
 30
0.0
 40
0.3599999958276747
  0
LINE
  5
47C
330
1F
100
AcDbEntity
  8
Layer0016
  6
Continuous
 62
     3
370
    25
100
AcDbLine
 10
-140.9999993890524
 20
-77.94999925047159
 30
0.0
 11
-42.19999791681767
 21
-77.94999925047159
 31
0.0
  0
LINE
  5
47D
330
1F
100
AcDbEntity
  8
Layer0016
  6
Continuous
 62
     3
370
    25
100
AcDbLine
 10
-140.9999993890524
 20
-77.94999925047159
 30
0.0
 11
-140.9999993890524
 21
-78.34999925643206
 31
0.0
  0
LINE
  5
47E
330
1F
100
AcDbEntity
  8
Layer0016
  6
Continuous
 62
     3
370
    25
100
AcDbLine
 10
-138.5499993525445
 20
-84.34999934583902
 30
0.0
 11
-133.869999359101
 21
-84.34999934583902
 31
0.0
  0
LINE
  5
47F
330
1F
100
AcDbEntity
  8
Layer0016
  6
Continuous
 62
     3
370
    25
100
AcDbLine
 10
-132.9700004900992
 20
-84.34999934583902
 30
0.0
 11
-128.2900004966557
 21
-84.34999934583902
 31
0.0
  0
LINE
  5
480
330
1F
100
AcDbEntity
  8
Layer0016
  6
Continuous
 62
     3
370
    25
100
AcDbLine
 10
-127.3900016276539
 20
-84.34999934583902
 30
0.0
 11
-122.7100016342104
 21
-84.34999934583902
 31
0.0
  0
LINE
  5
481
330
1F
100
AcDbEntity
  8
Layer0016
  6
Continuous
 62
     3
370
    25
100
AcDbLine
 10
-121.8099966616928
 20
-84.34999934583902
 30
0.0
 11
-117.1299966682493
 21
-84.34999934583902
 31
0.0
  0
LINE
  5
482
330
1F
100
AcDbEntity
  8
Layer0016
  6
Continuous
 62
     3
370
    25
100
AcDbLine
 10
-116.2299977992475
 20
-84.34999934583902
 30
0.0
 11
-111.549997805804
 21
-84.34999934583902
 31
0.0
  0
LINE
  5
483
330
1F
100
AcDbEntity
  8
Layer0016
  6
Continuous
 62
     3
370
    25
100
AcDbLine
 10
-110.6499989368021
 20
-84.34999934583902
 30
0.0
 11
-105.9699989433586
 21
-84.34999934583902
 31
0.0
  0
LINE
  5
484
330
1F
100
AcDbEntity
  8
Layer0016
  6
Continuous
 62
     3
370
    25
100
AcDbLine
 10
-105.0700000743568
 20
-84.34999934583902
 30
0.0
 11
-100.3900000809133
 21
-84.34999934583902
 31
0.0
  0
LINE
  5
485
330
1F
100
AcDbEntity
  8
Layer0016
  6
Continuous
 62
     3
370
    25
100
AcDbLine
 10
-99.49000121191148
 20
-84.34999934583902
 30
0.0
 11
-94.81000121846799
 21
-84.34999934583902
 31
0.0
  0
LINE
  5
486
330
1F
100
AcDbEntity
  8
Layer0016
  6
Continuous
 62
     3
370
    25
100
AcDbLine
 10
-93.90999624595042
 20
-84.34999934583902
 30
0.0
 11
-89.22999625250694
 21
-84.34999934583902
 31
0.0
  0
LINE
  5
487
330
1F
100
AcDbEntity
  8
Layer0016
  6
Continuous
 62
     3
370
    25
100
AcDbLine
 10
-88.32999738350509
 20
-84.34999934583902
 30
0.0
 11
-83.6499973900616
 21
-84.34999934583902
 31
0.0
  0
LINE
  5
488
330
1F
100
AcDbEntity
  8
Layer0016
  6
Continuous
 62
     3
370
    25
100
AcDbLine
 10
-82.74999852105975
 20
-84.34999934583902
 30
0.0
 11
-78.06999852761626
 21
-84.34999934583902
 31
0.0
  0
LINE
  5
489
330
1F
100
AcDbEntity
  8
Layer0016
  6
Continuous
 62
     3
370
    25
100
AcDbLine
 10
-77.1699935550987
 20
-84.34999934583902
 30
0.0
 11
-72.48999356165521
 21
-84.34999934583902
 31
0.0
  0
LINE
  5
48A
330
1F
100
AcDbEntity
  8
Layer0016
  6
Continuous
 62
     3
370
    25
100
AcDbLine
 10
-71.59000079616908
 20
-84.34999934583902
 30
0.0
 11
-66.91000080272559
 21
-84.34999934583902
 31
0.0
  0
LINE
  5
48B
330
1F
100
AcDbEntity
  8
Layer0016
  6
Continuous
 62
     3
370
    25
100
AcDbLine
 10
-66.00999583020803
 20
-84.34999934583902
 30
0.0
 11
-61.32999583676454
 21
-84.34999934583902
 31
0.0
  0
LINE
  5
48C
330
1F
100
AcDbEntity
  8
Layer0016
  6
Continuous
 62
     3
370
    25
100
AcDbLine
 10
-60.43000307127841
 20
-84.34999934583902
 30
0.0
 11
-55.75000307783492
 21
-84.34999934583902
 31
0.0
  0
LINE
  5
48D
330
1F
100
AcDbEntity
  8
Layer0016
  6
Continuous
 62
     3
370
    25
100
AcDbLine
 10
-54.84999810531735
 20
-84.34999934583902
 30
0.0
 11
-50.16999811187387
 21
-84.34999934583902
 31
0.0
  0
LINE
  5
48E
330
1F
100
AcDbEntity
  8
Layer0016
  6
Continuous
 62
     3
370
    25
100
AcDbLine
 10
-49.2699931393563
 20
-84.34999934583902
 30
0.0
 11
-44.64999299421899
 21
-84.34999934583902
 31
0.0
  0
LINE
  5
48F
330
1F
100
AcDbEntity
  8
Layer0016
  6
Continuous
 62
     3
370
    25
100
AcDbLine
 10
-138.5499993525445
 20
-80.54999928921461
 30
0.0
 11
-138.3499993495643
 21
-80.34999928623438
 31
0.0
  0
LINE
  5
490
330
1F
100
AcDbEntity
  8
Layer0016
  6
Continuous
 62
     3
370
    25
100
AcDbLine
 10
-138.3499993495643
 20
-80.34999928623438
 30
0.0
 11
-134.0699993620813
 21
-80.34999928623438
 31
0.0
  0
LINE
  5
491
330
1F
100
AcDbEntity
  8
Layer0016
  6
Continuous
 62
     3
370
    25
100
AcDbLine
 10
-134.0699993620813
 20
-80.34999928623438
 30
0.0
 11
-133.869999359101
 21
-80.54999928921461
 31
0.0
  0
LINE
  5
492
330
1F
100
AcDbEntity
  8
Layer0016
  6
Continuous
 62
     3
370
    25
100
AcDbLine
 10
-133.869999359101
 20
-82.54999931901693
 30
0.0
 11
-134.0699993620813
 21
-82.74999932199717
 31
0.0
  0
LINE
  5
493
330
1F
100
AcDbEntity
  8
Layer0016
  6
Continuous
 62
     3
370
    25
100
AcDbLine
 10
-134.0699993620813
 20
-82.74999932199717
 30
0.0
 11
-138.3499993495643
 21
-82.74999932199717
 31
0.0
  0
LINE
  5
494
330
1F
100
AcDbEntity
  8
Layer0016
  6
Continuous
 62
     3
370
    25
100
AcDbLine
 10
-138.3499993495643
 20
-82.74999932199717
 30
0.0
 11
-138.5499993525445
 21
-82.54999931901693
 31
0.0
  0
LINE
  5
495
330
1F
100
AcDbEntity
  8
Layer0016
  6
Continuous
 62
     3
370
    25
100
AcDbLine
 10
-132.9700004900992
 20
-80.54999928921461
 30
0.0
 11
-132.770000487119
 21
-80.34999928623438
 31
0.0
  0
LINE
  5
496
330
1F
100
AcDbEntity
  8
Layer0016
  6
Continuous
 62
     3
370
    25
100
AcDbLine
 10
-132.770000487119
 20
-80.34999928623438
 30
0.0
 11
-128.4900004996359
 21
-80.34999928623438
 31
0.0
  0
LINE
  5
497
330
1F
100
AcDbEntity
  8
Layer0016
  6
Continuous
 62
     3
370
    25
100
AcDbLine
 10
-128.4900004996359
 20
-80.34999928623438
 30
0.0
 11
-128.2900004966557
 21
-80.54999928921461
 31
0.0
  0
LINE
  5
498
330
1F
100
AcDbEntity
  8
Layer0016
  6
Continuous
 62
     3
370
    25
100
AcDbLine
 10
-128.2900004966557
 20
-82.54999931901693
 30
0.0
 11
-128.4900004996359
 21
-82.74999932199717
 31
0.0
  0
LINE
  5
499
330
1F
100
AcDbEntity
  8
Layer0016
  6
Continuous
 62
     3
370
    25
100
AcDbLine
 10
-128.4900004996359
 20
-82.74999932199717
 30
0.0
 11
-132.770000487119
 21
-82.74999932199717
 31
0.0
  0
LINE
  5
49A
330
1F
100
AcDbEntity
  8
Layer0016
  6
Continuous
 62
     3
370
    25
100
AcDbLine
 10
-132.770000487119
 20
-82.74999932199717
 30
0.0
 11
-132.9700004900992
 21
-82.54999931901693
 31
0.0
  0
LINE
  5
49B
330
1F
100
AcDbEntity
  8
Layer0016
  6
Continuous
 62
     3
370
    25
100
AcDbLine
 10
-127.3900016276539
 20
-80.54999928921461
 30
0.0
 11
-127.1900016246736
 21
-80.34999928623438
 31
0.0
  0
LINE
  5
49C
330
1F
100
AcDbEntity
  8
Layer0016
  6
Continuous
 62
     3
370
    25
100
AcDbLine
 10
-127.1900016246736
 20
-80.34999928623438
 30
0.0
 11
-122.9100016371906
 21
-80.34999928623438
 31
0.0
  0
LINE
  5
49D
330
1F
100
AcDbEntity
  8
Layer0016
  6
Continuous
 62
     3
370
    25
100
AcDbLine
 10
-122.9100016371906
 20
-80.34999928623438
 30
0.0
 11
-122.7100016342104
 21
-80.54999928921461
 31
0.0
  0
LINE
  5
49E
330
1F
100
AcDbEntity
  8
Layer0016
  6
Continuous
 62
     3
370
    25
100
AcDbLine
 10
-122.7100016342104
 20
-82.54999931901693
 30
0.0
 11
-122.9100016371906
 21
-82.74999932199717
 31
0.0
  0
LINE
  5
49F
330
1F
100
AcDbEntity
  8
Layer0016
  6
Continuous
 62
     3
370
    25
100
AcDbLine
 10
-122.9100016371906
 20
-82.74999932199717
 30
0.0
 11
-127.1900016246736
 21
-82.74999932199717
 31
0.0
  0
LINE
  5
4A0
330
1F
100
AcDbEntity
  8
Layer0016
  6
Continuous
 62
     3
370
    25
100
AcDbLine
 10
-127.1900016246736
 20
-82.74999932199717
 30
0.0
 11
-127.3900016276539
 21
-82.54999931901693
 31
0.0
  0
LINE
  5
4A1
330
1F
100
AcDbEntity
  8
Layer0016
  6
Continuous
 62
     3
370
    25
100
AcDbLine
 10
-121.8099966616928
 20
-80.54999928921461
 30
0.0
 11
-121.6099966587126
 21
-80.34999928623438
 31
0.0
  0
LINE
  5
4A2
330
1F
100
AcDbEntity
  8
Layer0016
  6
Continuous
 62
     3
370
    25
100
AcDbLine
 10
-121.6099966587126
 20
-80.34999928623438
 30
0.0
 11
-117.3299966712295
 21
-80.34999928623438
 31
0.0
  0
LINE
  5
4A3
330
1F
100
AcDbEntity
  8
Layer0016
  6
Continuous
 62
     3
370
    25
100
AcDbLine
 10
-117.3299966712295
 20
-80.34999928623438
 30
0.0
 11
-117.1299966682493
 21
-80.54999928921461
 31
0.0
  0
LINE
  5
4A4
330
1F
100
AcDbEntity
  8
Layer0016
  6
Continuous
 62
     3
370
    25
100
AcDbLine
 10
-117.1299966682493
 20
-82.54999931901693
 30
0.0
 11
-117.3299966712295
 21
-82.74999932199717
 31
0.0
  0
LINE
  5
4A5
330
1F
100
AcDbEntity
  8
Layer0016
  6
Continuous
 62
     3
370
    25
100
AcDbLine
 10
-117.3299966712295
 20
-82.74999932199717
 30
0.0
 11
-121.6099966587126
 21
-82.74999932199717
 31
0.0
  0
LINE
  5
4A6
330
1F
100
AcDbEntity
  8
Layer0016
  6
Continuous
 62
     3
370
    25
100
AcDbLine
 10
-121.6099966587126
 20
-82.74999932199717
 30
0.0
 11
-121.8099966616928
 21
-82.54999931901693
 31
0.0
  0
LINE
  5
4A7
330
1F
100
AcDbEntity
  8
Layer0016
  6
Continuous
 62
     3
370
    25
100
AcDbLine
 10
-116.2299977992475
 20
-80.54999928921461
 30
0.0
 11
-116.0299977962672
 21
-80.34999928623438
 31
0.0
  0
LINE
  5
4A8
330
1F
100
AcDbEntity
  8
Layer0016
  6
Continuous
 62
     3
370
    25
100
AcDbLine
 10
-116.0299977962672
 20
-80.34999928623438
 30
0.0
 11
-111.7499978087842
 21
-80.34999928623438
 31
0.0
  0
LINE
  5
4A9
330
1F
100
AcDbEntity
  8
Layer0016
  6
Continuous
 62
     3
370
    25
100
AcDbLine
 10
-111.7499978087842
 20
-80.34999928623438
 30
0.0
 11
-111.549997805804
 21
-80.54999928921461
 31
0.0
  0
LINE
  5
4AA
330
1F
100
AcDbEntity
  8
Layer0016
  6
Continuous
 62
     3
370
    25
100
AcDbLine
 10
-111.549997805804
 20
-82.54999931901693
 30
0.0
 11
-111.7499978087842
 21
-82.74999932199717
 31
0.0
  0
LINE
  5
4AB
330
1F
100
AcDbEntity
  8
Layer0016
  6
Continuous
 62
     3
370
    25
100
AcDbLine
 10
-111.7499978087842
 20
-82.74999932199717
 30
0.0
 11
-116.0299977962672
 21
-82.74999932199717
 31
0.0
  0
LINE
  5
4AC
330
1F
100
AcDbEntity
  8
Layer0016
  6
Continuous
 62
     3
370
    25
100
AcDbLine
 10
-116.0299977962672
 20
-82.74999932199717
 30
0.0
 11
-116.2299977992475
 21
-82.54999931901693
 31
0.0
  0
LINE
  5
4AD
330
1F
100
AcDbEntity
  8
Layer0016
  6
Continuous
 62
     3
370
    25
100
AcDbLine
 10
-110.6499989368021
 20
-80.54999928921461
 30
0.0
 11
-110.4499989338219
 21
-80.34999928623438
 31
0.0
  0
LINE
  5
4AE
330
1F
100
AcDbEntity
  8
Layer0016
  6
Continuous
 62
     3
370
    25
100
AcDbLine
 10
-110.4499989338219
 20
-80.34999928623438
 30
0.0
 11
-106.1699989463389
 21
-80.34999928623438
 31
0.0
  0
LINE
  5
4AF
330
1F
100
AcDbEntity
  8
Layer0016
  6
Continuous
 62
     3
370
    25
100
AcDbLine
 10
-106.1699989463389
 20
-80.34999928623438
 30
0.0
 11
-105.9699989433586
 21
-80.54999928921461
 31
0.0
  0
LINE
  5
4B0
330
1F
100
AcDbEntity
  8
Layer0016
  6
Continuous
 62
     3
370
    25
100
AcDbLine
 10
-105.9699989433586
 20
-82.54999931901693
 30
0.0
 11
-106.1699989463389
 21
-82.74999932199717
 31
0.0
  0
LINE
  5
4B1
330
1F
100
AcDbEntity
  8
Layer0016
  6
Continuous
 62
     3
370
    25
100
AcDbLine
 10
-106.1699989463389
 20
-82.74999932199717
 30
0.0
 11
-110.4499989338219
 21
-82.74999932199717
 31
0.0
  0
LINE
  5
4B2
330
1F
100
AcDbEntity
  8
Layer0016
  6
Continuous
 62
     3
370
    25
100
AcDbLine
 10
-110.4499989338219
 20
-82.74999932199717
 30
0.0
 11
-110.6499989368021
 21
-82.54999931901693
 31
0.0
  0
LINE
  5
4B3
330
1F
100
AcDbEntity
  8
Layer0016
  6
Continuous
 62
     3
370
    25
100
AcDbLine
 10
-105.0700000743568
 20
-80.54999928921461
 30
0.0
 11
-104.8700000713766
 21
-80.34999928623438
 31
0.0
  0
LINE
  5
4B4
330
1F
100
AcDbEntity
  8
Layer0016
  6
Continuous
 62
     3
370
    25
100
AcDbLine
 10
-104.8700000713766
 20
-80.34999928623438
 30
0.0
 11
-100.5900000838935
 21
-80.34999928623438
 31
0.0
  0
LINE
  5
4B5
330
1F
100
AcDbEntity
  8
Layer0016
  6
Continuous
 62
     3
370
    25
100
AcDbLine
 10
-100.5900000838935
 20
-80.34999928623438
 30
0.0
 11
-100.3900000809133
 21
-80.54999928921461
 31
0.0
  0
LINE
  5
4B6
330
1F
100
AcDbEntity
  8
Layer0016
  6
Continuous
 62
     3
370
    25
100
AcDbLine
 10
-100.3900000809133
 20
-82.54999931901693
 30
0.0
 11
-100.5900000838935
 21
-82.74999932199717
 31
0.0
  0
LINE
  5
4B7
330
1F
100
AcDbEntity
  8
Layer0016
  6
Continuous
 62
     3
370
    25
100
AcDbLine
 10
-100.5900000838935
 20
-82.74999932199717
 30
0.0
 11
-104.8700000713766
 21
-82.74999932199717
 31
0.0
  0
LINE
  5
4B8
330
1F
100
AcDbEntity
  8
Layer0016
  6
Continuous
 62
     3
370
    25
100
AcDbLine
 10
-104.8700000713766
 20
-82.74999932199717
 30
0.0
 11
-105.0700000743568
 21
-82.54999931901693
 31
0.0
  0
LINE
  5
4B9
330
1F
100
AcDbEntity
  8
Layer0016
  6
Continuous
 62
     3
370
    25
100
AcDbLine
 10
-99.49000121191148
 20
-80.54999928921461
 30
0.0
 11
-99.29000120893124
 21
-80.34999928623438
 31
0.0
  0
LINE
  5
4BA
330
1F
100
AcDbEntity
  8
Layer0016
  6
Continuous
 62
     3
370
    25
100
AcDbLine
 10
-99.29000120893124
 20
-80.34999928623438
 30
0.0
 11
-95.01000122144822
 21
-80.34999928623438
 31
0.0
  0
LINE
  5
4BB
330
1F
100
AcDbEntity
  8
Layer0016
  6
Continuous
 62
     3
370
    25
100
AcDbLine
 10
-95.01000122144822
 20
-80.34999928623438
 30
0.0
 11
-94.81000121846799
 21
-80.54999928921461
 31
0.0
  0
LINE
  5
4BC
330
1F
100
AcDbEntity
  8
Layer0016
  6
Continuous
 62
     3
370
    25
100
AcDbLine
 10
-94.81000121846799
 20
-82.54999931901693
 30
0.0
 11
-95.01000122144822
 21
-82.74999932199717
 31
0.0
  0
LINE
  5
4BD
330
1F
100
AcDbEntity
  8
Layer0016
  6
Continuous
 62
     3
370
    25
100
AcDbLine
 10
-95.01000122144822
 20
-82.74999932199717
 30
0.0
 11
-99.29000120893124
 21
-82.74999932199717
 31
0.0
  0
LINE
  5
4BE
330
1F
100
AcDbEntity
  8
Layer0016
  6
Continuous
 62
     3
370
    25
100
AcDbLine
 10
-99.29000120893124
 20
-82.74999932199717
 30
0.0
 11
-99.49000121191148
 21
-82.54999931901693
 31
0.0
  0
LINE
  5
4BF
330
1F
100
AcDbEntity
  8
Layer0016
  6
Continuous
 62
     3
370
    25
100
AcDbLine
 10
-93.90999624595042
 20
-80.54999928921461
 30
0.0
 11
-93.70999624297019
 21
-80.34999928623438
 31
0.0
  0
LINE
  5
4C0
330
1F
100
AcDbEntity
  8
Layer0016
  6
Continuous
 62
     3
370
    25
100
AcDbLine
 10
-93.70999624297019
 20
-80.34999928623438
 30
0.0
 11
-89.42999625548717
 21
-80.34999928623438
 31
0.0
  0
LINE
  5
4C1
330
1F
100
AcDbEntity
  8
Layer0016
  6
Continuous
 62
     3
370
    25
100
AcDbLine
 10
-89.42999625548717
 20
-80.34999928623438
 30
0.0
 11
-89.22999625250694
 21
-80.54999928921461
 31
0.0
  0
LINE
  5
4C2
330
1F
100
AcDbEntity
  8
Layer0016
  6
Continuous
 62
     3
370
    25
100
AcDbLine
 10
-89.22999625250694
 20
-82.54999931901693
 30
0.0
 11
-89.42999625548717
 21
-82.74999932199717
 31
0.0
  0
LINE
  5
4C3
330
1F
100
AcDbEntity
  8
Layer0016
  6
Continuous
 62
     3
370
    25
100
AcDbLine
 10
-89.42999625548717
 20
-82.74999932199717
 30
0.0
 11
-93.70999624297019
 21
-82.74999932199717
 31
0.0
  0
LINE
  5
4C4
330
1F
100
AcDbEntity
  8
Layer0016
  6
Continuous
 62
     3
370
    25
100
AcDbLine
 10
-93.70999624297019
 20
-82.74999932199717
 30
0.0
 11
-93.90999624595042
 21
-82.54999931901693
 31
0.0
  0
LINE
  5
4C5
330
1F
100
AcDbEntity
  8
Layer0016
  6
Continuous
 62
     3
370
    25
100
AcDbLine
 10
-88.32999738350509
 20
-80.54999928921461
 30
0.0
 11
-88.12999738052486
 21
-80.34999928623438
 31
0.0
  0
LINE
  5
4C6
330
1F
100
AcDbEntity
  8
Layer0016
  6
Continuous
 62
     3
370
    25
100
AcDbLine
 10
-88.12999738052486
 20
-80.34999928623438
 30
0.0
 11
-83.84999739304183
 21
-80.34999928623438
 31
0.0
  0
LINE
  5
4C7
330
1F
100
AcDbEntity
  8
Layer0016
  6
Continuous
 62
     3
370
    25
100
AcDbLine
 10
-83.84999739304183
 20
-80.34999928623438
 30
0.0
 11
-83.6499973900616
 21
-80.54999928921461
 31
0.0
  0
LINE
  5
4C8
330
1F
100
AcDbEntity
  8
Layer0016
  6
Continuous
 62
     3
370
    25
100
AcDbLine
 10
-83.6499973900616
 20
-82.54999931901693
 30
0.0
 11
-83.84999739304183
 21
-82.74999932199717
 31
0.0
  0
LINE
  5
4C9
330
1F
100
AcDbEntity
  8
Layer0016
  6
Continuous
 62
     3
370
    25
100
AcDbLine
 10
-83.84999739304183
 20
-82.74999932199717
 30
0.0
 11
-88.12999738052486
 21
-82.74999932199717
 31
0.0
  0
LINE
  5
4CA
330
1F
100
AcDbEntity
  8
Layer0016
  6
Continuous
 62
     3
370
    25
100
AcDbLine
 10
-88.12999738052486
 20
-82.74999932199717
 30
0.0
 11
-88.32999738350509
 21
-82.54999931901693
 31
0.0
  0
LINE
  5
4CB
330
1F
100
AcDbEntity
  8
Layer0016
  6
Continuous
 62
     3
370
    25
100
AcDbLine
 10
-82.74999852105975
 20
-80.54999928921461
 30
0.0
 11
-82.54999851807952
 21
-80.34999928623438
 31
0.0
  0
LINE
  5
4CC
330
1F
100
AcDbEntity
  8
Layer0016
  6
Continuous
 62
     3
370
    25
100
AcDbLine
 10
-82.54999851807952
 20
-80.34999928623438
 30
0.0
 11
-78.2699985305965
 21
-80.34999928623438
 31
0.0
  0
LINE
  5
4CD
330
1F
100
AcDbEntity
  8
Layer0016
  6
Continuous
 62
     3
370
    25
100
AcDbLine
 10
-78.2699985305965
 20
-80.34999928623438
 30
0.0
 11
-78.06999852761626
 21
-80.54999928921461
 31
0.0
  0
LINE
  5
4CE
330
1F
100
AcDbEntity
  8
Layer0016
  6
Continuous
 62
     3
370
    25
100
AcDbLine
 10
-78.06999852761626
 20
-82.54999931901693
 30
0.0
 11
-78.2699985305965
 21
-82.74999932199717
 31
0.0
  0
LINE
  5
4CF
330
1F
100
AcDbEntity
  8
Layer0016
  6
Continuous
 62
     3
370
    25
100
AcDbLine
 10
-78.2699985305965
 20
-82.74999932199717
 30
0.0
 11
-82.54999851807952
 21
-82.74999932199717
 31
0.0
  0
LINE
  5
4D0
330
1F
100
AcDbEntity
  8
Layer0016
  6
Continuous
 62
     3
370
    25
100
AcDbLine
 10
-82.54999851807952
 20
-82.74999932199717
 30
0.0
 11
-82.74999852105975
 21
-82.54999931901693
 31
0.0
  0
LINE
  5
4D1
330
1F
100
AcDbEntity
  8
Layer0016
  6
Continuous
 62
     3
370
    25
100
AcDbLine
 10
-77.1699935550987
 20
-80.54999928921461
 30
0.0
 11
-76.96999355211847
 21
-80.34999928623438
 31
0.0
  0
LINE
  5
4D2
330
1F
100
AcDbEntity
  8
Layer0016
  6
Continuous
 62
     3
370
    25
100
AcDbLine
 10
-76.96999355211847
 20
-80.34999928623438
 30
0.0
 11
-72.68999356463544
 21
-80.34999928623438
 31
0.0
  0
LINE
  5
4D3
330
1F
100
AcDbEntity
  8
Layer0016
  6
Continuous
 62
     3
370
    25
100
AcDbLine
 10
-72.68999356463544
 20
-80.34999928623438
 30
0.0
 11
-72.48999356165521
 21
-80.54999928921461
 31
0.0
  0
LINE
  5
4D4
330
1F
100
AcDbEntity
  8
Layer0016
  6
Continuous
 62
     3
370
    25
100
AcDbLine
 10
-72.48999356165521
 20
-82.54999931901693
 30
0.0
 11
-72.68999356463544
 21
-82.74999932199717
 31
0.0
  0
LINE
  5
4D5
330
1F
100
AcDbEntity
  8
Layer0016
  6
Continuous
 62
     3
370
    25
100
AcDbLine
 10
-72.68999356463544
 20
-82.74999932199717
 30
0.0
 11
-76.96999355211847
 21
-82.74999932199717
 31
0.0
  0
LINE
  5
4D6
330
1F
100
AcDbEntity
  8
Layer0016
  6
Continuous
 62
     3
370
    25
100
AcDbLine
 10
-76.96999355211847
 20
-82.74999932199717
 30
0.0
 11
-77.1699935550987
 21
-82.54999931901693
 31
0.0
  0
LINE
  5
4D7
330
1F
100
AcDbEntity
  8
Layer0016
  6
Continuous
 62
     3
370
    25
100
AcDbLine
 10
-71.59000079616908
 20
-80.54999928921461
 30
0.0
 11
-71.39000079318885
 21
-80.34999928623438
 31
0.0
  0
LINE
  5
4D8
330
1F
100
AcDbEntity
  8
Layer0016
  6
Continuous
 62
     3
370
    25
100
AcDbLine
 10
-71.39000079318885
 20
-80.34999928623438
 30
0.0
 11
-67.11000080570582
 21
-80.34999928623438
 31
0.0
  0
LINE
  5
4D9
330
1F
100
AcDbEntity
  8
Layer0016
  6
Continuous
 62
     3
370
    25
100
AcDbLine
 10
-67.11000080570582
 20
-80.34999928623438
 30
0.0
 11
-66.91000080272559
 21
-80.54999928921461
 31
0.0
  0
LINE
  5
4DA
330
1F
100
AcDbEntity
  8
Layer0016
  6
Continuous
 62
     3
370
    25
100
AcDbLine
 10
-66.91000080272559
 20
-82.54999931901693
 30
0.0
 11
-67.11000080570582
 21
-82.74999932199717
 31
0.0
  0
LINE
  5
4DB
330
1F
100
AcDbEntity
  8
Layer0016
  6
Continuous
 62
     3
370
    25
100
AcDbLine
 10
-67.11000080570582
 20
-82.74999932199717
 30
0.0
 11
-71.39000079318885
 21
-82.74999932199717
 31
0.0
  0
LINE
  5
4DC
330
1F
100
AcDbEntity
  8
Layer0016
  6
Continuous
 62
     3
370
    25
100
AcDbLine
 10
-71.39000079318885
 20
-82.74999932199717
 30
0.0
 11
-71.59000079616908
 21
-82.54999931901693
 31
0.0
  0
LINE
  5
4DD
330
1F
100
AcDbEntity
  8
Layer0016
  6
Continuous
 62
     3
370
    25
100
AcDbLine
 10
-66.00999583020803
 20
-80.54999928921461
 30
0.0
 11
-65.8099958272278
 21
-80.34999928623438
 31
0.0
  0
LINE
  5
4DE
330
1F
100
AcDbEntity
  8
Layer0016
  6
Continuous
 62
     3
370
    25
100
AcDbLine
 10
-65.8099958272278
 20
-80.34999928623438
 30
0.0
 11
-61.52999583974477
 21
-80.34999928623438
 31
0.0
  0
LINE
  5
4DF
330
1F
100
AcDbEntity
  8
Layer0016
  6
Continuous
 62
     3
370
    25
100
AcDbLine
 10
-61.52999583974477
 20
-80.34999928623438
 30
0.0
 11
-61.32999583676454
 21
-80.54999928921461
 31
0.0
  0
LINE
  5
4E0
330
1F
100
AcDbEntity
  8
Layer0016
  6
Continuous
 62
     3
370
    25
100
AcDbLine
 10
-61.32999583676454
 20
-82.54999931901693
 30
0.0
 11
-61.52999583974477
 21
-82.74999932199717
 31
0.0
  0
LINE
  5
4E1
330
1F
100
AcDbEntity
  8
Layer0016
  6
Continuous
 62
     3
370
    25
100
AcDbLine
 10
-61.52999583974477
 20
-82.74999932199717
 30
0.0
 11
-65.8099958272278
 21
-82.74999932199717
 31
0.0
  0
LINE
  5
4E2
330
1F
100
AcDbEntity
  8
Layer0016
  6
Continuous
 62
     3
370
    25
100
AcDbLine
 10
-65.8099958272278
 20
-82.74999932199717
 30
0.0
 11
-66.00999583020803
 21
-82.54999931901693
 31
0.0
  0
LINE
  5
4E3
330
1F
100
AcDbEntity
  8
Layer0016
  6
Continuous
 62
     3
370
    25
100
AcDbLine
 10
-60.43000307127841
 20
-80.54999928921461
 30
0.0
 11
-60.23000306829817
 21
-80.34999928623438
 31
0.0
  0
LINE
  5
4E4
330
1F
100
AcDbEntity
  8
Layer0016
  6
Continuous
 62
     3
370
    25
100
AcDbLine
 10
-60.23000306829817
 20
-80.34999928623438
 30
0.0
 11
-55.95000308081515
 21
-80.34999928623438
 31
0.0
  0
LINE
  5
4E5
330
1F
100
AcDbEntity
  8
Layer0016
  6
Continuous
 62
     3
370
    25
100
AcDbLine
 10
-55.95000308081515
 20
-80.34999928623438
 30
0.0
 11
-55.75000307783492
 21
-80.54999928921461
 31
0.0
  0
LINE
  5
4E6
330
1F
100
AcDbEntity
  8
Layer0016
  6
Continuous
 62
     3
370
    25
100
AcDbLine
 10
-55.75000307783492
 20
-82.54999931901693
 30
0.0
 11
-55.95000308081515
 21
-82.74999932199717
 31
0.0
  0
LINE
  5
4E7
330
1F
100
AcDbEntity
  8
Layer0016
  6
Continuous
 62
     3
370
    25
100
AcDbLine
 10
-55.95000308081515
 20
-82.74999932199717
 30
0.0
 11
-60.23000306829817
 21
-82.74999932199717
 31
0.0
  0
LINE
  5
4E8
330
1F
100
AcDbEntity
  8
Layer0016
  6
Continuous
 62
     3
370
    25
100
AcDbLine
 10
-60.23000306829817
 20
-82.74999932199717
 30
0.0
 11
-60.43000307127841
 21
-82.54999931901693
 31
0.0
  0
LINE
  5
4E9
330
1F
100
AcDbEntity
  8
Layer0016
  6
Continuous
 62
     3
370
    25
100
AcDbLine
 10
-54.84999810531735
 20
-80.54999928921461
 30
0.0
 11
-54.64999810233712
 21
-80.34999928623438
 31
0.0
  0
LINE
  5
4EA
330
1F
100
AcDbEntity
  8
Layer0016
  6
Continuous
 62
     3
370
    25
100
AcDbLine
 10
-54.64999810233712
 20
-80.34999928623438
 30
0.0
 11
-50.3699981148541
 21
-80.34999928623438
 31
0.0
  0
LINE
  5
4EB
330
1F
100
AcDbEntity
  8
Layer0016
  6
Continuous
 62
     3
370
    25
100
AcDbLine
 10
-50.3699981148541
 20
-80.34999928623438
 30
0.0
 11
-50.16999811187387
 21
-80.54999928921461
 31
0.0
  0
LINE
  5
4EC
330
1F
100
AcDbEntity
  8
Layer0016
  6
Continuous
 62
     3
370
    25
100
AcDbLine
 10
-50.16999811187387
 20
-82.54999931901693
 30
0.0
 11
-50.3699981148541
 21
-82.74999932199717
 31
0.0
  0
LINE
  5
4ED
330
1F
100
AcDbEntity
  8
Layer0016
  6
Continuous
 62
     3
370
    25
100
AcDbLine
 10
-50.3699981148541
 20
-82.74999932199717
 30
0.0
 11
-54.64999810233712
 21
-82.74999932199717
 31
0.0
  0
LINE
  5
4EE
330
1F
100
AcDbEntity
  8
Layer0016
  6
Continuous
 62
     3
370
    25
100
AcDbLine
 10
-54.64999810233712
 20
-82.74999932199717
 30
0.0
 11
-54.84999810531735
 21
-82.54999931901693
 31
0.0
  0
LINE
  5
4EF
330
1F
100
AcDbEntity
  8
Layer0016
  6
Continuous
 62
     3
370
    25
100
AcDbLine
 10
-49.2699931393563
 20
-80.54999928921461
 30
0.0
 11
-49.06999313637607
 21
-80.34999928623438
 31
0.0
  0
LINE
  5
4F0
330
1F
100
AcDbEntity
  8
Layer0016
  6
Continuous
 62
     3
370
    25
100
AcDbLine
 10
-49.06999313637607
 20
-80.34999928623438
 30
0.0
 11
-44.84999299719922
 21
-80.34999928623438
 31
0.0
  0
LINE
  5
4F1
330
1F
100
AcDbEntity
  8
Layer0016
  6
Continuous
 62
     3
370
    25
100
AcDbLine
 10
-44.84999299719922
 20
-80.34999928623438
 30
0.0
 11
-44.64999299421899
 21
-80.54999928921461
 31
0.0
  0
LINE
  5
4F2
330
1F
100
AcDbEntity
  8
Layer0016
  6
Continuous
 62
     3
370
    25
100
AcDbLine
 10
-44.64999299421899
 20
-82.54999931901693
 30
0.0
 11
-44.84999299719922
 21
-82.74999932199717
 31
0.0
  0
LINE
  5
4F3
330
1F
100
AcDbEntity
  8
Layer0016
  6
Continuous
 62
     3
370
    25
100
AcDbLine
 10
-44.84999299719922
 20
-82.74999932199717
 30
0.0
 11
-49.06999313637607
 21
-82.74999932199717
 31
0.0
  0
LINE
  5
4F4
330
1F
100
AcDbEntity
  8
Layer0016
  6
Continuous
 62
     3
370
    25
100
AcDbLine
 10
-49.06999313637607
 20
-82.74999932199717
 30
0.0
 11
-49.2699931393563
 21
-82.54999931901693
 31
0.0
  0
LINE
  5
4F5
330
1F
100
AcDbEntity
  8
Layer0016
  6
Continuous
 62
     3
370
    25
100
AcDbLine
 10
-139.3999993652105
 20
-86.74999938160181
 30
0.0
 11
-43.79999794065952
 21
-86.74999938160181
 31
0.0
  0
LINE
  5
4F6
330
1F
100
AcDbEntity
  8
Layer0016
  6
Continuous
 62
     3
370
    25
100
AcDbLine
 10
-43.79999794065952
 20
-86.74999938160181
 30
0.0
 11
-43.79999794065952
 21
-99.7499995753169
 31
0.0
  0
LINE
  5
4F7
330
1F
100
AcDbEntity
  8
Layer0016
  6
Continuous
 62
     3
370
    25
100
AcDbLine
 10
-43.79999794065952
 20
-99.7499995753169
 30
0.0
 11
-139.3999993652105
 21
-99.7499995753169
 31
0.0
  0
LINE
  5
4F8
330
1F
100
AcDbEntity
  8
Layer0016
  6
Continuous
 62
     3
370
    25
100
AcDbLine
 10
-139.3999993652105
 20
-99.7499995753169
 30
0.0
 11
-139.3999993652105
 21
-86.74999938160181
 31
0.0
  0
LINE
  5
4F9
330
1F
100
AcDbEntity
  8
Layer0016
  6
Continuous
 62
     3
370
    25
100
AcDbLine
 10
-139.649999368936
 20
-80.34999928623438
 30
0.0
 11
-140.0499993748964
 21
-80.34999928623438
 31
0.0
  0
LINE
  5
4FA
330
1F
100
AcDbEntity
  8
Layer0016
  6
Continuous
 62
     3
370
    25
100
AcDbLine
 10
-140.0499993748964
 20
-80.34999928623438
 30
0.0
 11
-140.0499993748964
 21
-82.74999932199717
 31
0.0
  0
LINE
  5
4FB
330
1F
100
AcDbEntity
  8
Layer0016
  6
Continuous
 62
     3
370
    25
100
AcDbLine
 10
-140.0499993748964
 20
-82.74999932199717
 30
0.0
 11
-139.649999368936
 21
-82.74999932199717
 31
0.0
  0
LINE
  5
4FC
330
1F
100
AcDbEntity
  8
Layer0016
  6
Continuous
 62
     3
370
    25
100
AcDbLine
 10
-43.54999940916896
 20
-80.34999928623438
 30
0.0
 11
-43.1499994032085
 21
-80.34999928623438
 31
0.0
  0
LINE
  5
4FD
330
1F
100
AcDbEntity
  8
Layer0016
  6
Continuous
 62
     3
370
    25
100
AcDbLine
 10
-43.1499994032085
 20
-80.34999928623438
 30
0.0
 11
-43.1499994032085
 21
-82.74999932199717
 31
0.0
  0
LINE
  5
4FE
330
1F
100
AcDbEntity
  8
Layer0016
  6
Continuous
 62
     3
370
    25
100
AcDbLine
 10
-43.1499994032085
 20
-82.74999932199717
 30
0.0
 11
-43.54999940916896
 21
-82.74999932199717
 31
0.0
  0
LINE
  5
4FF
330
1F
100
AcDbEntity
  8
Layer0016
  6
Continuous
 62
     3
370
    25
100
AcDbLine
 10
-139.4499993659556
 20
-80.54999928921461
 30
0.0
 11
-139.649999368936
 21
-80.34999928623438
 31
0.0
  0
LINE
  5
500
330
1F
100
AcDbEntity
  8
Layer0016
  6
Continuous
 62
     3
370
    25
100
AcDbLine
 10
-139.649999368936
 20
-82.74999932199717
 30
0.0
 11
-139.4499993659556
 21
-82.54999931901693
 31
0.0
  0
LINE
  5
501
330
1F
100
AcDbEntity
  8
Layer0016
  6
Continuous
 62
     3
370
    25
100
AcDbLine
 10
-43.74999941214919
 20
-80.54999928921461
 30
0.0
 11
-43.54999940916896
 21
-80.34999928623438
 31
0.0
  0
LINE
  5
502
330
1F
100
AcDbEntity
  8
Layer0016
  6
Continuous
 62
     3
370
    25
100
AcDbLine
 10
-43.54999940916896
 20
-82.74999932199717
 30
0.0
 11
-43.74999941214919
 21
-82.54999931901693
 31
0.0
  0
LINE
  5
503
330
1F
100
AcDbEntity
  8
Layer0016
  6
Continuous
 62
     3
370
    25
100
AcDbLine
 10
-43.74999793991447
 20
-84.34999934583902
 30
0.0
 11
-43.33666460042199
 21
-82.74999932199717
 31
0.0
  0
LINE
  5
504
330
1F
100
AcDbEntity
  8
Layer0016
  6
Continuous
 62
     3
370
    25
100
AcDbLine
 10
-43.1499994032085
 20
-82.02742436504172
 30
0.0
 11
-42.19999791681767
 21
-78.34999925643206
 31
0.0
  0
LINE
  5
505
330
1F
100
AcDbEntity
  8
Layer0016
  6
Continuous
 62
     3
370
    25
100
AcDbLine
 10
-140.9999993890524
 20
-78.34999925643206
 30
0.0
 11
-140.0499993748964
 21
-82.02741866606834
 31
0.0
  0
LINE
  5
506
330
1F
100
AcDbEntity
  8
Layer0016
  6
Continuous
 62
     3
370
    25
100
AcDbLine
 10
-139.8633327054481
 20
-82.74999932199717
 30
0.0
 11
-139.4499993659556
 21
-84.34999934583902
 31
0.0
  0
LINE
  5
507
330
1F
100
AcDbEntity
  8
Layer0016
  6
DASHED2
 62
     3
370
    25
100
AcDbLine
 10
-139.3999993652105
 20
-87.3899994006753
 30
0.0
 11
-43.79999794065952
 21
-87.3899994006753
 31
0.0
  0
LINE
  5
508
330
1F
100
AcDbEntity
  8
Layer0016
  6
DASHED2
 62
     3
370
    25
100
AcDbLine
 10
-139.3999993652105
 20
-99.11000017613173
 30
0.0
 11
-43.79999794065952
 21
-99.11000017613173
 31
0.0
  0
LINE
  5
509
330
1F
100
AcDbEntity
  8
Layer0022
  6
Continuous
 62
     4
370
    25
100
AcDbLine
 10
92.40000408887863
 20
94.85000332444906
 30
0.0
 11
87.40000401437283
 21
94.85000332444906
 31
0.0
  0
LINE
  5
50A
330
1F
100
AcDbEntity
  8
Layer0022
  6
Continuous
 62
     4
370
    25
100
AcDbLine
 10
87.40000401437283
 20
94.85000332444906
 30
0.0
 11
87.40000401437283
 21
90.85000326484442
 31
0.0
  0
LINE
  5
50B
330
1F
100
AcDbEntity
  8
Layer0022
  6
Continuous
 62
     4
370
    25
100
AcDbLine
 10
87.40000401437283
 20
90.85000326484442
 30
0.0
 11
145.4000048786402
 21
90.85000326484442
 31
0.0
  0
LINE
  5
50C
330
1F
100
AcDbEntity
  8
Layer0022
  6
Continuous
 62
     4
370
    25
100
AcDbLine
 10
145.4000048786402
 20
90.85000326484442
 30
0.0
 11
145.4000048786402
 21
94.85000332444906
 31
0.0
  0
LINE
  5
50D
330
1F
100
AcDbEntity
  8
Layer0022
  6
Continuous
 62
     4
370
    25
100
AcDbLine
 10
145.4000048786402
 20
94.85000332444906
 30
0.0
 11
140.4000048041344
 21
94.85000332444906
 31
0.0
  0
LINE
  5
50E
330
1F
100
AcDbEntity
  8
Layer0022
  6
Continuous
 62
     4
370
    25
100
AcDbLine
 10
69.40000374615192
 20
26.35000230371952
 30
0.0
 11
68.40000373125076
 21
26.35000230371952
 31
0.0
  0
LINE
  5
50F
330
1F
100
AcDbEntity
  8
Layer0022
  6
Continuous
 62
     4
370
    25
100
AcDbLine
 10
68.40000373125076
 20
26.35000230371952
 30
0.0
 11
68.40000373125076
 21
23.85000226646662
 31
0.0
  0
LINE
  5
510
330
1F
100
AcDbEntity
  8
Layer0022
  6
Continuous
 62
     4
370
    25
100
AcDbLine
 10
68.40000373125076
 20
23.85000226646662
 30
0.0
 11
82.40000393986702
 21
23.85000226646662
 31
0.0
  0
LINE
  5
511
330
1F
100
AcDbEntity
  8
Layer0022
  6
Continuous
 62
     4
370
    25
100
AcDbLine
 10
82.40000393986702
 20
23.85000226646662
 30
0.0
 11
82.40000393986702
 21
26.35000230371952
 31
0.0
  0
LINE
  5
512
330
1F
100
AcDbEntity
  8
Layer0022
  6
Continuous
 62
     4
370
    25
100
AcDbLine
 10
82.40000393986702
 20
26.35000230371952
 30
0.0
 11
81.40000392496586
 21
26.35000230371952
 31
0.0
  0
LINE
  5
513
330
1F
100
AcDbEntity
  8
Layer0022
  6
Continuous
 62
     4
370
    25
100
AcDbLine
 10
80.4000039100647
 20
16.35000215470791
 30
0.0
 11
92.40000408887863
 21
16.35000215470791
 31
0.0
  0
LINE
  5
514
330
1F
100
AcDbEntity
  8
Layer0022
  6
Continuous
 62
     4
370
    25
100
AcDbLine
 10
97.40000416338444
 20
16.35000215470791
 30
0.0
 11
101.4000042229891
 21
16.35000215470791
 31
0.0
  0
LINE
  5
515
330
1F
100
AcDbEntity
  8
Layer0022
  6
Continuous
 62
     4
370
    25
100
AcDbLine
 10
106.4000042974949
 20
16.35000215470791
 30
0.0
 11
138.400004774332
 21
16.35000215470791
 31
0.0
  0
LINE
  5
516
330
1F
100
AcDbEntity
  8
Layer0022
  6
Continuous
 62
     4
370
    25
100
AcDbLine
 10
83.40000395476818
 20
-60.14999898523092
 30
0.0
 11
131.4000046700239
 21
-60.14999898523092
 31
0.0
  0
LINE
  5
517
330
1F
100
AcDbEntity
  8
Layer0022
  6
Continuous
 62
     4
370
    25
100
AcDbLine
 10
-182.0
 20
-128.25
 30
0.0
 11
-178.9999999552965
 21
-128.25
 31
0.0
  0
LINE
  5
518
330
1F
100
AcDbEntity
  8
Layer0022
  6
Continuous
 62
     4
370
    25
100
AcDbLine
 10
-178.9999999552965
 20
-128.25
 30
0.0
 11
-178.9999999552965
 21
-125.2499999552965
 31
0.0
  0
LINE
  5
519
330
1F
100
AcDbEntity
  8
Layer0022
  6
Continuous
 62
     4
370
    25
100
AcDbLine
 10
-178.9999999552965
 20
-125.2499999552965
 30
0.0
 11
-182.0
 21
-125.2499999552965
 31
0.0
  0
LINE
  5
51A
330
1F
100
AcDbEntity
  8
Layer0022
  6
Continuous
 62
     4
370
    25
100
AcDbLine
 10
-182.0
 20
-125.2499999552965
 30
0.0
 11
-182.0
 21
-128.25
 31
0.0
  0
LINE
  5
51B
330
1F
100
AcDbEntity
  8
Layer0022
  6
Continuous
 62
     4
370
    25
100
AcDbLine
 10
-182.0
 20
-128.25
 30
0.0
 11
-178.9999999552965
 21
-128.25
 31
0.0
  0
LINE
  5
51C
330
1F
100
AcDbEntity
  8
Layer0022
  6
Continuous
 62
     4
370
    25
100
AcDbLine
 10
-178.9999999552965
 20
-128.25
 30
0.0
 11
-178.9999999552965
 21
-125.2499999552965
 31
0.0
  0
LINE
  5
51D
330
1F
100
AcDbEntity
  8
Layer0022
  6
Continuous
 62
     4
370
    25
100
AcDbLine
 10
-178.9999999552965
 20
-125.2499999552965
 30
0.0
 11
-182.0
 21
-125.2499999552965
 31
0.0
  0
LINE
  5
51E
330
1F
100
AcDbEntity
  8
Layer0022
  6
Continuous
 62
     4
370
    25
100
AcDbLine
 10
-182.0
 20
-125.2499999552965
 30
0.0
 11
-182.0
 21
-128.25
 31
0.0
  0
LINE
  5
51F
330
1F
100
AcDbEntity
  8
Layer0022
  6
Continuous
 62
     4
370
    25
100
AcDbLine
 10
-182.0
 20
-128.25
 30
0.0
 11
-178.9999999552965
 21
-128.25
 31
0.0
  0
LINE
  5
520
330
1F
100
AcDbEntity
  8
Layer0022
  6
Continuous
 62
     4
370
    25
100
AcDbLine
 10
-178.9999999552965
 20
-128.25
 30
0.0
 11
-178.9999999552965
 21
-125.2499999552965
 31
0.0
  0
LINE
  5
521
330
1F
100
AcDbEntity
  8
Layer0022
  6
Continuous
 62
     4
370
    25
100
AcDbLine
 10
-178.9999999552965
 20
-125.2499999552965
 30
0.0
 11
-182.0
 21
-125.2499999552965
 31
0.0
  0
LINE
  5
522
330
1F
100
AcDbEntity
  8
Layer0022
  6
Continuous
 62
     4
370
    25
100
AcDbLine
 10
-182.0
 20
-125.2499999552965
 30
0.0
 11
-182.0
 21
-128.25
 31
0.0
  0
ARC
  5
523
330
1F
100
AcDbEntity
  8
Layer0022
  6
Continuous
 62
     4
370
    25
100
AcDbCircle
 10
60.40000361204147
 20
101.8500034287572
 30
0.0
 40
5.000000074505806
100
AcDbArc
 50
270.0000000000006
 51
0.0000000000008142
  0
LINE
  5
524
330
1F
100
AcDbEntity
  8
Layer0022
  6
Continuous
 62
     4
370
    25
100
AcDbLine
 10
60.40000524601599
 20
96.85000335425167
 30
0.0
 11
60.40000361204147
 21
-58.1499989554286
 31
0.0
  0
ARC
  5
525
330
1F
100
AcDbEntity
  8
Layer0022
  6
Continuous
 62
     4
370
    25
100
AcDbCircle
 10
60.40000197806697
 20
-63.14999902993415
 30
0.0
 40
5.000000074505806
100
AcDbArc
 50
0.0
 51
90.0000000000002
  0
LINE
  5
526
330
1F
100
AcDbEntity
  8
Layer0022
  6
Continuous
 62
     4
370
    25
100
AcDbLine
 10
65.40000205257277
 20
-63.14999902993415
 30
0.0
 11
165.4000051766634
 21
-63.14999902993442
 31
0.0
  0
ARC
  5
527
330
1F
100
AcDbEntity
  8
Layer0022
  6
Continuous
 62
     4
370
    25
100
AcDbCircle
 10
170.4000052511681
 20
-63.15000229788342
 30
0.0
 40
5.000000074505806
100
AcDbArc
 50
90.0000000000002
 51
180.0000000000004
  0
LINE
  5
528
330
1F
100
AcDbEntity
  8
Layer0022
  6
Continuous
 62
     4
370
    25
100
AcDbLine
 10
170.4000068851426
 20
-58.15000222337789
 30
0.0
 11
170.4000052511692
 21
96.85000335425138
 31
0.0
  0
ARC
  5
529
330
1F
100
AcDbEntity
  8
Layer0022
  6
Continuous
 62
     4
370
    25
100
AcDbCircle
 10
170.4000101530927
 20
101.8500034287548
 30
0.0
 40
5.000000074505806
100
AcDbArc
 50
180.0000000000004
 51
270.0000000000006
  0
LINE
  5
52A
330
1F
100
AcDbEntity
  8
Layer0022
  6
Continuous
 62
     4
370
    25
100
AcDbLine
 10
165.400010078588
 20
101.8500066967038
 30
0.0
 11
65.40000368654728
 21
101.8500034287572
 31
0.0
  0
LINE
  5
52B
330
1F
100
AcDbEntity
  8
Layer0022
  6
Continuous
 62
     4
370
    25
100
AcDbLine
 10
-136.9999993294477
 20
36.55000245571136
 30
0.0
 11
-136.6999993249774
 21
38.01000251561403
 31
0.0
  0
LINE
  5
52C
330
1F
100
AcDbEntity
  8
Layer0022
  6
Continuous
 62
     4
370
    25
100
AcDbLine
 10
-136.9999993294477
 20
36.55000245571136
 30
0.0
 11
-135.9999993145466
 21
37.65000247210264
 31
0.0
  0
LINE
  5
52D
330
1F
100
AcDbEntity
  8
Layer0022
  6
Continuous
 62
     4
370
    25
100
AcDbLine
 10
-136.9999993294477
 20
36.55000245571136
 30
0.0
 11
-108.5999989062547
 21
93.35000330209732
 31
0.0
  0
LINE
  5
52E
330
1F
100
AcDbEntity
  8
Layer0022
  6
Continuous
 62
     4
370
    25
100
AcDbLine
 10
-108.5999989062547
 20
93.35000330209732
 30
0.0
 11
-62.59999822080135
 21
93.35000330209732
 31
0.0
  0
LINE
  5
52F
330
1F
100
AcDbEntity
  8
Layer0022
  6
Continuous
 62
     4
370
    25
100
AcDbLine
 10
-125.0499991513788
 20
46.55000260472298
 30
0.0
 11
-124.7499991469085
 21
48.01000266462564
 31
0.0
  0
LINE
  5
530
330
1F
100
AcDbEntity
  8
Layer0022
  6
Continuous
 62
     4
370
    25
100
AcDbLine
 10
-125.0499991513788
 20
46.55000260472298
 30
0.0
 11
-124.0499991364777
 21
47.65000262111425
 31
0.0
  0
LINE
  5
531
330
1F
100
AcDbEntity
  8
Layer0022
  6
Continuous
 62
     4
370
    25
100
AcDbLine
 10
-125.0499991513788
 20
46.55000260472298
 30
0.0
 11
-103.649998832494
 21
89.35000324249268
 31
0.0
  0
LINE
  5
532
330
1F
100
AcDbEntity
  8
Layer0022
  6
Continuous
 62
     4
370
    25
100
AcDbLine
 10
-103.649998832494
 20
89.35000324249268
 30
0.0
 11
-59.64999817684293
 21
89.35000324249268
 31
0.0
  0
LINE
  5
533
330
1F
100
AcDbEntity
  8
Layer0022
  6
Continuous
 62
     4
370
    25
100
AcDbLine
 10
-108.3099964605271
 20
65.85000289231539
 30
0.0
 11
-108.0099964560568
 21
67.31000295221806
 31
0.0
  0
LINE
  5
534
330
1F
100
AcDbEntity
  8
Layer0022
  6
Continuous
 62
     4
370
    25
100
AcDbLine
 10
-108.3099964605271
 20
65.85000289231539
 30
0.0
 11
-107.309996445626
 21
66.95000290870667
 31
0.0
  0
LINE
  5
535
330
1F
100
AcDbEntity
  8
Layer0022
  6
Continuous
 62
     4
370
    25
100
AcDbLine
 10
-108.3099964605271
 20
65.85000289231539
 30
0.0
 11
-98.90999632045623
 21
84.65000317245722
 31
0.0
  0
LINE
  5
536
330
1F
100
AcDbEntity
  8
Layer0022
  6
Continuous
 62
     4
370
    25
100
AcDbLine
 10
-98.90999632045623
 20
84.65000317245722
 30
0.0
 11
-54.90999566480514
 21
84.65000317245722
 31
0.0
  0
LINE
  5
537
330
1F
100
AcDbEntity
  8
Layer0022
  6
Continuous
 62
     4
370
    25
100
AcDbLine
 10
-94.35999625265595
 20
-73.44999918341637
 30
0.0
 11
-95.85999627500769
 21
-73.0499991774559
 31
0.0
  0
LINE
  5
538
330
1F
100
AcDbEntity
  8
Layer0022
  6
Continuous
 62
     4
370
    25
100
AcDbLine
 10
-95.85999627500769
 20
-73.84999918937683
 30
0.0
 11
-94.35999625265595
 21
-73.44999918341637
 31
0.0
  0
LINE
  5
539
330
1F
100
AcDbEntity
  8
Layer0022
  6
Continuous
 62
     4
370
    25
100
AcDbLine
 10
-94.35999625265595
 20
-73.44999918341637
 30
0.0
 11
-97.35999629735943
 21
-73.44999918341637
 31
0.0
  0
LINE
  5
53A
330
1F
100
AcDbEntity
  8
Layer0022
  6
Continuous
 62
     4
370
    25
100
AcDbLine
 10
-94.35999625265595
 20
-73.44999918341637
 30
0.0
 11
-88.77999624580141
 21
-73.44999918341637
 31
0.0
  0
LINE
  5
53B
330
1F
100
AcDbEntity
  8
Layer0022
  6
Continuous
 62
     4
370
    25
100
AcDbLine
 10
-88.77999624580141
 20
-73.44999918341637
 30
0.0
 11
-87.27999622344967
 21
-73.0499991774559
 31
0.0
  0
LINE
  5
53C
330
1F
100
AcDbEntity
  8
Layer0022
  6
Continuous
 62
     4
370
    25
100
AcDbLine
 10
-87.27999622344967
 20
-73.84999918937683
 30
0.0
 11
-88.77999624580141
 21
-73.44999918341637
 31
0.0
  0
LINE
  5
53D
330
1F
100
AcDbEntity
  8
Layer0022
  6
Continuous
 62
     4
370
    25
100
AcDbLine
 10
-88.77999624580141
 20
-73.44999918341637
 30
0.0
 11
-76.77999606698748
 21
-73.44999918341637
 31
0.0
  0
LINE
  5
53E
330
1F
100
AcDbEntity
  8
Layer0022
  6
Continuous
 62
     4
370
    25
100
AcDbLine
 10
-140.9999993890524
 20
-66.44999907910824
 30
0.0
 11
-139.4999993667006
 21
-66.04999907314777
 31
0.0
  0
LINE
  5
53F
330
1F
100
AcDbEntity
  8
Layer0022
  6
Continuous
 62
     4
370
    25
100
AcDbLine
 10
-139.4999993667006
 20
-66.8499990850687
 30
0.0
 11
-140.9999993890524
 21
-66.44999907910824
 31
0.0
  0
LINE
  5
540
330
1F
100
AcDbEntity
  8
Layer0022
  6
Continuous
 62
     4
370
    25
100
AcDbLine
 10
-140.9999993890524
 20
-66.44999907910824
 30
0.0
 11
-42.19999791681767
 21
-66.44999907910824
 31
0.0
  0
LINE
  5
541
330
1F
100
AcDbEntity
  8
Layer0022
  6
Continuous
 62
     4
370
    25
100
AcDbLine
 10
-42.19999791681767
 20
-66.44999907910824
 30
0.0
 11
-43.69999793916941
 21
-66.04999907314777
 31
0.0
  0
LINE
  5
542
330
1F
100
AcDbEntity
  8
Layer0022
  6
Continuous
 62
     4
370
    25
100
AcDbLine
 10
-43.69999793916941
 20
-66.8499990850687
 30
0.0
 11
-42.19999791681767
 21
-66.44999907910824
 31
0.0
  0
LINE
  5
543
330
1F
100
AcDbEntity
  8
Layer0022
  6
Continuous
 62
     4
370
    25
100
AcDbLine
 10
-111.5200001704693
 20
-65.44999906420708
 30
0.0
 11
-114.5200002151728
 21
-59.44999897480011
 31
0.0
  0
LINE
  5
544
330
1F
100
AcDbEntity
  8
Layer0022
  6
Continuous
 62
     4
370
    25
100
AcDbLine
 10
-136.5200005429983
 20
-59.44999897480011
 30
0.0
 11
-114.5200002151728
 21
-59.44999897480011
 31
0.0
  0
LINE
  5
545
330
1F
100
AcDbEntity
  8
Layer0022
  6
Continuous
 62
     4
370
    25
100
AcDbLine
 10
-30.54999774321914
 20
-66.58999904304743
 30
0.0
 11
-11.54999746009708
 21
-66.58999904304743
 31
0.0
  0
LINE
  5
546
330
1F
100
AcDbEntity
  8
Layer0022
  6
Continuous
 62
     4
370
    25
100
AcDbLine
 10
2.300002746284008
 20
65.85000289231539
 30
0.0
 11
-2.699997328221798
 21
65.85000289231539
 31
0.0
  0
LINE
  5
547
330
1F
100
AcDbEntity
  8
Layer0022
  6
Continuous
 62
     4
370
    25
100
AcDbLine
 10
-1.699997313320637
 20
65.85000289231539
 30
0.0
 11
-2.099997319281101
 21
64.35000286996365
 31
0.0
  0
LINE
  5
548
330
1F
100
AcDbEntity
  8
Layer0022
  6
Continuous
 62
     4
370
    25
100
AcDbLine
 10
-1.299997307360173
 20
64.35000286996365
 30
0.0
 11
-1.699997313320637
 21
65.85000289231539
 31
0.0
  0
LINE
  5
549
330
1F
100
AcDbEntity
  8
Layer0022
  6
Continuous
 62
     4
370
    25
100
AcDbLine
 10
-1.699997313320637
 20
65.85000289231539
 30
0.0
 11
-1.699997313320637
 21
45.85000259429216
 31
0.0
  0
LINE
  5
54A
330
1F
100
AcDbEntity
  8
Layer0022
  6
Continuous
 62
     4
370
    25
100
AcDbLine
 10
-1.699997313320637
 20
45.85000259429216
 30
0.0
 11
-2.099997319281101
 21
47.35000261664391
 31
0.0
  0
LINE
  5
54B
330
1F
100
AcDbEntity
  8
Layer0022
  6
Continuous
 62
     4
370
    25
100
AcDbLine
 10
-1.299997307360173
 20
47.35000261664391
 30
0.0
 11
-1.699997313320637
 21
45.85000259429216
 31
0.0
  0
LINE
  5
54C
330
1F
100
AcDbEntity
  8
Layer0022
  6
Continuous
 62
     4
370
    25
100
AcDbLine
 10
-2.699997328221798
 20
45.85000259429216
 30
0.0
 11
2.300002746284008
 21
45.85000259429216
 31
0.0
  0
LINE
  5
54D
330
1F
100
AcDbEntity
  8
Layer0022
  6
Continuous
 62
     4
370
    25
100
AcDbLine
 10
-1.699997313320637
 20
45.85000259429216
 30
0.0
 11
-2.099997319281101
 21
44.35000257194042
 31
0.0
  0
LINE
  5
54E
330
1F
100
AcDbEntity
  8
Layer0022
  6
Continuous
 62
     4
370
    25
100
AcDbLine
 10
-1.299997307360173
 20
44.35000257194042
 30
0.0
 11
-1.699997313320637
 21
45.85000259429216
 31
0.0
  0
LINE
  5
54F
330
1F
100
AcDbEntity
  8
Layer0022
  6
Continuous
 62
     4
370
    25
100
AcDbLine
 10
-1.699997313320637
 20
45.85000259429216
 30
0.0
 11
-1.699997313320637
 21
25.85000229626894
 31
0.0
  0
LINE
  5
550
330
1F
100
AcDbEntity
  8
Layer0022
  6
Continuous
 62
     4
370
    25
100
AcDbLine
 10
-1.699997313320637
 20
25.85000229626894
 30
0.0
 11
-2.099997319281101
 21
27.35000231862068
 31
0.0
  0
LINE
  5
551
330
1F
100
AcDbEntity
  8
Layer0022
  6
Continuous
 62
     4
370
    25
100
AcDbLine
 10
-1.299997307360173
 20
27.35000231862068
 30
0.0
 11
-1.699997313320637
 21
25.85000229626894
 31
0.0
  0
LINE
  5
552
330
1F
100
AcDbEntity
  8
Layer0022
  6
Continuous
 62
     4
370
    25
100
AcDbLine
 10
-2.699997328221798
 20
25.85000229626894
 30
0.0
 11
2.300002746284008
 21
25.85000229626894
 31
0.0
  0
LINE
  5
553
330
1F
100
AcDbEntity
  8
Layer0022
  6
Continuous
 62
     4
370
    25
100
AcDbLine
 10
2.300002746284008
 20
65.85000289231539
 30
0.0
 11
-9.69999743252993
 21
65.85000289231539
 31
0.0
  0
LINE
  5
554
330
1F
100
AcDbEntity
  8
Layer0022
  6
Continuous
 62
     4
370
    25
100
AcDbLine
 10
-8.699997417628765
 20
65.85000289231539
 30
0.0
 11
-9.09999742358923
 21
64.35000286996365
 31
0.0
  0
LINE
  5
555
330
1F
100
AcDbEntity
  8
Layer0022
  6
Continuous
 62
     4
370
    25
100
AcDbLine
 10
-8.2999974116683
 20
64.35000286996365
 30
0.0
 11
-8.699997417628765
 21
65.85000289231539
 31
0.0
  0
LINE
  5
556
330
1F
100
AcDbEntity
  8
Layer0022
  6
Continuous
 62
     4
370
    25
100
AcDbLine
 10
-8.699997417628765
 20
65.85000289231539
 30
0.0
 11
-8.699997417628765
 21
-34.14999859780073
 31
0.0
  0
LINE
  5
557
330
1F
100
AcDbEntity
  8
Layer0022
  6
Continuous
 62
     4
370
    25
100
AcDbLine
 10
-8.699997417628765
 20
-34.14999859780073
 30
0.0
 11
-9.09999742358923
 21
-32.64999857544899
 31
0.0
  0
LINE
  5
558
330
1F
100
AcDbEntity
  8
Layer0022
  6
Continuous
 62
     4
370
    25
100
AcDbLine
 10
-8.2999974116683
 20
-32.64999857544899
 30
0.0
 11
-8.699997417628765
 21
-34.14999859780073
 31
0.0
  0
LINE
  5
559
330
1F
100
AcDbEntity
  8
Layer0022
  6
Continuous
 62
     4
370
    25
100
AcDbLine
 10
-9.69999743252993
 20
-34.14999859780073
 30
0.0
 11
2.300002746284008
 21
-34.14999859780073
 31
0.0
  0
LINE
  5
55A
330
1F
100
AcDbEntity
  8
Layer0022
  6
Continuous
 62
     4
370
    25
100
AcDbLine
 10
25.10000308603048
 20
64.0500028654933
 30
0.0
 11
37.10000326484442
 21
64.0500028654933
 31
0.0
  0
LINE
  5
55B
330
1F
100
AcDbEntity
  8
Layer0022
  6
Continuous
 62
     4
370
    25
100
AcDbLine
 10
36.10000324994326
 20
64.0500028654933
 30
0.0
 11
35.70000324398279
 21
62.55000284314157
 31
0.0
  0
LINE
  5
55C
330
1F
100
AcDbEntity
  8
Layer0022
  6
Continuous
 62
     4
370
    25
100
AcDbLine
 10
36.50000325590372
 20
62.55000284314157
 30
0.0
 11
36.10000324994326
 21
64.0500028654933
 31
0.0
  0
LINE
  5
55D
330
1F
100
AcDbEntity
  8
Layer0022
  6
Continuous
 62
     4
370
    25
100
AcDbLine
 10
36.10000324994326
 20
64.0500028654933
 30
0.0
 11
36.10000324994326
 21
-32.34999857097864
 31
0.0
  0
LINE
  5
55E
330
1F
100
AcDbEntity
  8
Layer0022
  6
Continuous
 62
     4
370
    25
100
AcDbLine
 10
36.10000324994326
 20
-32.34999857097864
 30
0.0
 11
35.70000324398279
 21
-30.8499985486269
 31
0.0
  0
LINE
  5
55F
330
1F
100
AcDbEntity
  8
Layer0022
  6
Continuous
 62
     4
370
    25
100
AcDbLine
 10
36.50000325590372
 20
-30.8499985486269
 30
0.0
 11
36.10000324994326
 21
-32.34999857097864
 31
0.0
  0
LINE
  5
560
330
1F
100
AcDbEntity
  8
Layer0022
  6
Continuous
 62
     4
370
    25
100
AcDbLine
 10
37.10000326484442
 20
-32.34999857097864
 30
0.0
 11
25.10000308603048
 21
-32.34999857097864
 31
0.0
  0
LINE
  5
561
330
1F
100
AcDbEntity
  8
Layer0022
  6
Continuous
 62
     4
370
    25
100
AcDbLine
 10
21.60000303387642
 20
64.650002874434
 30
0.0
 11
21.90000303834677
 21
66.11000293433666
 31
0.0
  0
LINE
  5
562
330
1F
100
AcDbEntity
  8
Layer0022
  6
Continuous
 62
     4
370
    25
100
AcDbLine
 10
21.60000303387642
 20
64.650002874434
 30
0.0
 11
22.60000304877758
 21
65.75000289082527
 31
0.0
  0
LINE
  5
563
330
1F
100
AcDbEntity
  8
Layer0022
  6
Continuous
 62
     4
370
    25
100
AcDbLine
 10
21.60000303387642
 20
64.650002874434
 30
0.0
 11
31.10000317543745
 21
83.65000315755606
 31
0.0
  0
LINE
  5
564
330
1F
100
AcDbEntity
  8
Layer0022
  6
Continuous
 62
     4
370
    25
100
AcDbLine
 10
31.10000317543745
 20
83.65000315755606
 30
0.0
 11
8.100002832710743
 21
83.65000315755606
 31
0.0
  0
LINE
  5
565
330
1F
100
AcDbEntity
  8
Layer0022
  6
Continuous
 62
     4
370
    25
100
AcDbLine
 10
2.800002753734589
 20
-34.64999860525131
 30
0.0
 11
2.800002753734589
 21
-50.64999884366989
 31
0.0
  0
LINE
  5
566
330
1F
100
AcDbEntity
  8
Layer0022
  6
Continuous
 62
     4
370
    25
100
AcDbLine
 10
2.800002753734589
 20
-49.64999882876873
 30
0.0
 11
4.30000277608633
 21
-49.24999882280827
 31
0.0
  0
LINE
  5
567
330
1F
100
AcDbEntity
  8
Layer0022
  6
Continuous
 62
     4
370
    25
100
AcDbLine
 10
4.30000277608633
 20
-50.04999883472919
 30
0.0
 11
2.800002753734589
 21
-49.64999882876873
 31
0.0
  0
LINE
  5
568
330
1F
100
AcDbEntity
  8
Layer0022
  6
Continuous
 62
     4
370
    25
100
AcDbLine
 10
2.800002753734589
 20
-49.64999882876873
 30
0.0
 11
11.60000288486481
 21
-49.64999882876873
 31
0.0
  0
LINE
  5
569
330
1F
100
AcDbEntity
  8
Layer0022
  6
Continuous
 62
     4
370
    25
100
AcDbLine
 10
11.60000288486481
 20
-49.64999882876873
 30
0.0
 11
10.10000286251307
 21
-49.24999882280827
 31
0.0
  0
LINE
  5
56A
330
1F
100
AcDbEntity
  8
Layer0022
  6
Continuous
 62
     4
370
    25
100
AcDbLine
 10
10.10000286251307
 20
-50.04999883472919
 30
0.0
 11
11.60000288486481
 21
-49.64999882876873
 31
0.0
  0
LINE
  5
56B
330
1F
100
AcDbEntity
  8
Layer0022
  6
Continuous
 62
     4
370
    25
100
AcDbLine
 10
11.60000288486481
 20
-50.64999884366989
 30
0.0
 11
11.60000288486481
 21
-34.64999860525131
 31
0.0
  0
LINE
  5
56C
330
1F
100
AcDbEntity
  8
Layer0022
  6
Continuous
 62
     4
370
    25
100
AcDbLine
 10
2.800002753734589
 20
-34.64999860525131
 30
0.0
 11
2.800002753734589
 21
-57.64999894797802
 31
0.0
  0
LINE
  5
56D
330
1F
100
AcDbEntity
  8
Layer0022
  6
Continuous
 62
     4
370
    25
100
AcDbLine
 10
2.800002753734589
 20
-56.64999893307686
 30
0.0
 11
4.30000277608633
 21
-56.24999892711639
 31
0.0
  0
LINE
  5
56E
330
1F
100
AcDbEntity
  8
Layer0022
  6
Continuous
 62
     4
370
    25
100
AcDbLine
 10
4.30000277608633
 20
-57.04999893903732
 30
0.0
 11
2.800002753734589
 21
-56.64999893307686
 31
0.0
  0
LINE
  5
56F
330
1F
100
AcDbEntity
  8
Layer0022
  6
Continuous
 62
     4
370
    25
100
AcDbLine
 10
2.800002753734589
 20
-56.64999893307686
 30
0.0
 11
24.6000030785799
 21
-56.64999893307686
 31
0.0
  0
LINE
  5
570
330
1F
100
AcDbEntity
  8
Layer0022
  6
Continuous
 62
     4
370
    25
100
AcDbLine
 10
24.6000030785799
 20
-56.64999893307686
 30
0.0
 11
23.10000305622816
 21
-56.24999892711639
 31
0.0
  0
LINE
  5
571
330
1F
100
AcDbEntity
  8
Layer0022
  6
Continuous
 62
     4
370
    25
100
AcDbLine
 10
23.10000305622816
 20
-57.04999893903732
 30
0.0
 11
24.6000030785799
 21
-56.64999893307686
 31
0.0
  0
LINE
  5
572
330
1F
100
AcDbEntity
  8
Layer0022
  6
Continuous
 62
     4
370
    25
100
AcDbLine
 10
24.6000030785799
 20
-57.64999894797802
 30
0.0
 11
24.6000030785799
 21
-34.64999860525131
 31
0.0
  0
LINE
  5
573
330
1F
100
AcDbEntity
  8
Layer0022
  6
Continuous
 62
     4
370
    25
100
AcDbLine
 10
-94.35999625265595
 20
-77.44999924302101
 30
0.0
 11
-94.35999625265595
 21
-72.4499991685152
 31
0.0
  0
LINE
  5
574
330
1F
100
AcDbEntity
  8
Layer0022
  6
Continuous
 62
     4
370
    25
100
AcDbLine
 10
-88.77999624580141
 20
-72.4499991685152
 30
0.0
 11
-88.77999624580141
 21
-77.44999924302101
 31
0.0
  0
LINE
  5
575
330
1F
100
AcDbEntity
  8
Layer0022
  6
Continuous
 62
     4
370
    25
100
AcDbLine
 10
-140.9999993890524
 20
-77.44999924302101
 30
0.0
 11
-140.9999993890524
 21
-65.44999906420708
 31
0.0
  0
LINE
  5
576
330
1F
100
AcDbEntity
  8
Layer0022
  6
Continuous
 62
     4
370
    25
100
AcDbLine
 10
-42.19999791681767
 20
-77.44999924302101
 30
0.0
 11
-42.19999791681767
 21
-65.44999906420708
 31
0.0
  0
LINE
  5
577
330
1F
100
AcDbEntity
  8
Layer0022
  6
Continuous
 62
     4
370
    25
100
AcDbLine
 10
-139.3999993652105
 20
-109.2499997168779
 30
0.0
 11
-139.3999993652105
 21
-100.2499995827675
 31
0.0
  0
LINE
  5
578
330
1F
100
AcDbEntity
  8
Layer0022
  6
Continuous
 62
     4
370
    25
100
AcDbLine
 10
-139.3999993652105
 20
-108.2499997019768
 30
0.0
 11
-137.8999993428588
 21
-107.8499996960163
 31
0.0
  0
LINE
  5
579
330
1F
100
AcDbEntity
  8
Layer0022
  6
Continuous
 62
     4
370
    25
100
AcDbLine
 10
-137.8999993428588
 20
-108.6499997079372
 30
0.0
 11
-139.3999993652105
 21
-108.2499997019768
 31
0.0
  0
LINE
  5
57A
330
1F
100
AcDbEntity
  8
Layer0022
  6
Continuous
 62
     4
370
    25
100
AcDbLine
 10
-139.3999993652105
 20
-108.2499997019768
 30
0.0
 11
-43.79999794065952
 21
-108.2499997019768
 31
0.0
  0
LINE
  5
57B
330
1F
100
AcDbEntity
  8
Layer0022
  6
Continuous
 62
     4
370
    25
100
AcDbLine
 10
-43.79999794065952
 20
-108.2499997019768
 30
0.0
 11
-45.29999796301126
 21
-107.8499996960163
 31
0.0
  0
LINE
  5
57C
330
1F
100
AcDbEntity
  8
Layer0022
  6
Continuous
 62
     4
370
    25
100
AcDbLine
 10
-45.29999796301126
 20
-108.6499997079372
 30
0.0
 11
-43.79999794065952
 21
-108.2499997019768
 31
0.0
  0
LINE
  5
57D
330
1F
100
AcDbEntity
  8
Layer0022
  6
Continuous
 62
     4
370
    25
100
AcDbLine
 10
-43.79999794065952
 20
-109.2499997168779
 30
0.0
 11
-43.79999794065952
 21
-100.2499995827675
 31
0.0
  0
LINE
  5
57E
330
1F
100
AcDbEntity
  8
Layer0022
  6
Continuous
 62
     4
370
    25
100
AcDbLine
 10
-105.5200000810623
 20
-77.44999924302101
 30
0.0
 11
-105.8200000855327
 21
-75.98999918311834
 31
0.0
  0
LINE
  5
57F
330
1F
100
AcDbEntity
  8
Layer0022
  6
Continuous
 62
     4
370
    25
100
AcDbLine
 10
-105.5200000810623
 20
-77.44999924302101
 30
0.0
 11
-106.5200000959635
 21
-76.34999922662973
 31
0.0
  0
LINE
  5
580
330
1F
100
AcDbEntity
  8
Layer0022
  6
Continuous
 62
     4
370
    25
100
AcDbLine
 10
-105.5200000810623
 20
-77.44999924302101
 30
0.0
 11
-110.5200001555681
 21
-67.4499990940094
 31
0.0
  0
LINE
  5
581
330
1F
100
AcDbEntity
  8
Layer0022
  6
Continuous
 62
     4
370
    25
100
AcDbLine
 10
-41.09999790042639
 20
-81.54999930411577
 30
0.0
 11
-42.59999792277813
 21
-81.14999929815531
 31
0.0
  0
LINE
  5
582
330
1F
100
AcDbEntity
  8
Layer0022
  6
Continuous
 62
     4
370
    25
100
AcDbLine
 10
-41.49999790638685
 20
-82.24999931454659
 30
0.0
 11
-42.59999792277813
 21
-81.14999929815531
 31
0.0
  0
LINE
  5
583
330
1F
100
AcDbEntity
  8
Layer0022
  6
Continuous
 62
     4
370
    25
100
AcDbLine
 10
-38.89999786764383
 20
-83.28999929189683
 30
0.0
 11
-42.59999792277813
 21
-81.14999929815531
 31
0.0
  0
LINE
  5
584
330
1F
100
AcDbEntity
  8
Layer0022
  6
Continuous
 62
     4
370
    25
100
AcDbLine
 10
-38.89999786764383
 20
-83.28999929189683
 30
0.0
 11
-30.54999774321914
 21
-66.58999904304743
 31
0.0
  0
LINE
  5
585
330
1F
100
AcDbEntity
  8
0
  6
Continuous
 62
     4
370
    25
100
AcDbLine
 10
-152.8969874027006
 20
86.98758898651666
 30
0.0
 11
-151.3969873803489
 21
87.38758899247712
 31
0.0
  0
LINE
  5
586
330
1F
100
AcDbEntity
  8
0
  6
Continuous
 62
     4
370
    25
100
AcDbLine
 10
-151.3969873803489
 20
86.58758898055619
 30
0.0
 11
-152.8969874027006
 21
86.98758898651666
 31
0.0
  0
LINE
  5
587
330
1F
100
AcDbEntity
  8
0
  6
Continuous
 62
     4
370
    25
100
AcDbLine
 10
-152.8969874027006
 20
86.98758898651666
 30
0.0
 11
-122.8969869556658
 21
86.98758898651666
 31
0.0
  0
LINE
  5
588
330
1F
100
AcDbEntity
  8
0
  6
Continuous
 62
     4
370
    25
100
AcDbLine
 10
-122.8969869556658
 20
86.98758898651666
 30
0.0
 11
-124.3969869780176
 21
87.38758899247712
 31
0.0
  0
LINE
  5
589
330
1F
100
AcDbEntity
  8
0
  6
Continuous
 62
     4
370
    25
100
AcDbLine
 10
-124.3969869780176
 20
86.58758898055619
 30
0.0
 11
-122.8969869556658
 21
86.98758898651666
 31
0.0
  0
TEXT
  5
58A
330
1F
100
AcDbEntity
  8
0
 62
     2
100
AcDbText
 10
-146.8969873171249
 20
87.68758899899696
 30
0.0
 40
3.0
  1
車両進行方向
 41
0.8333333352623458
  7
dcStyle0
 72
     5
 11
-128.8969870671249
 21
87.68758899899696
 31
0.0
100
AcDbText
  0
VIEWPORT
  5
77
330
1B
100
AcDbEntity
 67
     1
  8
0
100
AcDbViewport
 10
-4.19999735057354
 20
-11.69999826326963
 30
0.0
 40
1066.800015896559
 41
699.300010420382
 68
     1
 69
     1
 12
-4.19999735057354
 22
-11.69999826326963
 13
0.0
 23
0.0
 14
0.5
 24
0.5
 15
0.0
 25
0.0
 16
0.0
 26
0.0
 36
1.0
 17
0.0
 27
0.0
 37
0.0
 42
50.0
 43
0.0
 44
0.0
 45
699.300010420382
 50
0.0
 51
0.0
 72
   100
 90
   557152
  1

281
     0
 71
     1
 74
     0
110
0.0
120
0.0
130
0.0
111
1.0
121
0.0
131
0.0
112
0.0
122
1.0
132
0.0
 79
     0
146
0.0
  0
ENDSEC
  0
SECTION
  2
OBJECTS
  0
DICTIONARY
  5
C
330
0
100
AcDbDictionary
281
     1
  3
ACAD_GROUP
350
D
  3
ACAD_LAYOUT
350
1A
  3
ACAD_MATERIAL
350
3B
  3
ACAD_MLEADERSTYLE
350
5AF
  3
ACAD_MLINESTYLE
350
17
  3
ACAD_PLOTSETTINGS
350
19
  3
ACAD_PLOTSTYLENAME
350
E
  3
ACAD_SCALELIST
350
58B
  3
ACAD_VISUALSTYLE
350
2A
  3
AcDbVariableDictionary
350
5AD
  0
DICTIONARY
  5
D
102
{ACAD_REACTORS
330
C
102
}
330
C
100
AcDbDictionary
281
     1
  0
DICTIONARY
  5
1A
102
{ACAD_REACTORS
330
C
102
}
330
C
100
AcDbDictionary
281
     1
  3
Layout1
350
1E
  3
Layout2
350
26
  3
Model
350
22
  0
DICTIONARY
  5
3B
102
{ACAD_REACTORS
330
C
102
}
330
C
100
AcDbDictionary
281
     1
  3
ByBlock
350
3D
  3
ByLayer
350
3C
  3
Global
350
3E
  0
DICTIONARY
  5
5AF
102
{ACAD_REACTORS
330
C
102
}
330
C
100
AcDbDictionary
281
     1
  0
DICTIONARY
  5
17
102
{ACAD_REACTORS
330
C
102
}
330
C
100
AcDbDictionary
281
     1
  3
Standard
350
18
  0
DICTIONARY
  5
19
102
{ACAD_REACTORS
330
C
102
}
330
C
100
AcDbDictionary
281
     1
  0
ACDBDICTIONARYWDFLT
  5
E
102
{ACAD_REACTORS
330
C
102
}
330
C
100
AcDbDictionary
281
     1
  3
Normal
350
F
100
AcDbDictionaryWithDefault
340
F
  0
DICTIONARY
  5
58B
102
{ACAD_REACTORS
330
C
102
}
330
C
100
AcDbDictionary
281
     1
  3
A0
350
58C
  3
A1
350
58D
  3
A2
350
58E
  3
A3
350
58F
  3
A4
350
590
  3
A5
350
591
  3
A6
350
592
  3
A7
350
593
  3
A8
350
594
  3
A9
350
595
  3
B0
350
596
  3
B1
350
597
  3
B2
350
598
  3
B3
350
599
  3
B4
350
59A
  3
B5
350
59B
  3
B6
350
59C
  3
B7
350
59D
  3
B8
350
59E
  3
B9
350
59F
  3
C0
350
5A0
  3
C1
350
5A1
  3
C2
350
5A2
  3
C3
350
5A3
  3
C4
350
5A4
  3
C5
350
5A5
  3
C6
350
5A6
  3
C7
350
5A7
  3
C8
350
5A8
  3
C9
350
5A9
  3
D0
350
5AA
  3
D1
350
5AB
  3
D2
350
5AC
  0
DICTIONARY
  5
2A
102
{ACAD_REACTORS
330
C
102
}
330
C
100
AcDbDictionary
281
     1
  3
2dWireframe
350
2F
  3
3D Hidden
350
31
  3
3dWireframe
350
30
  3
Basic
350
32
  3
Brighten
350
36
  3
ColorChange
350
3A
  3
Conceptual
350
34
  3
Dim
350
35
  3
Facepattern
350
39
  3
Flat
350
2B
  3
FlatWithEdges
350
2C
  3
Gouraud
350
2D
  3
GouraudWithEdges
350
2E
  3
Linepattern
350
38
  3
Realistic
350
33
  3
Thicken
350
37
  0
DICTIONARY
  5
5AD
102
{ACAD_REACTORS
330
C
102
}
330
C
100
AcDbDictionary
281
     1
  3
CANNOSCALE
350
5B0
  3
DIMASSOC
350
5B1
  3
HIDETEXT
350
5B2
  0
LAYOUT
  5
1E
102
{ACAD_REACTORS
330
1A
102
}
330
1A
100
AcDbPlotSettings
  1

  2
none_device
  4

  6

 40
0.0
 41
0.0
 42
0.0
 43
0.0
 44
0.0
 45
0.0
 46
0.0
 47
0.0
 48
0.0
 49
0.0
140
0.0
141
0.0
142
1.0
143
1.0
 70
   688
 72
     0
 73
     0
 74
     5
  7

 75
    16
147
1.0
148
0.0
149
0.0
100
AcDbLayout
  1
Layout1
 70
     0
 71
     1
 10
0.0
 20
0.0
 11
12.0
 21
9.0
 12
0.0
 22
0.0
 32
0.0
 14
1.000000000000000E+20
 24
1.000000000000000E+20
 34
1.000000000000000E+20
 15
-1.000000000000000E+20
 25
-1.000000000000000E+20
 35
-1.000000000000000E+20
146
0.0
 13
0.0
 23
0.0
 33
0.0
 16
1.0
 26
0.0
 36
0.0
 17
0.0
 27
1.0
 37
0.0
 76
     0
330
1B
331
77
  0
LAYOUT
  5
26
102
{ACAD_REACTORS
330
1A
102
}
330
1A
100
AcDbPlotSettings
  1

  2
none_device
  4

  6

 40
0.0
 41
0.0
 42
0.0
 43
0.0
 44
0.0
 45
0.0
 46
0.0
 47
0.0
 48
0.0
 49
0.0
140
0.0
141
0.0
142
1.0
143
1.0
 70
   688
 72
     0
 73
     0
 74
     5
  7

 75
    16
147
1.0
148
0.0
149
0.0
100
AcDbLayout
  1
Layout2
 70
     1
 71
     2
 10
0.0
 20
0.0
 11
0.0
 21
0.0
 12
0.0
 22
0.0
 32
0.0
 14
0.0
 24
0.0
 34
0.0
 15
0.0
 25
0.0
 35
0.0
146
0.0
 13
0.0
 23
0.0
 33
0.0
 16
1.0
 26
0.0
 36
0.0
 17
0.0
 27
1.0
 37
0.0
 76
     0
330
23
  0
LAYOUT
  5
22
102
{ACAD_REACTORS
330
1A
102
}
330
1A
100
AcDbPlotSettings
  1

  2
none_device
  4

  6

 40
0.0
 41
0.0
 42
0.0
 43
0.0
 44
0.0
 45
0.0
 46
0.0
 47
0.0
 48
0.0
 49
0.0
140
0.0
141
0.0
142
1.0
143
1.0
 70
  1712
 72
     0
 73
     0
 74
     0
  7

 75
     0
147
1.0
148
0.0
149
0.0
100
AcDbLayout
  1
Model
 70
     1
 71
     0
 10
-182.0
 20
-128.5
 11
182.0
 21
128.5
 12
0.0
 22
0.0
 32
0.0
 14
-537.6000052988529
 24
-361.3500034734607
 34
0.0
 15
529.2000105977058
 25
337.9500069469214
 35
0.0
146
0.0
 13
0.0
 23
0.0
 33
0.0
 16
1.0
 26
0.0
 36
0.0
 17
0.0
 27
1.0
 37
0.0
 76
     0
330
1F
331
29
  0
MATERIAL
  5
3D
102
{ACAD_REACTORS
330
3B
102
}
102
{ACAD_XDICTIONARY
360
5D5
102
}
330
3B
100
AcDbMaterial
  1
ByBlock
  0
MATERIAL
  5
3C
102
{ACAD_REACTORS
330
3B
102
}
102
{ACAD_XDICTIONARY
360
5D3
102
}
330
3B
100
AcDbMaterial
  1
ByLayer
  0
MATERIAL
  5
3E
102
{ACAD_REACTORS
330
3B
102
}
102
{ACAD_XDICTIONARY
360
5D7
102
}
330
3B
100
AcDbMaterial
  1
Global
  0
MLINESTYLE
  5
18
102
{ACAD_REACTORS
330
17
102
}
330
17
100
AcDbMlineStyle
  2
Standard
 70
     0
  3

 62
   256
 51
90.0
 52
90.0
 71
     2
 49
0.5
 62
   256
  6
BYLAYER
 49
-0.5
 62
   256
  6
BYLAYER
  0
ACDBPLACEHOLDER
  5
F
102
{ACAD_REACTORS
330
E
102
}
330
E
  0
SCALE
  5
58C
102
{ACAD_REACTORS
330
58B
102
}
330
58B
100
AcDbScale
 70
     0
300
1:1
140
1.0
141
1.0
290
     1
  0
SCALE
  5
58D
102
{ACAD_REACTORS
330
58B
102
}
330
58B
100
AcDbScale
 70
     0
300
1:2
140
1.0
141
2.0
290
     0
  0
SCALE
  5
58E
102
{ACAD_REACTORS
330
58B
102
}
330
58B
100
AcDbScale
 70
     0
300
1:4
140
1.0
141
4.0
290
     0
  0
SCALE
  5
58F
102
{ACAD_REACTORS
330
58B
102
}
330
58B
100
AcDbScale
 70
     0
300
1:5
140
1.0
141
5.0
290
     0
  0
SCALE
  5
590
102
{ACAD_REACTORS
330
58B
102
}
330
58B
100
AcDbScale
 70
     0
300
1:8
140
1.0
141
8.0
290
     0
  0
SCALE
  5
591
102
{ACAD_REACTORS
330
58B
102
}
330
58B
100
AcDbScale
 70
     0
300
1:10
140
1.0
141
10.0
290
     0
  0
SCALE
  5
592
102
{ACAD_REACTORS
330
58B
102
}
330
58B
100
AcDbScale
 70
     0
300
1:16
140
1.0
141
16.0
290
     0
  0
SCALE
  5
593
102
{ACAD_REACTORS
330
58B
102
}
330
58B
100
AcDbScale
 70
     0
300
1:20
140
1.0
141
20.0
290
     0
  0
SCALE
  5
594
102
{ACAD_REACTORS
330
58B
102
}
330
58B
100
AcDbScale
 70
     0
300
1:30
140
1.0
141
30.0
290
     0
  0
SCALE
  5
595
102
{ACAD_REACTORS
330
58B
102
}
330
58B
100
AcDbScale
 70
     0
300
1:40
140
1.0
141
40.0
290
     0
  0
SCALE
  5
596
102
{ACAD_REACTORS
330
58B
102
}
330
58B
100
AcDbScale
 70
     0
300
1:50
140
1.0
141
50.0
290
     0
  0
SCALE
  5
597
102
{ACAD_REACTORS
330
58B
102
}
330
58B
100
AcDbScale
 70
     0
300
1:100
140
1.0
141
100.0
290
     0
  0
SCALE
  5
598
102
{ACAD_REACTORS
330
58B
102
}
330
58B
100
AcDbScale
 70
     0
300
2:1
140
2.0
141
1.0
290
     0
  0
SCALE
  5
599
102
{ACAD_REACTORS
330
58B
102
}
330
58B
100
AcDbScale
 70
     0
300
4:1
140
4.0
141
1.0
290
     0
  0
SCALE
  5
59A
102
{ACAD_REACTORS
330
58B
102
}
330
58B
100
AcDbScale
 70
     0
300
8:1
140
8.0
141
1.0
290
     0
  0
SCALE
  5
59B
102
{ACAD_REACTORS
330
58B
102
}
330
58B
100
AcDbScale
 70
     0
300
10:1
140
10.0
141
1.0
290
     0
  0
SCALE
  5
59C
102
{ACAD_REACTORS
330
58B
102
}
330
58B
100
AcDbScale
 70
     0
300
100:1
140
100.0
141
1.0
290
     0
  0
SCALE
  5
59D
102
{ACAD_REACTORS
330
58B
102
}
330
58B
100
AcDbScale
 70
     0
300
1/128" = 1'-0"
140
0.0078125
141
12.0
290
     0
  0
SCALE
  5
59E
102
{ACAD_REACTORS
330
58B
102
}
330
58B
100
AcDbScale
 70
     0
300
1/64" = 1'-0"
140
0.015625
141
12.0
290
     0
  0
SCALE
  5
59F
102
{ACAD_REACTORS
330
58B
102
}
330
58B
100
AcDbScale
 70
     0
300
1/32" = 1'-0"
140
0.03125
141
12.0
290
     0
  0
SCALE
  5
5A0
102
{ACAD_REACTORS
330
58B
102
}
330
58B
100
AcDbScale
 70
     0
300
1/16" = 1'-0"
140
0.0625
141
12.0
290
     0
  0
SCALE
  5
5A1
102
{ACAD_REACTORS
330
58B
102
}
330
58B
100
AcDbScale
 70
     0
300
3/32" = 1'-0"
140
0.09375
141
12.0
290
     0
  0
SCALE
  5
5A2
102
{ACAD_REACTORS
330
58B
102
}
330
58B
100
AcDbScale
 70
     0
300
1/8" = 1'-0"
140
0.125
141
12.0
290
     0
  0
SCALE
  5
5A3
102
{ACAD_REACTORS
330
58B
102
}
330
58B
100
AcDbScale
 70
     0
300
3/16" = 1'-0"
140
0.1875
141
12.0
290
     0
  0
SCALE
  5
5A4
102
{ACAD_REACTORS
330
58B
102
}
330
58B
100
AcDbScale
 70
     0
300
1/4" = 1'-0"
140
0.25
141
12.0
290
     0
  0
SCALE
  5
5A5
102
{ACAD_REACTORS
330
58B
102
}
330
58B
100
AcDbScale
 70
     0
300
3/8" = 1'-0"
140
0.375
141
12.0
290
     0
  0
SCALE
  5
5A6
102
{ACAD_REACTORS
330
58B
102
}
330
58B
100
AcDbScale
 70
     0
300
1/2" = 1'-0"
140
0.5
141
12.0
290
     0
  0
SCALE
  5
5A7
102
{ACAD_REACTORS
330
58B
102
}
330
58B
100
AcDbScale
 70
     0
300
3/4" = 1'-0"
140
0.75
141
12.0
290
     0
  0
SCALE
  5
5A8
102
{ACAD_REACTORS
330
58B
102
}
330
58B
100
AcDbScale
 70
     0
300
1" = 1'-0"
140
1.0
141
12.0
290
     0
  0
SCALE
  5
5A9
102
{ACAD_REACTORS
330
58B
102
}
330
58B
100
AcDbScale
 70
     0
300
1-1/2" = 1'-0"
140
1.5
141
12.0
290
     0
  0
SCALE
  5
5AA
102
{ACAD_REACTORS
330
58B
102
}
330
58B
100
AcDbScale
 70
     0
300
3" = 1'-0"
140
3.0
141
12.0
290
     0
  0
SCALE
  5
5AB
102
{ACAD_REACTORS
330
58B
102
}
330
58B
100
AcDbScale
 70
     0
300
6" = 1'-0"
140
6.0
141
12.0
290
     0
  0
SCALE
  5
5AC
102
{ACAD_REACTORS
330
58B
102
}
330
58B
100
AcDbScale
 70
     0
300
1'-0" = 1'-0"
140
12.0
141
12.0
290
     0
  0
VISUALSTYLE
  5
2F
102
{ACAD_REACTORS
330
2A
102
}
102
{ACAD_XDICTIONARY
360
5BB
102
}
330
2A
100
AcDbVisualStyle
  2
2dWireframe
 70
     4
 71
     0
 72
     2
 73
     0
 90
        0
 40
-0.6
 41
-30.0
 62
     5
 63
     7
 74
     1
 91
        4
 64
     7
 65
   257
 75
     1
175
     1
 42
1.0
 92
        0
 66
   257
 43
1.0
 76
     1
 77
     6
 78
     2
 67
     7
 79
     5
170
     0
171
     0
290
     0
174
     0
 93
        1
 44
0.0
173
     0
291
     0
 45
0.0
1001
ACAD
1000
AcDbSavedByObjectVersion
1070
     0
  0
VISUALSTYLE
  5
31
102
{ACAD_REACTORS
330
2A
102
}
102
{ACAD_XDICTIONARY
360
5BF
102
}
330
2A
100
AcDbVisualStyle
  2
3D Hidden
 70
     6
 71
     1
 72
     2
 73
     2
 90
        0
 40
-0.6
 41
-30.0
 62
     5
 63
     7
 74
     2
 91
        2
 64
     7
 65
   257
 75
     2
175
     1
 42
40.0
 92
        0
 66
   257
 43
1.0
 76
     1
 77
     6
 78
     2
 67
     7
 79
     3
170
     0
171
     0
290
     0
174
     0
 93
        1
 44
0.0
173
     0
291
     0
 45
0.0
1001
ACAD
1000
AcDbSavedByObjectVersion
1070
     0
  0
VISUALSTYLE
  5
30
102
{ACAD_REACTORS
330
2A
102
}
102
{ACAD_XDICTIONARY
360
5BD
102
}
330
2A
100
AcDbVisualStyle
  2
3dWireframe
 70
     5
 71
     0
 72
     2
 73
     0
 90
        0
 40
-0.6
 41
-30.0
 62
     5
 63
     7
 74
     1
 91
        4
 64
     7
 65
   257
 75
     1
175
     1
 42
1.0
 92
        0
 66
   257
 43
1.0
 76
     1
 77
     6
 78
     2
 67
     7
 79
     5
170
     0
171
     0
290
     0
174
     0
 93
        1
 44
0.0
173
     0
291
     0
 45
0.0
1001
ACAD
1000
AcDbSavedByObjectVersion
1070
     0
  0
VISUALSTYLE
  5
32
102
{ACAD_REACTORS
330
2A
102
}
102
{ACAD_XDICTIONARY
360
5C1
102
}
330
2A
100
AcDbVisualStyle
  2
Basic
 70
     7
 71
     1
 72
     0
 73
     1
 90
        0
 40
-0.6
 41
-30.0
 62
     5
 63
     7
 74
     0
 91
        4
 64
     7
 65
   257
 75
     1
175
     1
 42
1.0
 92
        8
 66
     7
 43
1.0
 76
     1
 77
     6
 78
     2
 67
     7
 79
     5
170
     0
171
     0
290
     0
174
     0
 93
        1
 44
0.0
173
     0
291
     1
 45
0.0
1001
ACAD
1000
AcDbSavedByObjectVersion
1070
     0
  0
VISUALSTYLE
  5
36
102
{ACAD_REACTORS
330
2A
102
}
102
{ACAD_XDICTIONARY
360
5C9
102
}
330
2A
100
AcDbVisualStyle
  2
Brighten
 70
    12
 71
     2
 72
     2
 73
     0
 90
        0
 40
-0.6
 41
-30.0
 62
     5
 63
     7
 74
     1
 91
        4
 64
     7
 65
   257
 75
     1
175
     1
 42
1.0
 92
        8
 66
     7
 43
1.0
 76
     1
 77
     6
 78
     2
 67
     7
 79
     5
170
     0
171
     0
290
     0
174
     0
 93
        1
 44
50.0
173
     0
291
     1
 45
0.0
1001
ACAD
1000
AcDbSavedByObjectVersion
1070
     0
  0
VISUALSTYLE
  5
3A
102
{ACAD_REACTORS
330
2A
102
}
102
{ACAD_XDICTIONARY
360
5D1
102
}
330
2A
100
AcDbVisualStyle
  2
ColorChange
 70
    16
 71
     2
 72
     2
 73
     3
 90
        0
 40
-0.6
 41
-30.0
 62
     5
 63
     8
 74
     1
 91
        4
 64
     7
 65
   257
 75
     1
175
     1
 42
1.0
 92
        8
 66
     8
 43
1.0
 76
     1
 77
     6
 78
     2
 67
     7
 79
     5
170
     0
171
     0
290
     0
174
     0
 93
        1
 44
0.0
173
     0
291
     1
 45
0.0
1001
ACAD
1000
AcDbSavedByObjectVersion
1070
     0
  0
VISUALSTYLE
  5
34
102
{ACAD_REACTORS
330
2A
102
}
102
{ACAD_XDICTIONARY
360
5C5
102
}
330
2A
100
AcDbVisualStyle
  2
Conceptual
 70
     9
 71
     3
 72
     2
 73
     0
 90
        0
 40
-0.6
 41
-30.0
 62
     5
 63
     7
 74
     2
 91
        2
 64
     7
 65
   257
 75
     1
175
     1
 42
40.0
 92
        8
 66
     7
 43
1.0
 76
     1
 77
     6
 78
     2
 67
     7
 79
     3
170
     0
171
     0
290
     0
174
     0
 93
        1
 44
0.0
173
     0
291
     0
 45
0.0
1001
ACAD
1000
AcDbSavedByObjectVersion
1070
     0
  0
VISUALSTYLE
  5
35
102
{ACAD_REACTORS
330
2A
102
}
102
{ACAD_XDICTIONARY
360
5C7
102
}
330
2A
100
AcDbVisualStyle
  2
Dim
 70
    11
 71
     2
 72
     2
 73
     0
 90
        0
 40
-0.6
 41
-30.0
 62
     5
 63
     7
 74
     1
 91
        4
 64
     7
 65
   257
 75
     1
175
     1
 42
1.0
 92
        8
 66
     7
 43
1.0
 76
     1
 77
     6
 78
     2
 67
     7
 79
     5
170
     0
171
     0
290
     0
174
     0
 93
        1
 44
-50.0
173
     0
291
     1
 45
0.0
1001
ACAD
1000
AcDbSavedByObjectVersion
1070
     0
  0
VISUALSTYLE
  5
39
102
{ACAD_REACTORS
330
2A
102
}
102
{ACAD_XDICTIONARY
360
5CF
102
}
330
2A
100
AcDbVisualStyle
  2
Facepattern
 70
    15
 71
     2
 72
     2
 73
     0
 90
        0
 40
-0.6
 41
-30.0
 62
     5
 63
     7
 74
     1
 91
        4
 64
     7
 65
   257
 75
     1
175
     1
 42
1.0
 92
        8
 66
     7
 43
1.0
 76
     1
 77
     6
 78
     2
 67
     7
 79
     5
170
     0
171
     0
290
     0
174
     0
 93
        1
 44
0.0
173
     0
291
     1
 45
0.0
1001
ACAD
1000
AcDbSavedByObjectVersion
1070
     0
  0
VISUALSTYLE
  5
2B
102
{ACAD_REACTORS
330
2A
102
}
102
{ACAD_XDICTIONARY
360
5B3
102
}
330
2A
100
AcDbVisualStyle
  2
Flat
 70
     0
 71
     2
 72
     1
 73
     1
 90
        2
 40
-0.6
 41
30.0
 62
     5
 63
     7
 74
     0
 91
        4
 64
     7
 65
   257
 75
     1
175
     1
 42
1.0
 92
        8
 66
     7
 43
1.0
 76
     1
 77
     6
 78
     2
 67
     7
 79
     5
170
     0
171
     0
290
     0
174
     0
 93
       13
 44
0.0
173
     0
291
     1
 45
0.0
1001
ACAD
1000
AcDbSavedByObjectVersion
1070
     0
  0
VISUALSTYLE
  5
2C
102
{ACAD_REACTORS
330
2A
102
}
102
{ACAD_XDICTIONARY
360
5B5
102
}
330
2A
100
AcDbVisualStyle
  2
FlatWithEdges
 70
     1
 71
     2
 72
     1
 73
     1
 90
        2
 40
-0.6
 41
30.0
 62
     5
 63
     7
 74
     1
 91
        4
 64
     7
 65
   257
 75
     1
175
     1
 42
1.0
 92
        0
 66
   257
 43
1.0
 76
     1
 77
     6
 78
     2
 67
     7
 79
     5
170
     0
171
     0
290
     0
174
     0
 93
       13
 44
0.0
173
     0
291
     1
 45
0.0
1001
ACAD
1000
AcDbSavedByObjectVersion
1070
     0
  0
VISUALSTYLE
  5
2D
102
{ACAD_REACTORS
330
2A
102
}
102
{ACAD_XDICTIONARY
360
5B7
102
}
330
2A
100
AcDbVisualStyle
  2
Gouraud
 70
     2
 71
     2
 72
     2
 73
     1
 90
        2
 40
-0.6
 41
30.0
 62
     5
 63
     7
 74
     0
 91
        4
 64
     7
 65
   257
 75
     1
175
     1
 42
1.0
 92
        0
 66
     7
 43
1.0
 76
     1
 77
     6
 78
     2
 67
     7
 79
     5
170
     0
171
     0
290
     0
174
     0
 93
       13
 44
0.0
173
     0
291
     1
 45
0.0
1001
ACAD
1000
AcDbSavedByObjectVersion
1070
     0
  0
VISUALSTYLE
  5
2E
102
{ACAD_REACTORS
330
2A
102
}
102
{ACAD_XDICTIONARY
360
5B9
102
}
330
2A
100
AcDbVisualStyle
  2
GouraudWithEdges
 70
     3
 71
     2
 72
     2
 73
     1
 90
        2
 40
-0.6
 41
30.0
 62
     5
 63
     7
 74
     1
 91
        4
 64
     7
 65
   257
 75
     1
175
     1
 42
1.0
 92
        0
 66
   257
 43
1.0
 76
     1
 77
     6
 78
     2
 67
     7
 79
     5
170
     0
171
     0
290
     0
174
     0
 93
       13
 44
0.0
173
     0
291
     1
 45
0.0
1001
ACAD
1000
AcDbSavedByObjectVersion
1070
     0
  0
VISUALSTYLE
  5
38
102
{ACAD_REACTORS
330
2A
102
}
102
{ACAD_XDICTIONARY
360
5CD
102
}
330
2A
100
AcDbVisualStyle
  2
Linepattern
 70
    14
 71
     2
 72
     2
 73
     0
 90
        0
 40
-0.6
 41
-30.0
 62
     5
 63
     7
 74
     1
 91
        4
 64
     7
 65
   257
 75
     7
175
     7
 42
1.0
 92
        8
 66
     7
 43
1.0
 76
     1
 77
     6
 78
     2
 67
     7
 79
     5
170
     0
171
     0
290
     0
174
     0
 93
        1
 44
0.0
173
     0
291
     1
 45
0.0
1001
ACAD
1000
AcDbSavedByObjectVersion
1070
     0
  0
VISUALSTYLE
  5
33
102
{ACAD_REACTORS
330
2A
102
}
102
{ACAD_XDICTIONARY
360
5C3
102
}
330
2A
100
AcDbVisualStyle
  2
Realistic
 70
     8
 71
     2
 72
     2
 73
     0
 90
        0
 40
-0.6
 41
-30.0
 62
     5
 63
     7
 74
     1
 91
        0
 64
     7
 65
   257
 75
     1
175
     1
 42
1.0
 92
        8
 66
     8
 43
1.0
 76
     1
 77
     6
 78
     2
 67
     7
 79
     5
170
     0
171
     0
290
     0
174
     0
 93
       13
 44
0.0
173
     0
291
     0
 45
0.0
1001
ACAD
1000
AcDbSavedByObjectVersion
1070
     0
  0
VISUALSTYLE
  5
37
102
{ACAD_REACTORS
330
2A
102
}
102
{ACAD_XDICTIONARY
360
5CB
102
}
330
2A
100
AcDbVisualStyle
  2
Thicken
 70
    13
 71
     2
 72
     2
 73
     0
 90
        0
 40
-0.6
 41
-30.0
 62
     5
 63
     7
 74
     1
 91
        4
 64
     7
 65
   257
 75
     1
175
     1
 42
1.0
 92
       12
 66
     7
 43
1.0
 76
     1
 77
     6
 78
     2
 67
     7
 79
     5
170
     0
171
     0
290
     0
174
     0
 93
        1
 44
0.0
173
     0
291
     1
 45
0.0
1001
ACAD
1000
AcDbSavedByObjectVersion
1070
     0
  0
DICTIONARYVAR
  5
5B0
102
{ACAD_REACTORS
330
5AD
102
}
330
5AD
100
DictionaryVariables
280
     0
  1
1:1
  0
DICTIONARYVAR
  5
5B1
102
{ACAD_REACTORS
330
5AD
102
}
330
5AD
100
DictionaryVariables
280
     0
  1
2
  0
DICTIONARYVAR
  5
5B2
102
{ACAD_REACTORS
330
5AD
102
}
330
5AD
100
DictionaryVariables
280
     0
  1
1
  0
DICTIONARY
  5
5D5
330
3D
100
AcDbDictionary
280
     1
281
     1
  3
ACAD_XREC_ROUNDTRIP
360
5D6
  0
DICTIONARY
  5
5D3
330
3C
100
AcDbDictionary
280
     1
281
     1
  3
ACAD_XREC_ROUNDTRIP
360
5D4
  0
DICTIONARY
  5
5D7
330
3E
100
AcDbDictionary
280
     1
281
     1
  3
ACAD_XREC_ROUNDTRIP
360
5D8
  0
DICTIONARY
  5
5BB
330
2F
100
AcDbDictionary
280
     1
281
     1
  3
ACAD_XREC_ROUNDTRIP
360
5BC
  0
DICTIONARY
  5
5BF
330
31
100
AcDbDictionary
280
     1
281
     1
  3
ACAD_XREC_ROUNDTRIP
360
5C0
  0
DICTIONARY
  5
5BD
330
30
100
AcDbDictionary
280
     1
281
     1
  3
ACAD_XREC_ROUNDTRIP
360
5BE
  0
DICTIONARY
  5
5C1
330
32
100
AcDbDictionary
280
     1
281
     1
  3
ACAD_XREC_ROUNDTRIP
360
5C2
  0
DICTIONARY
  5
5C9
330
36
100
AcDbDictionary
280
     1
281
     1
  3
ACAD_XREC_ROUNDTRIP
360
5CA
  0
DICTIONARY
  5
5D1
330
3A
100
AcDbDictionary
280
     1
281
     1
  3
ACAD_XREC_ROUNDTRIP
360
5D2
  0
DICTIONARY
  5
5C5
330
34
100
AcDbDictionary
280
     1
281
     1
  3
ACAD_XREC_ROUNDTRIP
360
5C6
  0
DICTIONARY
  5
5C7
330
35
100
AcDbDictionary
280
     1
281
     1
  3
ACAD_XREC_ROUNDTRIP
360
5C8
  0
DICTIONARY
  5
5CF
330
39
100
AcDbDictionary
280
     1
281
     1
  3
ACAD_XREC_ROUNDTRIP
360
5D0
  0
DICTIONARY
  5
5B3
330
2B
100
AcDbDictionary
280
     1
281
     1
  3
ACAD_XREC_ROUNDTRIP
360
5B4
  0
DICTIONARY
  5
5B5
330
2C
100
AcDbDictionary
280
     1
281
     1
  3
ACAD_XREC_ROUNDTRIP
360
5B6
  0
DICTIONARY
  5
5B7
330
2D
100
AcDbDictionary
280
     1
281
     1
  3
ACAD_XREC_ROUNDTRIP
360
5B8
  0
DICTIONARY
  5
5B9
330
2E
100
AcDbDictionary
280
     1
281
     1
  3
ACAD_XREC_ROUNDTRIP
360
5BA
  0
DICTIONARY
  5
5CD
330
38
100
AcDbDictionary
280
     1
281
     1
  3
ACAD_XREC_ROUNDTRIP
360
5CE
  0
DICTIONARY
  5
5C3
330
33
100
AcDbDictionary
280
     1
281
     1
  3
ACAD_XREC_ROUNDTRIP
360
5C4
  0
DICTIONARY
  5
5CB
330
37
100
AcDbDictionary
280
     1
281
     1
  3
ACAD_XREC_ROUNDTRIP
360
5CC
  0
XRECORD
  5
5D6
102
{ACAD_REACTORS
330
5D5
102
}
330
5D5
100
AcDbXrecord
280
     1
102
MATERIAL
148
0.0
149
0.0
149
0.0
 93
        0
 94
      127
282
     0
 72
     1
 77
     1
171
     1
175
     1
179
     1
273
     0
  0
XRECORD
  5
5D4
102
{ACAD_REACTORS
330
5D3
102
}
330
5D3
100
AcDbXrecord
280
     1
102
MATERIAL
148
0.0
149
0.0
149
0.0
 93
        0
 94
      127
282
     0
 72
     1
 77
     1
171
     1
175
     1
179
     1
273
     0
  0
XRECORD
  5
5D8
102
{ACAD_REACTORS
330
5D7
102
}
330
5D7
100
AcDbXrecord
280
     1
102
MATERIAL
148
0.0
149
0.0
149
0.0
 93
        0
 94
      127
282
     0
 72
     1
 77
     1
171
     1
175
     1
179
     1
273
     0
  0
XRECORD
  5
5BC
102
{ACAD_REACTORS
330
5BB
102
}
330
5BB
100
AcDbXrecord
280
     1
102
RTVSPropertyOp0
 70
     1
102
RTVSPropertyOp1
 70
     1
102
RTVSPropertyOp2
 70
     1
102
RTVSPropertyOp3
 70
     1
102
RTVSPropertyOp4
 70
     1
102
RTVSPropertyOp5
 70
     1
102
RTVSPropertyOp6
 70
     1
102
RTVSPropertyOp7
 70
     1
102
RTVSPropertyOp8
 70
     1
102
RTVSPropertyOp9
 70
     1
102
RTVSPropertyOp10
 70
     1
102
RTVSPropertyOp11
 70
     1
102
RTVSPropertyOp12
 70
     1
102
RTVSPropertyOp13
 70
     1
102
RTVSPropertyOp14
 70
     1
102
RTVSPropertyOp15
 70
     1
102
RTVSPropertyOp16
 70
     1
102
RTVSPropertyOp17
 70
     1
102
RTVSPropertyOp18
 70
     1
102
RTVSPropertyOp19
 70
     1
102
RTVSPropertyOp20
 70
     1
102
RTVSPropertyOp21
 70
     1
102
RTVSPropertyOp22
 70
     1
102
RTVSPropertyOp23
 70
     1
102
RTVSPropertyOp24
 70
     1
102
RTVSPropertyOp25
 70
     1
102
RTVSPropertyOp26
 70
     1
102
RTVSPropertyOp27
 70
     1
  0
XRECORD
  5
5C0
102
{ACAD_REACTORS
330
5BF
102
}
330
5BF
100
AcDbXrecord
280
     1
102
RTVSPropertyOp0
 70
     1
102
RTVSPropertyOp1
 70
     1
102
RTVSPropertyOp2
 70
     1
102
RTVSPropertyOp3
 70
     1
102
RTVSPropertyOp4
 70
     1
102
RTVSPropertyOp5
 70
     1
102
RTVSPropertyOp6
 70
     1
102
RTVSPropertyOp7
 70
     1
102
RTVSPropertyOp8
 70
     1
102
RTVSPropertyOp9
 70
     1
102
RTVSPropertyOp10
 70
     1
102
RTVSPropertyOp11
 70
     1
102
RTVSPropertyOp12
 70
     1
102
RTVSPropertyOp13
 70
     1
102
RTVSPropertyOp14
 70
     1
102
RTVSPropertyOp15
 70
     1
102
RTVSPropertyOp16
 70
     1
102
RTVSPropertyOp17
 70
     1
102
RTVSPropertyOp18
 70
     1
102
RTVSPropertyOp19
 70
     1
102
RTVSPropertyOp20
 70
     1
102
RTVSPropertyOp21
 70
     1
102
RTVSPropertyOp22
 70
     1
102
RTVSPropertyOp23
 70
     1
102
RTVSPropertyOp24
 70
     1
102
RTVSPropertyOp25
 70
     1
102
RTVSPropertyOp26
 70
     1
102
RTVSPropertyOp27
 70
     1
  0
XRECORD
  5
5BE
102
{ACAD_REACTORS
330
5BD
102
}
330
5BD
100
AcDbXrecord
280
     1
102
RTVSPropertyOp0
 70
     1
102
RTVSPropertyOp1
 70
     1
102
RTVSPropertyOp2
 70
     1
102
RTVSPropertyOp3
 70
     1
102
RTVSPropertyOp4
 70
     1
102
RTVSPropertyOp5
 70
     1
102
RTVSPropertyOp6
 70
     1
102
RTVSPropertyOp7
 70
     1
102
RTVSPropertyOp8
 70
     1
102
RTVSPropertyOp9
 70
     1
102
RTVSPropertyOp10
 70
     1
102
RTVSPropertyOp11
 70
     1
102
RTVSPropertyOp12
 70
     1
102
RTVSPropertyOp13
 70
     1
102
RTVSPropertyOp14
 70
     1
102
RTVSPropertyOp15
 70
     1
102
RTVSPropertyOp16
 70
     1
102
RTVSPropertyOp17
 70
     1
102
RTVSPropertyOp18
 70
     1
102
RTVSPropertyOp19
 70
     1
102
RTVSPropertyOp20
 70
     1
102
RTVSPropertyOp21
 70
     1
102
RTVSPropertyOp22
 70
     1
102
RTVSPropertyOp23
 70
     1
102
RTVSPropertyOp24
 70
     1
102
RTVSPropertyOp25
 70
     1
102
RTVSPropertyOp26
 70
     1
102
RTVSPropertyOp27
 70
     1
  0
XRECORD
  5
5C2
102
{ACAD_REACTORS
330
5C1
102
}
330
5C1
100
AcDbXrecord
280
     1
102
RTVSPropertyOp0
 70
     1
102
RTVSPropertyOp1
 70
     1
102
RTVSPropertyOp2
 70
     1
102
RTVSPropertyOp3
 70
     1
102
RTVSPropertyOp4
 70
     1
102
RTVSPropertyOp5
 70
     1
102
RTVSPropertyOp6
 70
     1
102
RTVSPropertyOp7
 70
     1
102
RTVSPropertyOp8
 70
     1
102
RTVSPropertyOp9
 70
     1
102
RTVSPropertyOp10
 70
     1
102
RTVSPropertyOp11
 70
     1
102
RTVSPropertyOp12
 70
     1
102
RTVSPropertyOp13
 70
     1
102
RTVSPropertyOp14
 70
     1
102
RTVSPropertyOp15
 70
     1
102
RTVSPropertyOp16
 70
     1
102
RTVSPropertyOp17
 70
     1
102
RTVSPropertyOp18
 70
     1
102
RTVSPropertyOp19
 70
     1
102
RTVSPropertyOp20
 70
     1
102
RTVSPropertyOp21
 70
     1
102
RTVSPropertyOp22
 70
     1
102
RTVSPropertyOp23
 70
     1
102
RTVSPropertyOp24
 70
     1
102
RTVSPropertyOp25
 70
     1
102
RTVSPropertyOp26
 70
     1
102
RTVSPropertyOp27
 70
     1
  0
XRECORD
  5
5CA
102
{ACAD_REACTORS
330
5C9
102
}
330
5C9
100
AcDbXrecord
280
     1
102
RTVSPropertyOp0
 70
     1
102
RTVSPropertyOp1
 70
     1
102
RTVSPropertyOp2
 70
     1
102
RTVSPropertyOp3
 70
     1
102
RTVSPropertyOp4
 70
     1
102
RTVSPropertyOp5
 70
     1
102
RTVSPropertyOp6
 70
     1
102
RTVSPropertyOp7
 70
     1
102
RTVSPropertyOp8
 70
     1
102
RTVSPropertyOp9
 70
     1
102
RTVSPropertyOp10
 70
     1
102
RTVSPropertyOp11
 70
     1
102
RTVSPropertyOp12
 70
     1
102
RTVSPropertyOp13
 70
     1
102
RTVSPropertyOp14
 70
     1
102
RTVSPropertyOp15
 70
     1
102
RTVSPropertyOp16
 70
     1
102
RTVSPropertyOp17
 70
     1
102
RTVSPropertyOp18
 70
     1
102
RTVSPropertyOp19
 70
     1
102
RTVSPropertyOp20
 70
     1
102
RTVSPropertyOp21
 70
     1
102
RTVSPropertyOp22
 70
     1
102
RTVSPropertyOp23
 70
     1
102
RTVSPropertyOp24
 70
     1
102
RTVSPropertyOp25
 70
     1
102
RTVSPropertyOp26
 70
     1
102
RTVSPropertyOp27
 70
     1
  0
XRECORD
  5
5D2
102
{ACAD_REACTORS
330
5D1
102
}
330
5D1
100
AcDbXrecord
280
     1
102
RTVSPropertyOp0
 70
     1
102
RTVSPropertyOp1
 70
     1
102
RTVSPropertyOp2
 70
     1
102
RTVSPropertyOp3
 70
     1
102
RTVSPropertyOp4
 70
     1
102
RTVSPropertyOp5
 70
     1
102
RTVSPropertyOp6
 70
     1
102
RTVSPropertyOp7
 70
     1
102
RTVSPropertyOp8
 70
     1
102
RTVSPropertyOp9
 70
     1
102
RTVSPropertyOp10
 70
     1
102
RTVSPropertyOp11
 70
     1
102
RTVSPropertyOp12
 70
     1
102
RTVSPropertyOp13
 70
     1
102
RTVSPropertyOp14
 70
     1
102
RTVSPropertyOp15
 70
     1
102
RTVSPropertyOp16
 70
     1
102
RTVSPropertyOp17
 70
     1
102
RTVSPropertyOp18
 70
     1
102
RTVSPropertyOp19
 70
     1
102
RTVSPropertyOp20
 70
     1
102
RTVSPropertyOp21
 70
     1
102
RTVSPropertyOp22
 70
     1
102
RTVSPropertyOp23
 70
     1
102
RTVSPropertyOp24
 70
     1
102
RTVSPropertyOp25
 70
     1
102
RTVSPropertyOp26
 70
     1
102
RTVSPropertyOp27
 70
     1
  0
XRECORD
  5
5C6
102
{ACAD_REACTORS
330
5C5
102
}
330
5C5
100
AcDbXrecord
280
     1
102
RTVSPropertyOp0
 70
     1
102
RTVSPropertyOp1
 70
     1
102
RTVSPropertyOp2
 70
     1
102
RTVSPropertyOp3
 70
     1
102
RTVSPropertyOp4
 70
     1
102
RTVSPropertyOp5
 70
     1
102
RTVSPropertyOp6
 70
     1
102
RTVSPropertyOp7
 70
     1
102
RTVSPropertyOp8
 70
     1
102
RTVSPropertyOp9
 70
     1
102
RTVSPropertyOp10
 70
     1
102
RTVSPropertyOp11
 70
     1
102
RTVSPropertyOp12
 70
     1
102
RTVSPropertyOp13
 70
     1
102
RTVSPropertyOp14
 70
     1
102
RTVSPropertyOp15
 70
     1
102
RTVSPropertyOp16
 70
     1
102
RTVSPropertyOp17
 70
     1
102
RTVSPropertyOp18
 70
     1
102
RTVSPropertyOp19
 70
     1
102
RTVSPropertyOp20
 70
     1
102
RTVSPropertyOp21
 70
     1
102
RTVSPropertyOp22
 70
     1
102
RTVSPropertyOp23
 70
     1
102
RTVSPropertyOp24
 70
     1
102
RTVSPropertyOp25
 70
     1
102
RTVSPropertyOp26
 70
     1
102
RTVSPropertyOp27
 70
     1
  0
XRECORD
  5
5C8
102
{ACAD_REACTORS
330
5C7
102
}
330
5C7
100
AcDbXrecord
280
     1
102
RTVSPropertyOp0
 70
     1
102
RTVSPropertyOp1
 70
     1
102
RTVSPropertyOp2
 70
     1
102
RTVSPropertyOp3
 70
     1
102
RTVSPropertyOp4
 70
     1
102
RTVSPropertyOp5
 70
     1
102
RTVSPropertyOp6
 70
     1
102
RTVSPropertyOp7
 70
     1
102
RTVSPropertyOp8
 70
     1
102
RTVSPropertyOp9
 70
     1
102
RTVSPropertyOp10
 70
     1
102
RTVSPropertyOp11
 70
     1
102
RTVSPropertyOp12
 70
     1
102
RTVSPropertyOp13
 70
     1
102
RTVSPropertyOp14
 70
     1
102
RTVSPropertyOp15
 70
     1
102
RTVSPropertyOp16
 70
     1
102
RTVSPropertyOp17
 70
     1
102
RTVSPropertyOp18
 70
     1
102
RTVSPropertyOp19
 70
     1
102
RTVSPropertyOp20
 70
     1
102
RTVSPropertyOp21
 70
     1
102
RTVSPropertyOp22
 70
     1
102
RTVSPropertyOp23
 70
     1
102
RTVSPropertyOp24
 70
     1
102
RTVSPropertyOp25
 70
     1
102
RTVSPropertyOp26
 70
     1
102
RTVSPropertyOp27
 70
     1
  0
XRECORD
  5
5D0
102
{ACAD_REACTORS
330
5CF
102
}
330
5CF
100
AcDbXrecord
280
     1
102
RTVSPropertyOp0
 70
     1
102
RTVSPropertyOp1
 70
     1
102
RTVSPropertyOp2
 70
     1
102
RTVSPropertyOp3
 70
     1
102
RTVSPropertyOp4
 70
     1
102
RTVSPropertyOp5
 70
     1
102
RTVSPropertyOp6
 70
     1
102
RTVSPropertyOp7
 70
     1
102
RTVSPropertyOp8
 70
     1
102
RTVSPropertyOp9
 70
     1
102
RTVSPropertyOp10
 70
     1
102
RTVSPropertyOp11
 70
     1
102
RTVSPropertyOp12
 70
     1
102
RTVSPropertyOp13
 70
     1
102
RTVSPropertyOp14
 70
     1
102
RTVSPropertyOp15
 70
     1
102
RTVSPropertyOp16
 70
     1
102
RTVSPropertyOp17
 70
     1
102
RTVSPropertyOp18
 70
     1
102
RTVSPropertyOp19
 70
     1
102
RTVSPropertyOp20
 70
     1
102
RTVSPropertyOp21
 70
     1
102
RTVSPropertyOp22
 70
     1
102
RTVSPropertyOp23
 70
     1
102
RTVSPropertyOp24
 70
     1
102
RTVSPropertyOp25
 70
     1
102
RTVSPropertyOp26
 70
     1
102
RTVSPropertyOp27
 70
     1
  0
XRECORD
  5
5B4
102
{ACAD_REACTORS
330
5B3
102
}
330
5B3
100
AcDbXrecord
280
     1
102
RTVSPropertyOp0
 70
     1
102
RTVSPropertyOp1
 70
     1
102
RTVSPropertyOp2
 70
     1
102
RTVSPropertyOp3
 70
     1
102
RTVSPropertyOp4
 70
     1
102
RTVSPropertyOp5
 70
     1
102
RTVSPropertyOp6
 70
     1
102
RTVSPropertyOp7
 70
     1
102
RTVSPropertyOp8
 70
     1
102
RTVSPropertyOp9
 70
     1
102
RTVSPropertyOp10
 70
     1
102
RTVSPropertyOp11
 70
     1
102
RTVSPropertyOp12
 70
     1
102
RTVSPropertyOp13
 70
     1
102
RTVSPropertyOp14
 70
     1
102
RTVSPropertyOp15
 70
     1
102
RTVSPropertyOp16
 70
     1
102
RTVSPropertyOp17
 70
     1
102
RTVSPropertyOp18
 70
     1
102
RTVSPropertyOp19
 70
     1
102
RTVSPropertyOp20
 70
     1
102
RTVSPropertyOp21
 70
     1
102
RTVSPropertyOp22
 70
     1
102
RTVSPropertyOp23
 70
     1
102
RTVSPropertyOp24
 70
     1
102
RTVSPropertyOp25
 70
     1
102
RTVSPropertyOp26
 70
     1
102
RTVSPropertyOp27
 70
     1
  0
XRECORD
  5
5B6
102
{ACAD_REACTORS
330
5B5
102
}
330
5B5
100
AcDbXrecord
280
     1
102
RTVSPropertyOp0
 70
     1
102
RTVSPropertyOp1
 70
     1
102
RTVSPropertyOp2
 70
     1
102
RTVSPropertyOp3
 70
     1
102
RTVSPropertyOp4
 70
     1
102
RTVSPropertyOp5
 70
     1
102
RTVSPropertyOp6
 70
     1
102
RTVSPropertyOp7
 70
     1
102
RTVSPropertyOp8
 70
     1
102
RTVSPropertyOp9
 70
     1
102
RTVSPropertyOp10
 70
     1
102
RTVSPropertyOp11
 70
     1
102
RTVSPropertyOp12
 70
     1
102
RTVSPropertyOp13
 70
     1
102
RTVSPropertyOp14
 70
     1
102
RTVSPropertyOp15
 70
     1
102
RTVSPropertyOp16
 70
     1
102
RTVSPropertyOp17
 70
     1
102
RTVSPropertyOp18
 70
     1
102
RTVSPropertyOp19
 70
     1
102
RTVSPropertyOp20
 70
     1
102
RTVSPropertyOp21
 70
     1
102
RTVSPropertyOp22
 70
     1
102
RTVSPropertyOp23
 70
     1
102
RTVSPropertyOp24
 70
     1
102
RTVSPropertyOp25
 70
     1
102
RTVSPropertyOp26
 70
     1
102
RTVSPropertyOp27
 70
     1
  0
XRECORD
  5
5B8
102
{ACAD_REACTORS
330
5B7
102
}
330
5B7
100
AcDbXrecord
280
     1
102
RTVSPropertyOp0
 70
     1
102
RTVSPropertyOp1
 70
     1
102
RTVSPropertyOp2
 70
     1
102
RTVSPropertyOp3
 70
     1
102
RTVSPropertyOp4
 70
     1
102
RTVSPropertyOp5
 70
     1
102
RTVSPropertyOp6
 70
     1
102
RTVSPropertyOp7
 70
     1
102
RTVSPropertyOp8
 70
     1
102
RTVSPropertyOp9
 70
     1
102
RTVSPropertyOp10
 70
     1
102
RTVSPropertyOp11
 70
     1
102
RTVSPropertyOp12
 70
     1
102
RTVSPropertyOp13
 70
     1
102
RTVSPropertyOp14
 70
     1
102
RTVSPropertyOp15
 70
     1
102
RTVSPropertyOp16
 70
     1
102
RTVSPropertyOp17
 70
     1
102
RTVSPropertyOp18
 70
     1
102
RTVSPropertyOp19
 70
     1
102
RTVSPropertyOp20
 70
     1
102
RTVSPropertyOp21
 70
     1
102
RTVSPropertyOp22
 70
     1
102
RTVSPropertyOp23
 70
     1
102
RTVSPropertyOp24
 70
     1
102
RTVSPropertyOp25
 70
     1
102
RTVSPropertyOp26
 70
     1
102
RTVSPropertyOp27
 70
     1
  0
XRECORD
  5
5BA
102
{ACAD_REACTORS
330
5B9
102
}
330
5B9
100
AcDbXrecord
280
     1
102
RTVSPropertyOp0
 70
     1
102
RTVSPropertyOp1
 70
     1
102
RTVSPropertyOp2
 70
     1
102
RTVSPropertyOp3
 70
     1
102
RTVSPropertyOp4
 70
     1
102
RTVSPropertyOp5
 70
     1
102
RTVSPropertyOp6
 70
     1
102
RTVSPropertyOp7
 70
     1
102
RTVSPropertyOp8
 70
     1
102
RTVSPropertyOp9
 70
     1
102
RTVSPropertyOp10
 70
     1
102
RTVSPropertyOp11
 70
     1
102
RTVSPropertyOp12
 70
     1
102
RTVSPropertyOp13
 70
     1
102
RTVSPropertyOp14
 70
     1
102
RTVSPropertyOp15
 70
     1
102
RTVSPropertyOp16
 70
     1
102
RTVSPropertyOp17
 70
     1
102
RTVSPropertyOp18
 70
     1
102
RTVSPropertyOp19
 70
     1
102
RTVSPropertyOp20
 70
     1
102
RTVSPropertyOp21
 70
     1
102
RTVSPropertyOp22
 70
     1
102
RTVSPropertyOp23
 70
     1
102
RTVSPropertyOp24
 70
     1
102
RTVSPropertyOp25
 70
     1
102
RTVSPropertyOp26
 70
     1
102
RTVSPropertyOp27
 70
     1
  0
XRECORD
  5
5CE
102
{ACAD_REACTORS
330
5CD
102
}
330
5CD
100
AcDbXrecord
280
     1
102
RTVSPropertyOp0
 70
     1
102
RTVSPropertyOp1
 70
     1
102
RTVSPropertyOp2
 70
     1
102
RTVSPropertyOp3
 70
     1
102
RTVSPropertyOp4
 70
     1
102
RTVSPropertyOp5
 70
     1
102
RTVSPropertyOp6
 70
     1
102
RTVSPropertyOp7
 70
     1
102
RTVSPropertyOp8
 70
     1
102
RTVSPropertyOp9
 70
     1
102
RTVSPropertyOp10
 70
     1
102
RTVSPropertyOp11
 70
     1
102
RTVSPropertyOp12
 70
     1
102
RTVSPropertyOp13
 70
     1
102
RTVSPropertyOp14
 70
     1
102
RTVSPropertyOp15
 70
     1
102
RTVSPropertyOp16
 70
     1
102
RTVSPropertyOp17
 70
     1
102
RTVSPropertyOp18
 70
     1
102
RTVSPropertyOp19
 70
     1
102
RTVSPropertyOp20
 70
     1
102
RTVSPropertyOp21
 70
     1
102
RTVSPropertyOp22
 70
     1
102
RTVSPropertyOp23
 70
     1
102
RTVSPropertyOp24
 70
     1
102
RTVSPropertyOp25
 70
     1
102
RTVSPropertyOp26
 70
     1
102
RTVSPropertyOp27
 70
     1
  0
XRECORD
  5
5C4
102
{ACAD_REACTORS
330
5C3
102
}
330
5C3
100
AcDbXrecord
280
     1
102
RTVSPropertyOp0
 70
     1
102
RTVSPropertyOp1
 70
     1
102
RTVSPropertyOp2
 70
     1
102
RTVSPropertyOp3
 70
     1
102
RTVSPropertyOp4
 70
     1
102
RTVSPropertyOp5
 70
     1
102
RTVSPropertyOp6
 70
     1
102
RTVSPropertyOp7
 70
     1
102
RTVSPropertyOp8
 70
     1
102
RTVSPropertyOp9
 70
     1
102
RTVSPropertyOp10
 70
     1
102
RTVSPropertyOp11
 70
     1
102
RTVSPropertyOp12
 70
     1
102
RTVSPropertyOp13
 70
     1
102
RTVSPropertyOp14
 70
     1
102
RTVSPropertyOp15
 70
     1
102
RTVSPropertyOp16
 70
     1
102
RTVSPropertyOp17
 70
     1
102
RTVSPropertyOp18
 70
     1
102
RTVSPropertyOp19
 70
     1
102
RTVSPropertyOp20
 70
     1
102
RTVSPropertyOp21
 70
     1
102
RTVSPropertyOp22
 70
     1
102
RTVSPropertyOp23
 70
     1
102
RTVSPropertyOp24
 70
     1
102
RTVSPropertyOp25
 70
     1
102
RTVSPropertyOp26
 70
     1
102
RTVSPropertyOp27
 70
     1
  0
XRECORD
  5
5CC
102
{ACAD_REACTORS
330
5CB
102
}
330
5CB
100
AcDbXrecord
280
     1
102
RTVSPropertyOp0
 70
     1
102
RTVSPropertyOp1
 70
     1
102
RTVSPropertyOp2
 70
     1
102
RTVSPropertyOp3
 70
     1
102
RTVSPropertyOp4
 70
     1
102
RTVSPropertyOp5
 70
     1
102
RTVSPropertyOp6
 70
     1
102
RTVSPropertyOp7
 70
     1
102
RTVSPropertyOp8
 70
     1
102
RTVSPropertyOp9
 70
     1
102
RTVSPropertyOp10
 70
     1
102
RTVSPropertyOp11
 70
     1
102
RTVSPropertyOp12
 70
     1
102
RTVSPropertyOp13
 70
     1
102
RTVSPropertyOp14
 70
     1
102
RTVSPropertyOp15
 70
     1
102
RTVSPropertyOp16
 70
     1
102
RTVSPropertyOp17
 70
     1
102
RTVSPropertyOp18
 70
     1
102
RTVSPropertyOp19
 70
     1
102
RTVSPropertyOp20
 70
     1
102
RTVSPropertyOp21
 70
     1
102
RTVSPropertyOp22
 70
     1
102
RTVSPropertyOp23
 70
     1
102
RTVSPropertyOp24
 70
     1
102
RTVSPropertyOp25
 70
     1
102
RTVSPropertyOp26
 70
     1
102
RTVSPropertyOp27
 70
     1
  0
ENDSEC
  0
EOF
