  0
SECTION
  2
HEADER
  9
$ACADVER
  1
AC1015
  9
$ACADMAINTVER
 70
     6
  9
$DWGCODEPAGE
  3
ANSI_932
  9
$INSBASE
 10
0.0
 20
0.0
 30
0.0
  9
$EXTMIN
 10
-537.6000052988529
 20
-361.3500034734607
 30
0.0
  9
$EXTMAX
 10
529.2000105977058
 20
337.9500069469214
 30
0.0
  9
$LIMMIN
 10
-182.0
 20
-128.5
  9
$LIMMAX
 10
182.0
 20
128.5
  9
$ORTHOMODE
 70
     0
  9
$REGENMODE
 70
     1
  9
$FILLMODE
 70
     1
  9
$QTEXTMODE
 70
     0
  9
$MIRRTEXT
 70
     1
  9
$LTSCALE
 40
0.25
  9
$ATTMODE
 70
     1
  9
$TEXTSIZE
 40
0.2
  9
$TRACEWID
 40
0.05
  9
$TEXTSTYLE
  7
Standard
  9
$CLAYER
  8
0
  9
$CELTYPE
  6
ByLayer
  9
$CECOLOR
 62
   256
  9
$CELTSCALE
 40
1.0
  9
$DISPSILH
 70
     0
  9
$DIMSCALE
 40
1.0
  9
$DIMASZ
 40
3.000001882570243
  9
$DIMEXO
 40
1.0
  9
$DIMDLI
 40
10.0
  9
$DIMRND
 40
0.0
  9
$DIMDLE
 40
0.0
  9
$DIMEXE
 40
1.0
  9
$DIMTP
 40
0.0
  9
$DIMTM
 40
0.0
  9
$DIMTXT
 40
3.0
  9
$DIMCEN
 40
0.0
  9
$DIMTSZ
 40
0.0
  9
$DIMTOL
 70
     0
  9
$DIMLIM
 70
     0
  9
$DIMTIH
 70
     0
  9
$DIMTOH
 70
     0
  9
$DIMSE1
 70
     0
  9
$DIMSE2
 70
     0
  9
$DIMTAD
 70
     1
  9
$DIMZIN
 70
     8
  9
$DIMBLK
  1

  9
$DIMASO
 70
     1
  9
$DIMSHO
 70
     1
  9
$DIMPOST
  1

  9
$DIMAPOST
  1

  9
$DIMALT
 70
     0
  9
$DIMALTD
 70
     2
  9
$DIMALTF
 40
25.4
  9
$DIMLFAC
 40
1.0
  9
$DIMTOFL
 70
     0
  9
$DIMTVP
 40
0.0
  9
$DIMTIX
 70
     0
  9
$DIMSOXD
 70
     0
  9
$DIMSAH
 70
     0
  9
$DIMBLK1
  1

  9
$DIMBLK2
  1

  9
$DIMSTYLE
  2
Standard
  9
$DIMCLRD
 70
     0
  9
$DIMCLRE
 70
     0
  9
$DIMCLRT
 70
     0
  9
$DIMTFAC
 40
0.65
  9
$DIMGAP
 40
0.09
  9
$DIMJUST
 70
     0
  9
$DIMSD1
 70
     0
  9
$DIMSD2
 70
     0
  9
$DIMTOLJ
 70
     0
  9
$DIMTZIN
 70
     0
  9
$DIMALTZ
 70
     0
  9
$DIMALTTZ
 70
     0
  9
$DIMUPT
 70
     0
  9
$DIMDEC
 70
     2
  9
$DIMTDEC
 70
     2
  9
$DIMALTU
 70
     2
  9
$DIMALTTD
 70
     2
  9
$DIMTXSTY
  7
Standard
  9
$DIMAUNIT
 70
     0
  9
$DIMADEC
 70
     2
  9
$DIMALTRND
 40
0.0
  9
$DIMAZIN
 70
     2
  9
$DIMDSEP
 70
    46
  9
$DIMATFIT
 70
     3
  9
$DIMFRAC
 70
     0
  9
$DIMLDRBLK
  1

  9
$DIMLUNIT
 70
     2
  9
$DIMLWD
 70
    -2
  9
$DIMLWE
 70
    -2
  9
$DIMTMOVE
 70
     0
  9
$LUNITS
 70
     2
  9
$LUPREC
 70
     4
  9
$SKETCHINC
 40
0.1
  9
$FILLETRAD
 40
0.5
  9
$AUNITS
 70
     0
  9
$AUPREC
 70
     0
  9
$MENU
  1
.
  9
$ELEVATION
 40
0.0
  9
$PELEVATION
 40
0.0
  9
$THICKNESS
 40
0.0
  9
$LIMCHECK
 70
     0
  9
$CHAMFERA
 40
0.5
  9
$CHAMFERB
 40
0.5
  9
$CHAMFERC
 40
1.0
  9
$CHAMFERD
 40
0.0
  9
$SKPOLY
 70
     0
  9
$TDCREATE
 40
2459607.019621146
  9
$TDUCREATE
 40
2459606.644621146
  9
$TDUPDATE
 40
2459607.019621158
  9
$TDUUPDATE
 40
2459606.644621158
  9
$TDINDWG
 40
0.0000000116
  9
$TDUSRTIMER
 40
0.0000000116
  9
$USRTIMER
 70
     1
  9
$ANGBASE
 50
0.0
  9
$ANGDIR
 70
     0
  9
$PDMODE
 70
     0
  9
$PDSIZE
 40
1.0
  9
$PLINEWID
 40
0.0
  9
$SPLFRAME
 70
     0
  9
$SPLINETYPE
 70
     6
  9
$SPLINESEGS
 70
     8
  9
$HANDSEED
  5
605
  9
$SURFTAB1
 70
     6
  9
$SURFTAB2
 70
     6
  9
$SURFTYPE
 70
     6
  9
$SURFU
 70
     6
  9
$SURFV
 70
     6
  9
$UCSBASE
  2

  9
$UCSNAME
  2

  9
$UCSORG
 10
0.0
 20
0.0
 30
0.0
  9
$UCSXDIR
 10
1.0
 20
0.0
 30
0.0
  9
$UCSYDIR
 10
0.0
 20
1.0
 30
0.0
  9
$UCSORTHOREF
  2

  9
$UCSORTHOVIEW
 70
     0
  9
$UCSORGTOP
 10
0.0
 20
0.0
 30
0.0
  9
$UCSORGBOTTOM
 10
0.0
 20
0.0
 30
0.0
  9
$UCSORGLEFT
 10
0.0
 20
0.0
 30
0.0
  9
$UCSORGRIGHT
 10
0.0
 20
0.0
 30
0.0
  9
$UCSORGFRONT
 10
0.0
 20
0.0
 30
0.0
  9
$UCSORGBACK
 10
0.0
 20
0.0
 30
0.0
  9
$PUCSBASE
  2

  9
$PUCSNAME
  2

  9
$PUCSORG
 10
0.0
 20
0.0
 30
0.0
  9
$PUCSXDIR
 10
1.0
 20
0.0
 30
0.0
  9
$PUCSYDIR
 10
0.0
 20
1.0
 30
0.0
  9
$PUCSORTHOREF
  2

  9
$PUCSORTHOVIEW
 70
     0
  9
$PUCSORGTOP
 10
0.0
 20
0.0
 30
0.0
  9
$PUCSORGBOTTOM
 10
0.0
 20
0.0
 30
0.0
  9
$PUCSORGLEFT
 10
0.0
 20
0.0
 30
0.0
  9
$PUCSORGRIGHT
 10
0.0
 20
0.0
 30
0.0
  9
$PUCSORGFRONT
 10
0.0
 20
0.0
 30
0.0
  9
$PUCSORGBACK
 10
0.0
 20
0.0
 30
0.0
  9
$USERI1
 70
     0
  9
$USERI2
 70
     0
  9
$USERI3
 70
     0
  9
$USERI4
 70
     0
  9
$USERI5
 70
     0
  9
$USERR1
 40
0.0
  9
$USERR2
 40
0.0
  9
$USERR3
 40
0.0
  9
$USERR4
 40
0.0
  9
$USERR5
 40
0.0
  9
$WORLDVIEW
 70
     1
  9
$SHADEDGE
 70
     3
  9
$SHADEDIF
 70
    70
  9
$TILEMODE
 70
     1
  9
$MAXACTVP
 70
    64
  9
$PINSBASE
 10
0.0
 20
0.0
 30
0.0
  9
$PLIMCHECK
 70
     0
  9
$PEXTMIN
 10
1.000000000000000E+20
 20
1.000000000000000E+20
 30
1.000000000000000E+20
  9
$PEXTMAX
 10
-1.000000000000000E+20
 20
-1.000000000000000E+20
 30
-1.000000000000000E+20
  9
$PLIMMIN
 10
0.0
 20
0.0
  9
$PLIMMAX
 10
12.0
 20
9.0
  9
$UNITMODE
 70
     0
  9
$VISRETAIN
 70
     0
  9
$PLINEGEN
 70
     1
  9
$PSLTSCALE
 70
     0
  9
$TREEDEPTH
 70
  3020
  9
$CMLSTYLE
  2
Standard
  9
$CMLJUST
 70
     0
  9
$CMLSCALE
 40
1.0
  9
$PROXYGRAPHICS
 70
     0
  9
$MEASUREMENT
 70
     1
  9
$CELWEIGHT
370
    -1
  9
$ENDCAPS
280
     0
  9
$JOINSTYLE
280
     0
  9
$LWDISPLAY
290
     1
  9
$INSUNITS
 70
     4
  9
$HYPERLINKBASE
  1

  9
$STYLESHEET
  1

  9
$XEDIT
290
     1
  9
$CEPSNTYPE
380
     0
  9
$PSTYLEMODE
290
     1
  9
$FINGERPRINTGUID
  2
{05ECE4D0-5EE6-44E3-BC64-3E3907988392}
  9
$VERSIONGUID
  2
{FAEB1C32-E019-11D5-929B-00C0DF256EC4}
  9
$EXTNAMES
290
     1
  9
$PSVPSCALE
 40
0.0
  9
$OLESTARTUP
290
     0
  0
ENDSEC
  0
SECTION
  2
CLASSES
  0
CLASS
  1
ACDBDICTIONARYWDFLT
  2
AcDbDictionaryWithDefault
  3
ObjectDBX Classes
 90
        0
280
     0
281
     0
  0
CLASS
  1
VISUALSTYLE
  2
AcDbVisualStyle
  3
ObjectDBX Classes
 90
     4095
280
     0
281
     0
  0
CLASS
  1
MATERIAL
  2
AcDbMaterial
  3
ObjectDBX Classes
 90
     1153
280
     0
281
     0
  0
CLASS
  1
SCALE
  2
AcDbScale
  3
ObjectDBX Classes
 90
     1153
280
     0
281
     0
  0
CLASS
  1
DICTIONARYVAR
  2
AcDbDictionaryVar
  3
ObjectDBX Classes
 90
        0
280
     0
281
     0
  0
CLASS
  1
ACDBPLACEHOLDER
  2
AcDbPlaceHolder
  3
ObjectDBX Classes
 90
        0
280
     0
281
     0
  0
CLASS
  1
LAYOUT
  2
AcDbLayout
  3
ObjectDBX Classes
 90
        0
280
     0
281
     0
  0
ENDSEC
  0
SECTION
  2
TABLES
  0
TABLE
  2
VPORT
  5
8
330
0
100
AcDbSymbolTable
 70
     1
  0
VPORT
  5
29
330
8
100
AcDbSymbolTableRecord
100
AcDbViewportTableRecord
  2
*Active
 70
     0
 10
0.0
 20
0.0
 11
1.0
 21
1.0
 12
-4.199997350573543
 22
-11.69999826326965
 13
0.0
 23
0.0
 14
0.5
 24
0.5
 15
0.5
 25
0.5
 16
0.0
 26
0.0
 36
1.0
 17
0.0
 27
0.0
 37
0.0
 40
237.7620035429299
 41
1.525525525525525
 42
50.0
 43
0.0
 44
0.0
 50
0.0
 51
0.0
 71
     0
 72
  1000
 73
     1
 74
     1
 75
     0
 76
     0
 77
     0
 78
     0
281
     0
 65
     1
110
0.0
120
0.0
130
0.0
111
1.0
121
0.0
131
0.0
112
0.0
122
1.0
132
0.0
 79
     0
146
0.0
  0
ENDTAB
  0
TABLE
  2
LTYPE
  5
5
330
0
100
AcDbSymbolTable
 70
    53
  0
LTYPE
  5
14
330
5
100
AcDbSymbolTableRecord
100
AcDbLinetypeTableRecord
  2
ByBlock
 70
     0
  3

 72
    65
 73
     0
 40
0.0
  0
LTYPE
  5
15
330
5
100
AcDbSymbolTableRecord
100
AcDbLinetypeTableRecord
  2
ByLayer
 70
     0
  3

 72
    65
 73
     0
 40
0.0
  0
LTYPE
  5
16
330
5
100
AcDbSymbolTableRecord
100
AcDbLinetypeTableRecord
  2
Continuous
 70
     0
  3
Solid line
 72
    65
 73
     0
 40
0.0
  0
LTYPE
  5
40
330
5
100
AcDbSymbolTableRecord
100
AcDbLinetypeTableRecord
  2
HIDDENX2
 70
     0
  3
Hidden (2x) ____ ____ ____ ____ ____ ____ ____ 
 72
    65
 73
     2
 40
19.05
 49
12.7
 74
     0
 49
-6.35
 74
     0
  0
LTYPE
  5
41
330
5
100
AcDbSymbolTableRecord
100
AcDbLinetypeTableRecord
  2
HIDDEN
 70
     0
  3
Hidden __ __ __ __ __ __ __ __ __ __ __ __ __ __
 72
    65
 73
     2
 40
9.524999999999999
 49
6.35
 74
     0
 49
-3.175
 74
     0
  0
LTYPE
  5
42
330
5
100
AcDbSymbolTableRecord
100
AcDbLinetypeTableRecord
  2
HIDDEN2
 70
     0
  3
Hidden (.5x) _ _ _ _ _ _ _ _ _ _ _ _ _ _ _ _ _ 
 72
    65
 73
     2
 40
4.762499999999999
 49
3.175
 74
     0
 49
-1.5875
 74
     0
  0
LTYPE
  5
43
330
5
100
AcDbSymbolTableRecord
100
AcDbLinetypeTableRecord
  2
DASHED
 70
     0
  3
Dashed __ __ __ __ __ __ __ __ __ __ __ __ __ _
 72
    65
 73
     2
 40
19.05
 49
12.7
 74
     0
 49
-6.35
 74
     0
  0
LTYPE
  5
44
330
5
100
AcDbSymbolTableRecord
100
AcDbLinetypeTableRecord
  2
DASHED2
 70
     0
  3
Dashed (.5x) _ _ _ _ _ _ _ _ _ _ _ _ _ _ _ _ _ 
 72
    65
 73
     2
 40
9.524999999999999
 49
6.35
 74
     0
 49
-3.175
 74
     0
  0
LTYPE
  5
45
330
5
100
AcDbSymbolTableRecord
100
AcDbLinetypeTableRecord
  2
DASHEDX2
 70
     0
  3
Dashed (2x) ____  ____  ____  ____  ____  ___
 72
    65
 73
     2
 40
38.09999999999999
 49
25.4
 74
     0
 49
-12.7
 74
     0
  0
LTYPE
  5
46
330
5
100
AcDbSymbolTableRecord
100
AcDbLinetypeTableRecord
  2
DOTX2
 70
     0
  3
Dot (2x) .  .  .  .  .  .  .  .  .  .  .  .  .  .
 72
    65
 73
     2
 40
12.7
 49
0.0
 74
     0
 49
-12.7
 74
     0
  0
LTYPE
  5
47
330
5
100
AcDbSymbolTableRecord
100
AcDbLinetypeTableRecord
  2
DOT
 70
     0
  3
Dot . . . . . . . . . . . . . . . . . . . . . . . .
 72
    65
 73
     2
 40
6.35
 49
0.0
 74
     0
 49
-6.35
 74
     0
  0
LTYPE
  5
48
330
5
100
AcDbSymbolTableRecord
100
AcDbLinetypeTableRecord
  2
DOT2
 70
     0
  3
Dot (.5x) ........................................
 72
    65
 73
     2
 40
3.175
 49
0.0
 74
     0
 49
-3.175
 74
     0
  0
LTYPE
  5
49
330
5
100
AcDbSymbolTableRecord
100
AcDbLinetypeTableRecord
  2
CENTERX2
 70
     0
  3
Center (2x) ________  __  ________  __  _____
 72
    65
 73
     4
 40
101.6
 49
63.5
 74
     0
 49
-12.7
 74
     0
 49
12.7
 74
     0
 49
-12.7
 74
     0
  0
LTYPE
  5
4A
330
5
100
AcDbSymbolTableRecord
100
AcDbLinetypeTableRecord
  2
CENTER
 70
     0
  3
Center ____ _ ____ _ ____ _ ____ _ ____ _ ____
 72
    65
 73
     4
 40
50.8
 49
31.75
 74
     0
 49
-6.35
 74
     0
 49
6.35
 74
     0
 49
-6.35
 74
     0
  0
LTYPE
  5
4B
330
5
100
AcDbSymbolTableRecord
100
AcDbLinetypeTableRecord
  2
CENTER2
 70
     0
  3
Center (.5x) ___ _ ___ _ ___ _ ___ _ ___ _ ___
 72
    65
 73
     4
 40
28.575
 49
19.05
 74
     0
 49
-3.175
 74
     0
 49
3.175
 74
     0
 49
-3.175
 74
     0
  0
LTYPE
  5
4C
330
5
100
AcDbSymbolTableRecord
100
AcDbLinetypeTableRecord
  2
DASHDOTX2
 70
     0
  3
Dash dot (2x) ____  .  ____  .  ____  .  ___
 72
    65
 73
     4
 40
50.8
 49
25.4
 74
     0
 49
-12.7
 74
     0
 49
0.0
 74
     0
 49
-12.7
 74
     0
  0
LTYPE
  5
4D
330
5
100
AcDbSymbolTableRecord
100
AcDbLinetypeTableRecord
  2
DASHDOT
 70
     0
  3
Dash dot __ . __ . __ . __ . __ . __ . __ . __
 72
    65
 73
     4
 40
25.4
 49
12.7
 74
     0
 49
-6.35
 74
     0
 49
0.0
 74
     0
 49
-6.35
 74
     0
  0
LTYPE
  5
4E
330
5
100
AcDbSymbolTableRecord
100
AcDbLinetypeTableRecord
  2
DASHDOT2
 70
     0
  3
Dash dot (.5x) _._._._._._._._._._._._._._._.
 72
    65
 73
     4
 40
12.7
 49
6.35
 74
     0
 49
-3.175
 74
     0
 49
0.0
 74
     0
 49
-3.175
 74
     0
  0
LTYPE
  5
4F
330
5
100
AcDbSymbolTableRecord
100
AcDbLinetypeTableRecord
  2
DIVIDEX2
 70
     0
  3
Divide (2x) ________  .  .  ________  .  .  _
 72
    65
 73
     6
 40
63.5
 49
25.4
 74
     0
 49
-12.7
 74
     0
 49
0.0
 74
     0
 49
-12.7
 74
     0
 49
0.0
 74
     0
 49
-12.7
 74
     0
  0
LTYPE
  5
50
330
5
100
AcDbSymbolTableRecord
100
AcDbLinetypeTableRecord
  2
DIVIDE
 70
     0
  3
Divide ____ . . ____ . . ____ . . ____ . . ____
 72
    65
 73
     6
 40
31.75
 49
12.7
 74
     0
 49
-6.35
 74
     0
 49
0.0
 74
     0
 49
-6.35
 74
     0
 49
0.0
 74
     0
 49
-6.35
 74
     0
  0
LTYPE
  5
51
330
5
100
AcDbSymbolTableRecord
100
AcDbLinetypeTableRecord
  2
DIVIDE2
 70
     0
  3
Divide (.5x) __..__..__..__..__..__..__..__.._
 72
    65
 73
     6
 40
15.875
 49
6.35
 74
     0
 49
-3.175
 74
     0
 49
0.0
 74
     0
 49
-3.175
 74
     0
 49
0.0
 74
     0
 49
-3.175
 74
     0
  0
LTYPE
  5
52
330
5
100
AcDbSymbolTableRecord
100
AcDbLinetypeTableRecord
  2
BORDERX2
 70
     0
  3
Border (2x) ____  ____  .  ____  ____  .  ___
 72
    65
 73
     6
 40
88.89999999999999
 49
25.4
 74
     0
 49
-12.7
 74
     0
 49
25.4
 74
     0
 49
-12.7
 74
     0
 49
0.0
 74
     0
 49
-12.7
 74
     0
  0
LTYPE
  5
53
330
5
100
AcDbSymbolTableRecord
100
AcDbLinetypeTableRecord
  2
BORDER
 70
     0
  3
Border __ __ . __ __ . __ __ . __ __ . __ __ .
 72
    65
 73
     6
 40
44.45
 49
12.7
 74
     0
 49
-6.35
 74
     0
 49
12.7
 74
     0
 49
-6.35
 74
     0
 49
0.0
 74
     0
 49
-6.35
 74
     0
  0
LTYPE
  5
54
330
5
100
AcDbSymbolTableRecord
100
AcDbLinetypeTableRecord
  2
BORDER2
 70
     0
  3
Border (.5x) __.__.__.__.__.__.__.__.__.__.__.
 72
    65
 73
     6
 40
22.225
 49
6.35
 74
     0
 49
-3.175
 74
     0
 49
6.35
 74
     0
 49
-3.175
 74
     0
 49
0.0
 74
     0
 49
-3.175
 74
     0
  0
LTYPE
  5
55
330
5
100
AcDbSymbolTableRecord
100
AcDbLinetypeTableRecord
  2
PHANTOMX2
 70
     0
  3
Phantom (2x) ____________    ____    ____   _
 72
    65
 73
     6
 40
127.0
 49
63.5
 74
     0
 49
-12.7
 74
     0
 49
12.7
 74
     0
 49
-12.7
 74
     0
 49
12.7
 74
     0
 49
-12.7
 74
     0
  0
LTYPE
  5
56
330
5
100
AcDbSymbolTableRecord
100
AcDbLinetypeTableRecord
  2
PHANTOM
 70
     0
  3
Phantom ______  __  __  ______  __  __  ______ 
 72
    65
 73
     6
 40
63.5
 49
31.75
 74
     0
 49
-6.35
 74
     0
 49
6.35
 74
     0
 49
-6.35
 74
     0
 49
6.35
 74
     0
 49
-6.35
 74
     0
  0
LTYPE
  5
57
330
5
100
AcDbSymbolTableRecord
100
AcDbLinetypeTableRecord
  2
PHANTOM2
 70
     0
  3
Phantom (.5x) ___ _ _ ___ _ _ ___ _ _ ___ _ _
 72
    65
 73
     6
 40
31.75
 49
15.875
 74
     0
 49
-3.175
 74
     0
 49
3.175
 74
     0
 49
-3.175
 74
     0
 49
3.175
 74
     0
 49
-3.175
 74
     0
  0
LTYPE
  5
58
330
5
100
AcDbSymbolTableRecord
100
AcDbLinetypeTableRecord
  2
ACAD_ISO06W100
 70
     0
  3
ISO long-dash triple-dot ____ ... ____ ... ____
 72
    65
 73
     8
 40
36.0
 49
24.0
 74
     0
 49
-3.0
 74
     0
 49
0.0
 74
     0
 49
-3.0
 74
     0
 49
0.0
 74
     0
 49
-3.0
 74
     0
 49
0.0
 74
     0
 49
-3.0
 74
     0
  0
LTYPE
  5
59
330
5
100
AcDbSymbolTableRecord
100
AcDbLinetypeTableRecord
  2
ACAD_ISO13W100
 70
     0
  3
ISO double-dash double-dot __ __ . . __ __ . . _
 72
    65
 73
     8
 40
36.0
 49
12.0
 74
     0
 49
-3.0
 74
     0
 49
12.0
 74
     0
 49
-3.0
 74
     0
 49
0.0
 74
     0
 49
-3.0
 74
     0
 49
0.0
 74
     0
 49
-3.0
 74
     0
  0
LTYPE
  5
5A
330
5
100
AcDbSymbolTableRecord
100
AcDbLinetypeTableRecord
  2
ACAD_ISO14W100
 70
     0
  3
ISO dash triple-dot __ . . . __ . . . __ . . . _
 72
    65
 73
     8
 40
24.0
 49
12.0
 74
     0
 49
-3.0
 74
     0
 49
0.0
 74
     0
 49
-3.0
 74
     0
 49
0.0
 74
     0
 49
-3.0
 74
     0
 49
0.0
 74
     0
 49
-3.0
 74
     0
  0
LTYPE
  5
5B
330
5
100
AcDbSymbolTableRecord
100
AcDbLinetypeTableRecord
  2
ACAD_ISO02W100
 70
     0
  3
ISO dash __ __ __ __ __ __ __ __ __ __ __ __ __
 72
    65
 73
     2
 40
15.0
 49
12.0
 74
     0
 49
-3.0
 74
     0
  0
LTYPE
  5
5C
330
5
100
AcDbSymbolTableRecord
100
AcDbLinetypeTableRecord
  2
ACAD_ISO03W100
 70
     0
  3
ISO dash space __    __    __    __    __    __
 72
    65
 73
     2
 40
30.0
 49
12.0
 74
     0
 49
-18.0
 74
     0
  0
LTYPE
  5
5D
330
5
100
AcDbSymbolTableRecord
100
AcDbLinetypeTableRecord
  2
ACAD_ISO04W100
 70
     0
  3
ISO long-dash dot ____ . ____ . ____ . ____ . _
 72
    65
 73
     4
 40
30.0
 49
24.0
 74
     0
 49
-3.0
 74
     0
 49
0.0
 74
     0
 49
-3.0
 74
     0
  0
LTYPE
  5
5E
330
5
100
AcDbSymbolTableRecord
100
AcDbLinetypeTableRecord
  2
ACAD_ISO05W100
 70
     0
  3
ISO long-dash double-dot ____ .. ____ .. ____ . 
 72
    65
 73
     6
 40
33.0
 49
24.0
 74
     0
 49
-3.0
 74
     0
 49
0.0
 74
     0
 49
-3.0
 74
     0
 49
0.0
 74
     0
 49
-3.0
 74
     0
  0
LTYPE
  5
5F
330
5
100
AcDbSymbolTableRecord
100
AcDbLinetypeTableRecord
  2
ACAD_ISO07W100
 70
     0
  3
ISO dot . . . . . . . . . . . . . . . . . . . . 
 72
    65
 73
     2
 40
3.0
 49
0.0
 74
     0
 49
-3.0
 74
     0
  0
LTYPE
  5
60
330
5
100
AcDbSymbolTableRecord
100
AcDbLinetypeTableRecord
  2
ACAD_ISO08W100
 70
     0
  3
ISO long-dash short-dash ____ __ ____ __ ____ _
 72
    65
 73
     4
 40
36.0
 49
24.0
 74
     0
 49
-3.0
 74
     0
 49
6.0
 74
     0
 49
-3.0
 74
     0
  0
LTYPE
  5
61
330
5
100
AcDbSymbolTableRecord
100
AcDbLinetypeTableRecord
  2
ACAD_ISO09W100
 70
     0
  3
ISO long-dash double-short-dash ____ __ __ ____
 72
    65
 73
     6
 40
45.0
 49
24.0
 74
     0
 49
-3.0
 74
     0
 49
6.0
 74
     0
 49
-3.0
 74
     0
 49
6.0
 74
     0
 49
-3.0
 74
     0
  0
LTYPE
  5
62
330
5
100
AcDbSymbolTableRecord
100
AcDbLinetypeTableRecord
  2
ACAD_ISO10W100
 70
     0
  3
ISO dash dot __ . __ . __ . __ . __ . __ . __ . 
 72
    65
 73
     4
 40
18.0
 49
12.0
 74
     0
 49
-3.0
 74
     0
 49
0.0
 74
     0
 49
-3.0
 74
     0
  0
LTYPE
  5
63
330
5
100
AcDbSymbolTableRecord
100
AcDbLinetypeTableRecord
  2
ACAD_ISO11W100
 70
     0
  3
ISO double-dash dot __ __ . __ __ . __ __ . __ _
 72
    65
 73
     6
 40
33.0
 49
12.0
 74
     0
 49
-3.0
 74
     0
 49
12.0
 74
     0
 49
-3.0
 74
     0
 49
0.0
 74
     0
 49
-3.0
 74
     0
  0
LTYPE
  5
64
330
5
100
AcDbSymbolTableRecord
100
AcDbLinetypeTableRecord
  2
ACAD_ISO12W100
 70
     0
  3
ISO dash double-dot __ . . __ . . __ . . __ . . 
 72
    65
 73
     6
 40
21.0
 49
12.0
 74
     0
 49
-3.0
 74
     0
 49
0.0
 74
     0
 49
-3.0
 74
     0
 49
0.0
 74
     0
 49
-3.0
 74
     0
  0
LTYPE
  5
65
330
5
100
AcDbSymbolTableRecord
100
AcDbLinetypeTableRecord
  2
ACAD_ISO15W100
 70
     0
  3
ISO double-dash triple-dot __ __ . . . __ __ . .
 72
    65
 73
    10
 40
39.0
 49
12.0
 74
     0
 49
-3.0
 74
     0
 49
12.0
 74
     0
 49
-3.0
 74
     0
 49
0.0
 74
     0
 49
-3.0
 74
     0
 49
0.0
 74
     0
 49
-3.0
 74
     0
 49
0.0
 74
     0
 49
-3.0
 74
     0
  0
LTYPE
  5
66
330
5
100
AcDbSymbolTableRecord
100
AcDbLinetypeTableRecord
  2
JIS_02_0.7
 70
     0
  3
HIDDEN0.75 _ _ _ _ _ _ _ _ _ _ _ _ _ _ _ _ _ 
 72
    65
 73
     2
 40
1.35
 49
0.75
 74
     0
 49
-0.6
 74
     0
  0
LTYPE
  5
67
330
5
100
AcDbSymbolTableRecord
100
AcDbLinetypeTableRecord
  2
JIS_02_1.0
 70
     0
  3
HIDDEN01 _ _ _ _ _ _ _ _ _ _ _ _ _ _ _ _ _ 
 72
    65
 73
     2
 40
2.0
 49
1.0
 74
     0
 49
-1.0
 74
     0
  0
LTYPE
  5
68
330
5
100
AcDbSymbolTableRecord
100
AcDbLinetypeTableRecord
  2
JIS_02_1.2
 70
     0
  3
HIDDEN01.25  _ _ _ _ _ _ _ _ _ _ _ _ _ _ _ _ _ 
 72
    65
 73
     2
 40
2.5
 49
1.25
 74
     0
 49
-1.25
 74
     0
  0
LTYPE
  5
69
330
5
100
AcDbSymbolTableRecord
100
AcDbLinetypeTableRecord
  2
JIS_02_2.0
 70
     0
  3
HIDDEN02 __ __ __ __ __ __ __ __ __ __ __ 
 72
    65
 73
     2
 40
3.0
 49
2.0
 74
     0
 49
-1.0
 74
     0
  0
LTYPE
  5
6A
330
5
100
AcDbSymbolTableRecord
100
AcDbLinetypeTableRecord
  2
JIS_02_4.0
 70
     0
  3
HIDDEN04 ____ ____ ____ ____ ____ ____ ____ 
 72
    65
 73
     2
 40
5.5
 49
4.0
 74
     0
 49
-1.5
 74
     0
  0
LTYPE
  5
6B
330
5
100
AcDbSymbolTableRecord
100
AcDbLinetypeTableRecord
  2
JIS_08_11
 70
     0
  3
1SASEN11 ___ _ ___ _ ___ _ ___ _ ___ _ ___
 72
    65
 73
     4
 40
12.8
 49
11.0
 74
     0
 49
-0.6
 74
     0
 49
0.6
 74
     0
 49
-0.6
 74
     0
  0
LTYPE
  5
6C
330
5
100
AcDbSymbolTableRecord
100
AcDbLinetypeTableRecord
  2
JIS_08_15
 70
     0
  3
1SASEN15 ____ _ ____ _ ____ _ ____ _ ____ 
 72
    65
 73
     4
 40
17.25
 49
15.0
 74
     0
 49
-0.75
 74
     0
 49
0.75
 74
     0
 49
-0.75
 74
     0
  0
LTYPE
  5
6D
330
5
100
AcDbSymbolTableRecord
100
AcDbLinetypeTableRecord
  2
JIS_08_25
 70
     0
  3
1SASEN25 ________  __  ________  __  _____
 72
    65
 73
     4
 40
28.0
 49
25.0
 74
     0
 49
-1.125
 74
     0
 49
0.75
 74
     0
 49
-1.125
 74
     0
  0
LTYPE
  5
6E
330
5
100
AcDbSymbolTableRecord
100
AcDbLinetypeTableRecord
  2
JIS_08_37
 70
     0
  3
1SASEN37 ________  __  ________  __  _____
 72
    65
 73
     4
 40
40.5
 49
37.5
 74
     0
 49
-1.125
 74
     0
 49
0.75
 74
     0
 49
-1.125
 74
     0
  0
LTYPE
  5
6F
330
5
100
AcDbSymbolTableRecord
100
AcDbLinetypeTableRecord
  2
JIS_08_50
 70
     0
  3
1SASEN50 _______________  __  ____________
 72
    65
 73
     4
 40
53.0
 49
50.0
 74
     0
 49
-1.125
 74
     0
 49
0.75
 74
     0
 49
-1.125
 74
     0
  0
LTYPE
  5
70
330
5
100
AcDbSymbolTableRecord
100
AcDbLinetypeTableRecord
  2
JIS_09_08
 70
     0
  3
2SASEN8 __ _ _ __ _ _ __ _ _ __ _ _ __ _ _ 
 72
    65
 73
     6
 40
10.75
 49
8.0
 74
     0
 49
-0.55
 74
     0
 49
0.55
 74
     0
 49
-0.55
 74
     0
 49
0.55
 74
     0
 49
-0.55
 74
     0
  0
LTYPE
  5
71
330
5
100
AcDbSymbolTableRecord
100
AcDbLinetypeTableRecord
  2
JIS_09_15
 70
     0
  3
2SASEN15 ___ _ _ ___ _ _ ___ _ _ ___ _ _ ___ 
 72
    65
 73
     6
 40
18.9
 49
15.0
 74
     0
 49
-0.9
 74
     0
 49
0.6
 74
     0
 49
-0.9
 74
     0
 49
0.6
 74
     0
 49
-0.9
 74
     0
  0
LTYPE
  5
72
330
5
100
AcDbSymbolTableRecord
100
AcDbLinetypeTableRecord
  2
JIS_09_29
 70
     0
  3
2SASEN29 ______　__  __  ______　__  __  ___
 72
    65
 73
     6
 40
34.0
 49
29.0
 74
     0
 49
-1.2
 74
     0
 49
0.7
 74
     0
 49
-1.2
 74
     0
 49
0.7
 74
     0
 49
-1.2
 74
     0
  0
LTYPE
  5
73
330
5
100
AcDbSymbolTableRecord
100
AcDbLinetypeTableRecord
  2
JIS_09_50
 70
     0
  3
2SASEN50 ____________　__  __  _____________
 72
    65
 73
     6
 40
55.0
 49
50.0
 74
     0
 49
-1.2
 74
     0
 49
0.7
 74
     0
 49
-1.2
 74
     0
 49
0.7
 74
     0
 49
-1.2
 74
     0
  0
ENDTAB
  0
TABLE
  2
LAYER
  5
2
330
0
100
AcDbSymbolTable
 70
     6
  0
LAYER
  5
10
330
2
100
AcDbSymbolTableRecord
100
AcDbLayerTableRecord
  2
0
 70
     0
 62
     7
  6
Continuous
370
    -3
390
F
  0
LAYER
  5
74
330
2
100
AcDbSymbolTableRecord
100
AcDbLayerTableRecord
  2
Layer0016
 70
     0
 62
     7
  6
Continuous
370
    -3
390
F
  0
LAYER
  5
75
330
2
100
AcDbSymbolTableRecord
100
AcDbLayerTableRecord
  2
Layer0022
 70
     0
 62
     7
  6
Continuous
370
    -3
390
F
  0
LAYER
  5
76
330
2
100
AcDbSymbolTableRecord
100
AcDbLayerTableRecord
  2
Layer0032
 70
     0
 62
     7
  6
Continuous
370
    -3
390
F
  0
LAYER
  5
77
330
2
100
AcDbSymbolTableRecord
100
AcDbLayerTableRecord
  2
Layer0048
 70
     0
 62
     7
  6
Continuous
370
    -3
390
F
  0
LAYER
  5
78
330
2
100
AcDbSymbolTableRecord
100
AcDbLayerTableRecord
  2
Layer0054
 70
     0
 62
     7
  6
Continuous
370
    -3
390
F
  0
ENDTAB
  0
TABLE
  2
STYLE
  5
3
330
0
100
AcDbSymbolTable
 70
     2
  0
STYLE
  5
11
330
3
100
AcDbSymbolTableRecord
100
AcDbTextStyleTableRecord
  2
Standard
 70
     0
 40
0.0
 41
1.0
 50
0.0
 71
     0
 42
0.2
  3
txt.shx
  4
bigfont.shx
  0
STYLE
  5
9C
330
3
100
AcDbSymbolTableRecord
100
AcDbTextStyleTableRecord
  2
dcStyle0
 70
     0
 40
0.0
 41
0.8333333345679013
 50
0.0
 71
     0
 42
0.2
  3
txt.shx
  4
bigfont
  0
ENDTAB
  0
TABLE
  2
VIEW
  5
6
330
0
100
AcDbSymbolTable
 70
     0
  0
ENDTAB
  0
TABLE
  2
UCS
  5
7
330
0
100
AcDbSymbolTable
 70
     0
  0
ENDTAB
  0
TABLE
  2
APPID
  5
9
330
0
100
AcDbSymbolTable
 70
     2
  0
APPID
  5
12
330
9
100
AcDbSymbolTableRecord
100
AcDbRegAppTableRecord
  2
ACAD
 70
     0
  0
APPID
  5
3F
330
9
100
AcDbSymbolTableRecord
100
AcDbRegAppTableRecord
  2
DaFusionOut
 70
     0
  0
ENDTAB
  0
TABLE
  2
DIMSTYLE
  5
A
330
0
100
AcDbSymbolTable
 70
     1
100
AcDbDimStyleTable
  0
DIMSTYLE
105
27
330
A
100
AcDbSymbolTableRecord
100
AcDbDimStyleTableRecord
  2
Standard
 70
     0
178
     0
340
11
  0
ENDTAB
  0
TABLE
  2
BLOCK_RECORD
  5
1
330
0
100
AcDbSymbolTable
 70
     1
  0
BLOCK_RECORD
  5
1F
330
1
100
AcDbSymbolTableRecord
100
AcDbBlockTableRecord
  2
*Model_Space
340
22
  0
BLOCK_RECORD
  5
1B
330
1
100
AcDbSymbolTableRecord
100
AcDbBlockTableRecord
  2
*Paper_Space
340
1E
  0
BLOCK_RECORD
  5
23
330
1
100
AcDbSymbolTableRecord
100
AcDbBlockTableRecord
  2
*Paper_Space0
340
26
  0
ENDTAB
  0
ENDSEC
  0
SECTION
  2
BLOCKS
  0
BLOCK
  5
20
330
1F
100
AcDbEntity
  8
0
100
AcDbBlockBegin
  2
*Model_Space
 70
     0
 10
0.0
 20
0.0
 30
0.0
  3
*Model_Space
  1

  0
ENDBLK
  5
21
330
1F
100
AcDbEntity
  8
0
100
AcDbBlockEnd
  0
BLOCK
  5
1C
330
1B
100
AcDbEntity
 67
     1
  8
0
100
AcDbBlockBegin
  2
*Paper_Space
 70
     0
 10
0.0
 20
0.0
 30
0.0
  3
*Paper_Space
  1

  0
ENDBLK
  5
1D
330
1B
100
AcDbEntity
 67
     1
  8
0
100
AcDbBlockEnd
  0
BLOCK
  5
24
330
23
100
AcDbEntity
  8
0
100
AcDbBlockBegin
  2
*Paper_Space0
 70
     0
 10
0.0
 20
0.0
 30
0.0
  3
*Paper_Space0
  1

  0
ENDBLK
  5
25
330
23
100
AcDbEntity
  8
0
100
AcDbBlockEnd
  0
ENDSEC
  0
SECTION
  2
ENTITIES
  0
LINE
  5
7A
330
1F
100
AcDbEntity
  8
0
  6
Continuous
 62
   150
370
    25
100
AcDbLine
 10
-172.3999998569489
 20
-115.1499998047948
 30
0.0
 11
-172.3999998569489
 21
104.8500034734607
 31
0.0
  0
LINE
  5
7B
330
1F
100
AcDbEntity
  8
0
  6
Continuous
 62
   150
370
    25
100
AcDbLine
 10
-172.3999998569489
 20
104.8500034734607
 30
0.0
 11
173.6000052988529
 21
104.8500034734607
 31
0.0
  0
LINE
  5
7C
330
1F
100
AcDbEntity
  8
0
  6
Continuous
 62
   150
370
    25
100
AcDbLine
 10
173.6000052988529
 20
104.8500034734607
 30
0.0
 11
173.6000052988529
 21
-115.1499998047948
 31
0.0
  0
LINE
  5
7D
330
1F
100
AcDbEntity
  8
0
  6
Continuous
 62
   150
370
    25
100
AcDbLine
 10
173.6000052988529
 20
-115.1499998047948
 30
0.0
 11
-172.3999998569489
 21
-115.1499998047948
 31
0.0
  0
LINE
  5
7E
330
1F
100
AcDbEntity
  8
0
  6
Continuous
 62
   150
370
    25
100
AcDbLine
 10
173.6000052988529
 20
-85.14999935775995
 30
0.0
 11
11.60000288486481
 21
-85.14999935775995
 31
0.0
  0
LINE
  5
7F
330
1F
100
AcDbEntity
  8
0
  6
Continuous
 62
   150
370
    25
100
AcDbLine
 10
11.60000288486481
 20
-85.14999935775995
 30
0.0
 11
11.60000288486481
 21
-115.1499998047948
 31
0.0
  0
LINE
  5
80
330
1F
100
AcDbEntity
  8
0
  6
Continuous
 62
   150
370
    25
100
AcDbLine
 10
11.60000288486481
 20
-98.14999955147505
 30
0.0
 11
97.60000416636467
 21
-98.14999955147505
 31
0.0
  0
LINE
  5
81
330
1F
100
AcDbEntity
  8
0
  6
Continuous
 62
   150
370
    25
100
AcDbLine
 10
97.60000416636467
 20
-89.64999942481518
 30
0.0
 11
11.60000288486481
 21
-89.64999942481518
 31
0.0
  0
LINE
  5
82
330
1F
100
AcDbEntity
  8
0
  6
Continuous
 62
   150
370
    25
100
AcDbLine
 10
24.6000030785799
 20
-85.14999935775995
 30
0.0
 11
24.6000030785799
 21
-98.14999955147505
 31
0.0
  0
LINE
  5
83
330
1F
100
AcDbEntity
  8
0
  6
Continuous
 62
   150
370
    25
100
AcDbLine
 10
37.600003272295
 20
-98.14999955147505
 30
0.0
 11
37.600003272295
 21
-85.14999935775995
 31
0.0
  0
LINE
  5
84
330
1F
100
AcDbEntity
  8
0
  6
Continuous
 62
   150
370
    25
100
AcDbLine
 10
50.60000346601009
 20
-85.14999935775995
 30
0.0
 11
50.60000346601009
 21
-98.14999955147505
 31
0.0
  0
LINE
  5
85
330
1F
100
AcDbEntity
  8
0
  6
Continuous
 62
   150
370
    25
100
AcDbLine
 10
76.60000385344028
 20
-98.14999955147505
 30
0.0
 11
76.60000385344028
 21
-85.14999935775995
 31
0.0
  0
LINE
  5
86
330
1F
100
AcDbEntity
  8
0
  6
Continuous
 62
   150
370
    25
100
AcDbLine
 10
97.60000416636467
 20
-85.14999935775995
 30
0.0
 11
97.60000416636467
 21
-115.1499998047948
 31
0.0
  0
LINE
  5
87
330
1F
100
AcDbEntity
  8
0
  6
Continuous
 62
   150
370
    25
100
AcDbLine
 10
102.6000042408705
 20
-115.1499998047948
 30
0.0
 11
102.6000042408705
 21
-101.6499996036291
 31
0.0
  0
LINE
  5
88
330
1F
100
AcDbEntity
  8
0
  6
Continuous
 62
   150
370
    25
100
AcDbLine
 10
97.60000416636467
 20
-101.6499996036291
 30
0.0
 11
173.6000052988529
 21
-101.6499996036291
 31
0.0
  0
LINE
  5
89
330
1F
100
AcDbEntity
  8
0
  6
Continuous
 62
   150
370
    25
100
AcDbLine
 10
169.6000052392483
 20
-95.64999951422215
 30
0.0
 11
101.6000042259693
 21
-95.64999951422215
 31
0.0
  0
LINE
  5
8A
330
1F
100
AcDbEntity
  8
0
  6
Continuous
 62
   150
370
    25
100
AcDbLine
 10
20.60000301897526
 20
-110.2499997317791
 30
0.0
 11
25.10000308603048
 21
-107.7499996945262
 31
0.0
  0
LINE
  5
8B
330
1F
100
AcDbEntity
  8
0
  6
Continuous
 62
   150
370
    25
100
AcDbLine
 10
25.10000308603048
 20
-107.7499996945262
 30
0.0
 11
29.60000315308571
 21
-110.2499997317791
 31
0.0
  0
LINE
  5
8C
330
1F
100
AcDbEntity
  8
0
  6
Continuous
 62
   150
370
    25
100
AcDbLine
 10
29.60000315308571
 20
-110.2499997317791
 30
0.0
 11
25.10000308603048
 21
-112.749999769032
 31
0.0
  0
LINE
  5
8D
330
1F
100
AcDbEntity
  8
0
  6
Continuous
 62
   150
370
    25
100
AcDbLine
 10
25.10000308603048
 20
-112.749999769032
 30
0.0
 11
20.60000301897526
 21
-110.2499997317791
 31
0.0
  0
LINE
  5
8E
330
1F
100
AcDbEntity
  8
0
  6
Continuous
 62
   150
370
    25
100
AcDbLine
 10
24.6000030785799
 20
-108.7499997094274
 30
0.0
 11
25.60000309348106
 21
-108.7499997094274
 31
0.0
  0
LINE
  5
8F
330
1F
100
AcDbEntity
  8
0
  6
Continuous
 62
   150
370
    25
100
AcDbLine
 10
25.60000309348106
 20
-108.7499997094274
 30
0.0
 11
25.60000309348106
 21
-111.7499997541308
 31
0.0
  0
LINE
  5
90
330
1F
100
AcDbEntity
  8
0
  6
Continuous
 62
   150
370
    25
100
AcDbLine
 10
25.60000309348106
 20
-111.7499997541308
 30
0.0
 11
24.6000030785799
 21
-111.7499997541308
 31
0.0
  0
LINE
  5
91
330
1F
100
AcDbEntity
  8
0
  6
Continuous
 62
   150
370
    25
100
AcDbLine
 10
24.6000030785799
 20
-111.7499997541308
 30
0.0
 11
24.6000030785799
 21
-108.7499997094274
 31
0.0
  0
LINE
  5
92
330
1F
100
AcDbEntity
  8
0
  6
Continuous
 62
   150
370
    25
100
AcDbLine
 10
24.6000030785799
 20
-108.7499997094274
 30
0.0
 11
24.80000308156013
 21
-108.7499997094274
 31
0.0
  0
LINE
  5
93
330
1F
100
AcDbEntity
  8
0
  6
Continuous
 62
   150
370
    25
100
AcDbLine
 10
24.80000308156013
 20
-108.7499997094274
 30
0.0
 11
24.80000308156013
 21
-111.7499997541308
 31
0.0
  0
LINE
  5
94
330
1F
100
AcDbEntity
  8
0
  6
Continuous
 62
   150
370
    25
100
AcDbLine
 10
24.80000308156013
 20
-111.7499997541308
 30
0.0
 11
25.00000308454037
 21
-111.7499997541308
 31
0.0
  0
LINE
  5
95
330
1F
100
AcDbEntity
  8
0
  6
Continuous
 62
   150
370
    25
100
AcDbLine
 10
25.00000308454037
 20
-111.7499997541308
 30
0.0
 11
25.00000308454037
 21
-108.7499997094274
 31
0.0
  0
LINE
  5
96
330
1F
100
AcDbEntity
  8
0
  6
Continuous
 62
   150
370
    25
100
AcDbLine
 10
25.00000308454037
 20
-108.7499997094274
 30
0.0
 11
25.2000030875206
 21
-108.7499997094274
 31
0.0
  0
LINE
  5
97
330
1F
100
AcDbEntity
  8
0
  6
Continuous
 62
   150
370
    25
100
AcDbLine
 10
25.2000030875206
 20
-108.7499997094274
 30
0.0
 11
25.2000030875206
 21
-111.7499997541308
 31
0.0
  0
LINE
  5
98
330
1F
100
AcDbEntity
  8
0
  6
Continuous
 62
   150
370
    25
100
AcDbLine
 10
25.2000030875206
 20
-111.7499997541308
 30
0.0
 11
25.40000309050083
 21
-111.7499997541308
 31
0.0
  0
LINE
  5
99
330
1F
100
AcDbEntity
  8
0
  6
Continuous
 62
   150
370
    25
100
AcDbLine
 10
25.40000309050083
 20
-111.7499997541308
 30
0.0
 11
25.40000309050083
 21
-108.7499997094274
 31
0.0
  0
LINE
  5
9A
330
1F
100
AcDbEntity
  8
0
  6
Continuous
 62
   150
370
    25
100
AcDbLine
 10
25.40000309050083
 20
-108.7499997094274
 30
0.0
 11
25.60000309348106
 21
-108.7499997094274
 31
0.0
  0
LINE
  5
9B
330
1F
100
AcDbEntity
  8
0
  6
Continuous
 62
   150
370
    25
100
AcDbLine
 10
25.60000309348106
 20
-108.7499997094274
 30
0.0
 11
25.60000309348106
 21
-111.7499997541308
 31
0.0
  0
TEXT
  5
9D
330
1F
100
AcDbEntity
  8
0
 62
   150
100
AcDbText
 10
13.60000294
 20
-88.94999941
 30
0.0
 40
3.0
  1
担　当
 41
0.8333333345679013
  7
dcStyle0
 72
     5
 11
22.60000302
 21
-88.94999941
 31
0.0
100
AcDbText
  0
TEXT
  5
9E
330
1F
100
AcDbEntity
  8
0
 62
   150
100
AcDbText
 10
26.60000313
 20
-88.94999941
 30
0.0
 40
3.0
  1
製　図
 41
0.8333333345679009
  7
dcStyle0
 72
     5
 11
35.60000321
 21
-88.94999941
 31
0.0
100
AcDbText
  0
TEXT
  5
9F
330
1F
100
AcDbEntity
  8
0
 62
   150
100
AcDbText
 10
39.60000332
 20
-88.94999941
 30
0.0
 40
3.0
  1
検　図
 41
0.8333333345679013
  7
dcStyle0
 72
     5
 11
48.6000034
 21
-88.94999941
 31
0.0
100
AcDbText
  0
TEXT
  5
A0
330
1F
100
AcDbEntity
  8
0
 62
   150
100
AcDbText
 10
57.60000359
 20
-88.94999941
 30
0.0
 40
3.0
  1
尺　　度
 41
0.833333334722222
  7
dcStyle0
 72
     5
 11
69.60000371
 21
-88.94999941
 31
0.0
100
AcDbText
  0
TEXT
  5
A1
330
1F
100
AcDbEntity
  8
0
 62
   150
100
AcDbText
 10
81.10000394
 20
-88.94999941
 30
0.0
 40
3.0
  1
作　　図
 41
0.833333334722222
  7
dcStyle0
 72
     5
 11
93.10000405999999
 21
-88.94999941
 31
0.0
100
AcDbText
  0
TEXT
  5
A2
330
1F
100
AcDbEntity
  8
0
 62
   150
100
AcDbText
 10
98.6000042
 20
-88.94999941
 30
0.0
 40
3.0
  1
工事名
 41
0.8333333345679019
  7
dcStyle0
 72
     5
 11
107.60000428
 21
-88.94999941
 31
0.0
100
AcDbText
  0
TEXT
  5
A3
330
1F
100
AcDbEntity
  8
0
 62
   150
100
AcDbText
 10
98.6000042
 20
-100.44999959
 30
0.0
 40
2.5
  1
図面番号
 41
0.8333333349999997
  7
dcStyle0
 72
     5
 11
108.60000432
 21
-100.44999959
 31
0.0
100
AcDbText
  0
TEXT
  5
A4
330
1F
100
AcDbEntity
  8
0
 62
   150
100
AcDbText
 10
98.6000042
 20
-105.14999966
 30
0.0
 40
2.5
  1
図
 41
0.8333333333333334
  7
dcStyle0
 72
     5
 11
101.1000042
 21
-105.14999966
 31
0.0
100
AcDbText
  0
TEXT
  5
A5
330
1F
100
AcDbEntity
  8
0
 62
   150
100
AcDbText
 10
98.6000042
 20
-108.1499997
 30
0.0
 40
2.5
  1
面
 41
0.8333333333333334
  7
dcStyle0
 72
     5
 11
101.1000042
 21
-108.1499997
 31
0.0
100
AcDbText
  0
TEXT
  5
A6
330
1F
100
AcDbEntity
  8
0
 62
   150
100
AcDbText
 10
98.6000042
 20
-111.14999975
 30
0.0
 40
2.5
  1
名
 41
0.8333333333333334
  7
dcStyle0
 72
     5
 11
101.1000042
 21
-111.14999975
 31
0.0
100
AcDbText
  0
TEXT
  5
A7
330
1F
100
AcDbEntity
  8
0
 62
   150
100
AcDbText
 10
98.6000042
 20
-114.14999979
 30
0.0
 40
2.5
  1
称
 41
0.8333333333333334
  7
dcStyle0
 72
     5
 11
101.1000042
 21
-114.14999979
 31
0.0
100
AcDbText
  0
TEXT
  5
A8
330
1F
100
AcDbEntity
  8
0
 62
   150
100
AcDbText
 10
81.80000395
 20
-95.14999951
 30
0.0
 40
2.5
  1
年
 41
0.8333333333333334
  7
dcStyle0
 72
     5
 11
84.30000395
 21
-95.14999951
 31
0.0
100
AcDbText
  0
TEXT
  5
A9
330
1F
100
AcDbEntity
  8
0
 62
   150
100
AcDbText
 10
88.30000405
 20
-95.14999951
 30
0.0
 40
2.5
  1
月
 41
0.8333333333333334
  7
dcStyle0
 72
     5
 11
90.80000405
 21
-95.14999951
 31
0.0
100
AcDbText
  0
TEXT
  5
AA
330
1F
100
AcDbEntity
  8
0
 62
   150
100
AcDbText
 10
94.80000414
 20
-95.14999951
 30
0.0
 40
2.5
  1
日
 41
0.8333333333333334
  7
dcStyle0
 72
     5
 11
97.30000414
 21
-95.14999951
 31
0.0
100
AcDbText
  0
TEXT
  5
AB
330
1F
100
AcDbEntity
  8
0
 62
   222
100
AcDbText
 10
26.10000314
 20
-104.94999965
 30
0.0
 40
4.0
  1
タイヘイグレーチング
 41
1.041666666119792
  7
dcStyle0
 72
     5
 11
76.10000377
 21
-104.94999965
 31
0.0
100
AcDbText
  0
TEXT
  5
AC
330
1F
100
AcDbEntity
  8
0
 62
   222
100
AcDbText
 10
31.60000322
 20
-112.44999976
 30
0.0
 40
5.0
  1
石田鉄工株式会社
 41
0.8446601958638891
  7
dcStyle0
 72
     5
 11
75.10000378
 21
-112.44999976
 31
0.0
100
AcDbText
  0
LINE
  5
AD
330
1F
100
AcDbEntity
  8
Layer0022
  6
Continuous
 62
     2
370
    25
100
AcDbLine
 10
-182.0
 20
-128.25
 30
0.0
 11
-178.9999999552965
 21
-128.25
 31
0.0
  0
LINE
  5
AE
330
1F
100
AcDbEntity
  8
Layer0022
  6
Continuous
 62
     2
370
    25
100
AcDbLine
 10
-178.9999999552965
 20
-128.25
 30
0.0
 11
-178.9999999552965
 21
-125.2499999552965
 31
0.0
  0
LINE
  5
AF
330
1F
100
AcDbEntity
  8
Layer0022
  6
Continuous
 62
     2
370
    25
100
AcDbLine
 10
-178.9999999552965
 20
-125.2499999552965
 30
0.0
 11
-182.0
 21
-125.2499999552965
 31
0.0
  0
LINE
  5
B0
330
1F
100
AcDbEntity
  8
Layer0022
  6
Continuous
 62
     2
370
    25
100
AcDbLine
 10
-182.0
 20
-125.2499999552965
 30
0.0
 11
-182.0
 21
-128.25
 31
0.0
  0
LINE
  5
B1
330
1F
100
AcDbEntity
  8
Layer0022
  6
Continuous
 62
     2
370
    25
100
AcDbLine
 10
-182.0
 20
-128.25
 30
0.0
 11
-178.9999999552965
 21
-128.25
 31
0.0
  0
LINE
  5
B2
330
1F
100
AcDbEntity
  8
Layer0022
  6
Continuous
 62
     2
370
    25
100
AcDbLine
 10
-178.9999999552965
 20
-128.25
 30
0.0
 11
-178.9999999552965
 21
-125.2499999552965
 31
0.0
  0
LINE
  5
B3
330
1F
100
AcDbEntity
  8
Layer0022
  6
Continuous
 62
     2
370
    25
100
AcDbLine
 10
-178.9999999552965
 20
-125.2499999552965
 30
0.0
 11
-182.0
 21
-125.2499999552965
 31
0.0
  0
LINE
  5
B4
330
1F
100
AcDbEntity
  8
Layer0022
  6
Continuous
 62
     2
370
    25
100
AcDbLine
 10
-182.0
 20
-125.2499999552965
 30
0.0
 11
-182.0
 21
-128.25
 31
0.0
  0
LINE
  5
B5
330
1F
100
AcDbEntity
  8
Layer0022
  6
Continuous
 62
     2
370
    25
100
AcDbLine
 10
-182.0
 20
-128.25
 30
0.0
 11
-178.9999999552965
 21
-128.25
 31
0.0
  0
LINE
  5
B6
330
1F
100
AcDbEntity
  8
Layer0022
  6
Continuous
 62
     2
370
    25
100
AcDbLine
 10
-178.9999999552965
 20
-128.25
 30
0.0
 11
-178.9999999552965
 21
-125.2499999552965
 31
0.0
  0
LINE
  5
B7
330
1F
100
AcDbEntity
  8
Layer0022
  6
Continuous
 62
     2
370
    25
100
AcDbLine
 10
-178.9999999552965
 20
-125.2499999552965
 30
0.0
 11
-182.0
 21
-125.2499999552965
 31
0.0
  0
LINE
  5
B8
330
1F
100
AcDbEntity
  8
Layer0022
  6
Continuous
 62
     2
370
    25
100
AcDbLine
 10
-182.0
 20
-125.2499999552965
 30
0.0
 11
-182.0
 21
-128.25
 31
0.0
  0
TEXT
  5
B9
330
1F
100
AcDbEntity
  8
Layer0022
 62
     2
100
AcDbText
 10
103.60000428
 20
-106.24999967
 30
0.0
 40
3.2
  1
TYVKHC
 41
0.9375000006510417
  7
dcStyle0
 72
     5
 11
121.60000448
 21
-106.24999967
 31
0.0
100
AcDbText
  0
TEXT
  5
BA
330
1F
100
AcDbEntity
  8
Layer0022
 62
     2
100
AcDbText
 10
121.60000454
 20
-106.24999967
 30
0.0
 40
3.2
  1
 600 
 41
0.7812500021875
  7
dcStyle0
 72
     5
 11
134.1000047
 21
-106.24999967
 31
0.0
100
AcDbText
  0
TEXT
  5
BB
330
1F
100
AcDbEntity
  8
Layer0022
 62
     2
100
AcDbText
 10
131.60000469
 20
-106.24999967
 30
0.0
 40
3.0
  1
×
 41
0.6944444444444445
  7
dcStyle0
 72
     5
 11
134.10000469
 21
-106.24999967
 31
0.0
100
AcDbText
  0
TEXT
  5
BC
330
1F
100
AcDbEntity
  8
Layer0022
 62
     2
100
AcDbText
 10
133.10000471
 20
-106.24999967
 30
0.0
 40
3.0
  1
 494 
 41
0.833333335111112
  7
dcStyle0
 72
     5
 11
145.60000487
 21
-106.24999967
 31
0.0
100
AcDbText
  0
TEXT
  5
BD
330
1F
100
AcDbEntity
  8
Layer0022
 62
     2
100
AcDbText
 10
143.10000486
 20
-106.24999967
 30
0.0
 40
3.0
  1
×
 41
0.6944444444444445
  7
dcStyle0
 72
     5
 11
145.60000486
 21
-106.24999967
 31
0.0
100
AcDbText
  0
TEXT
  5
BE
330
1F
100
AcDbEntity
  8
Layer0022
 62
     2
100
AcDbText
 10
144.60000489
 20
-106.24999967
 30
0.0
 40
3.0
  1
 44 
 41
0.8333333350000008
  7
dcStyle0
 72
     5
 11
154.60000501
 21
-106.24999967
 31
0.0
100
AcDbText
  0
TEXT
  5
BF
330
1F
100
AcDbEntity
  8
Layer0022
 62
     2
100
AcDbText
 10
152.100005
 20
-106.24999967
 30
0.0
 40
3.0
  1
/
 41
0.8333333333333334
  7
dcStyle0
 72
     5
 11
154.600005
 21
-106.24999967
 31
0.0
100
AcDbText
  0
TEXT
  5
C0
330
1F
100
AcDbEntity
  8
Layer0022
 62
     2
100
AcDbText
 10
152.100005
 20
-106.24999967
 30
0.0
 40
3.0
  1
 125 
 41
0.833333335111112
  7
dcStyle0
 72
     5
 11
164.60000516
 21
-106.24999967
 31
0.0
100
AcDbText
  0
TEXT
  5
C1
330
1F
100
AcDbEntity
  8
Layer0022
 62
     2
100
AcDbText
 10
130.60000467
 20
-109.74999972
 30
0.0
 40
2.5
  1
４面テーパ
 41
0.666666669333334
  7
dcStyle0
 72
     5
 11
140.60000479
 21
-109.74999972
 31
0.0
100
AcDbText
  0
TEXT
  5
C2
330
1F
100
AcDbEntity
  8
Layer0022
 62
     2
100
AcDbText
 10
57.9000036
 20
-95.14999951
 30
0.0
 40
3.0
  1
1/
 41
0.9999999999999994
  7
dcStyle0
 72
     5
 11
63.90000363999999
 21
-95.14999951
 31
0.0
100
AcDbText
  0
TEXT
  5
C3
330
1F
100
AcDbEntity
  8
Layer0022
 62
     2
100
AcDbText
 10
60.90000364
 20
-95.14999951
 30
0.0
 40
3.0
  1
 8 
  7
dcStyle0
 72
     5
 11
69.90000372
 21
-95.14999951
 31
0.0
100
AcDbText
  0
TEXT
  5
C4
330
1F
100
AcDbEntity
  8
Layer0022
 62
     2
100
AcDbText
 10
112.2000044
 20
-100.64999959
 30
0.0
 40
3.0
  1
TYVKHC44-500A T-6
 41
0.8333333354248367
  7
dcStyle0
 72
     5
 11
154.70000504
 21
-100.64999959
 31
0.0
100
AcDbText
  0
TEXT
  5
C5
330
1F
100
AcDbEntity
  8
Layer0022
 62
     2
100
AcDbText
 10
75.40000386
 20
-73.14999917999998
 30
0.0
 40
3.5
  1
＜表面処理＞
 41
0.7400722045119837
  7
dcStyle0
 72
     5
 11
95.90000411
 21
-73.14999917999998
 31
0.0
100
AcDbText
  0
TEXT
  5
C6
330
1F
100
AcDbEntity
  8
Layer0022
 62
     2
100
AcDbText
 10
80.40000393
 20
-78.14999924999998
 30
0.0
 40
3.5
  1
本体：溶融亜鉛メッキ
 41
0.7419354863683663
  7
dcStyle0
 72
     5
 11
114.90000438
 21
-78.14999924999998
 31
0.0
100
AcDbText
  0
TEXT
  5
C7
330
1F
100
AcDbEntity
  8
Layer0022
 62
     2
100
AcDbText
 10
119.3166713766667
 20
-78.14999924999998
 30
0.0
 40
3.5
  1
（セラミック充填）
 41
0.7416267967308439
  7
dcStyle0
 72
     5
 11
150.3166717766667
 21
-78.14999924999998
 31
0.0
100
AcDbText
  0
TEXT
  5
C8
330
1F
100
AcDbEntity
  8
Layer0022
 62
     2
100
AcDbText
 10
94.40000415
 20
92.85000328999999
 30
0.0
 40
4.0
  1
◇　荷　重　計　算　◇
 41
0.8333333352272726
  7
dcStyle0
 72
     5
 11
138.40000475
 21
92.85000328999999
 31
0.0
100
AcDbText
  0
TEXT
  5
C9
330
1F
100
AcDbEntity
  8
Layer0022
 62
     2
100
AcDbText
 10
65.40000371
 20
82.85000314999999
 30
0.0
 40
3.299999999999999
  1
設計条件
 41
0.852842810841042
  7
dcStyle0
 72
     5
 11
80.70000388999999
 21
82.85000314999999
 31
0.0
100
AcDbText
  0
TEXT
  5
CA
330
1F
100
AcDbEntity
  8
Layer0022
 62
     2
100
AcDbText
 10
70.40000379
 20
76.85000305999999
 30
0.0
 40
3.299999999999999
  1
荷　　重：　
 41
0.8400646219702684
  7
dcStyle0
 72
     5
 11
91.20000404
 21
76.85000305999999
 31
0.0
100
AcDbText
  0
TEXT
  5
CB
330
1F
100
AcDbEntity
  8
Layer0022
 62
     2
100
AcDbText
 10
91.30000408999999
 20
76.85000306
 30
0.0
 40
3.0
  1
T-
 41
1.000000000000001
  7
dcStyle0
 72
     5
 11
97.30000412999999
 21
76.85000306
 31
0.0
100
AcDbText
  0
TEXT
  5
CC
330
1F
100
AcDbEntity
  8
Layer0022
 62
     2
100
AcDbText
 10
95.30000415
 20
76.85000306
 30
0.0
 40
3.0
  1
 6 
 41
0.8333333348148155
  7
dcStyle0
 72
     5
 11
102.80000423
 21
76.85000306
 31
0.0
100
AcDbText
  0
TEXT
  5
CD
330
1F
100
AcDbEntity
  8
Layer0022
 62
     2
100
AcDbText
 10
102.80000427
 20
76.85000305999999
 30
0.0
 40
3.299999999999999
  1
（後輪一輪荷重：
 41
0.8403869424384695
  7
dcStyle0
 72
     5
 11
130.60000462
 21
76.85000305999999
 31
0.0
100
AcDbText
  0
TEXT
  5
CE
330
1F
100
AcDbEntity
  8
Layer0022
 62
     2
100
AcDbText
 10
130.70000468
 20
76.85000306
 30
0.0
 40
3.0
  1
2400
 41
0.8333333350000008
  7
dcStyle0
 72
     5
 11
140.7000048
 21
76.85000306
 31
0.0
100
AcDbText
  0
TEXT
  5
CF
330
1F
100
AcDbEntity
  8
Layer0022
 62
     2
100
AcDbText
 10
140.70000482
 20
76.85000306
 30
0.0
 40
3.0
  1
Kg
 41
0.5000000016666646
  7
dcStyle0
 72
     5
 11
143.70000484
 21
76.85000306
 31
0.0
100
AcDbText
  0
TEXT
  5
D0
330
1F
100
AcDbEntity
  8
Layer0022
 62
     2
100
AcDbText
 10
143.70000488
 20
76.85000305999999
 30
0.0
 40
3.299999999999999
  1
）
 41
0.8333333333333364
  7
dcStyle0
 72
     5
 11
147.00000488
 21
76.85000305999999
 31
0.0
100
AcDbText
  0
TEXT
  5
D1
330
1F
100
AcDbEntity
  8
Layer0022
 62
     2
100
AcDbText
 10
70.40000379
 20
71.85000298
 30
0.0
 40
3.299999999999999
  1
載荷寸法：　
 41
0.8400646219702684
  7
dcStyle0
 72
     5
 11
91.20000404
 21
71.85000298
 31
0.0
100
AcDbText
  0
TEXT
  5
D2
330
1F
100
AcDbEntity
  8
Layer0022
 62
     2
100
AcDbText
 10
91.30000408999999
 20
71.85000298
 30
0.0
 40
3.0
  1
200
 41
0.8333333348148155
  7
dcStyle0
 72
     5
 11
98.80000417
 21
71.85000298
 31
0.0
100
AcDbText
  0
TEXT
  5
D3
330
1F
100
AcDbEntity
  8
Layer0022
 62
     2
100
AcDbText
 10
98.8000042
 20
71.85000298
 30
0.0
 40
3.0
  1
mm
 41
0.6666666683333325
  7
dcStyle0
 72
     5
 11
102.80000423
 21
71.85000298
 31
0.0
100
AcDbText
  0
TEXT
  5
D4
330
1F
100
AcDbEntity
  8
Layer0022
 62
     2
100
AcDbText
 10
102.80000427
 20
71.85000298
 30
0.0
 40
3.299999999999999
  1
×
 41
0.8333333333333328
  7
dcStyle0
 72
     5
 11
106.10000427
 21
71.85000298
 31
0.0
100
AcDbText
  0
TEXT
  5
D5
330
1F
100
AcDbEntity
  8
Layer0022
 62
     2
100
AcDbText
 10
106.20000431
 20
71.85000298
 30
0.0
 40
3.0
  1
240
 41
0.8333333348148155
  7
dcStyle0
 72
     5
 11
113.70000439
 21
71.85000298
 31
0.0
100
AcDbText
  0
TEXT
  5
D6
330
1F
100
AcDbEntity
  8
Layer0022
 62
     2
100
AcDbText
 10
113.70000442
 20
71.85000298
 30
0.0
 40
3.0
  1
mm
 41
0.6666666683333325
  7
dcStyle0
 72
     5
 11
117.70000445
 21
71.85000298
 31
0.0
100
AcDbText
  0
TEXT
  5
D7
330
1F
100
AcDbEntity
  8
Layer0022
 62
     2
100
AcDbText
 10
117.70000449
 20
71.85000298
 30
0.0
 40
3.299999999999999
  1
　（等分布負載）
 41
0.8403869424384698
  7
dcStyle0
 72
     5
 11
145.50000484
 21
71.85000298
 31
0.0
100
AcDbText
  0
TEXT
  5
D8
330
1F
100
AcDbEntity
  8
Layer0022
 62
     2
100
AcDbText
 10
70.40000379
 20
66.85000291
 30
0.0
 40
3.299999999999999
  1
許容応力：　
 41
0.8400646219702684
  7
dcStyle0
 72
     5
 11
91.20000404
 21
66.85000291
 31
0.0
100
AcDbText
  0
TEXT
  5
D9
330
1F
100
AcDbEntity
  8
Layer0022
 62
     2
100
AcDbText
 10
91.30000408999999
 20
66.85000291
 30
0.0
 40
3.299999999999999
  1
σｂ＝
 41
0.6313131337958707
  7
dcStyle0
 72
     5
 11
98.80000416999998
 21
66.85000291
 31
0.0
100
AcDbText
  0
TEXT
  5
DA
330
1F
100
AcDbEntity
  8
Layer0022
 62
     2
100
AcDbText
 10
98.8000042
 20
66.85000291
 30
0.0
 40
3.0
  1
 
 41
0.8333333333333334
  7
dcStyle0
 72
     5
 11
101.3000042
 21
66.85000291
 31
0.0
100
AcDbText
  0
TEXT
  5
DB
330
1F
100
AcDbEntity
  8
Layer0022
 62
     2
100
AcDbText
 10
99.30000421
 20
66.85000291
 30
0.0
 40
3.0
  1
 18.0
 41
0.833333335111111
  7
dcStyle0
 72
     5
 11
111.80000437
 21
66.85000291
 31
0.0
100
AcDbText
  0
TEXT
  5
DC
330
1F
100
AcDbEntity
  8
Layer0022
 62
     2
100
AcDbText
 10
111.90000439
 20
66.85000291
 30
0.0
 40
3.0
  1
Kg
 41
0.6666666683333325
  7
dcStyle0
 72
     5
 11
115.90000442
 21
66.85000291
 31
0.0
100
AcDbText
  0
TEXT
  5
DD
330
1F
100
AcDbEntity
  8
Layer0022
 62
     2
100
AcDbText
 10
115.90000446
 20
66.85000291
 30
0.0
 40
3.0
  1
／
 41
0.8333333333333334
  7
dcStyle0
 72
     5
 11
118.90000446
 21
66.85000291
 31
0.0
100
AcDbText
  0
TEXT
  5
DE
330
1F
100
AcDbEntity
  8
Layer0022
 62
     2
100
AcDbText
 10
119.1500045
 20
66.85000291
 30
0.0
 40
3.0
  1
mm
 41
0.6666666683333325
  7
dcStyle0
 72
     5
 11
123.15000453
 21
66.85000291
 31
0.0
100
AcDbText
  0
TEXT
  5
DF
330
1F
100
AcDbEntity
  8
Layer0022
 62
     2
100
AcDbText
 10
123.15000456
 20
68.85000294
 30
0.0
 40
1.8
  1
2
 41
0.8333333333333333
  7
dcStyle0
 72
     5
 11
124.65000456
 21
68.85000294
 31
0.0
100
AcDbText
  0
TEXT
  5
E0
330
1F
100
AcDbEntity
  8
Layer0022
 62
     2
100
AcDbText
 10
125.65000461
 20
66.85000291
 30
0.0
 40
3.299999999999999
  1
（ＳＳ４００使用）
 41
0.7575757597524063
  7
dcStyle0
 72
     5
 11
152.65000493
 21
66.85000291
 31
0.0
100
AcDbText
  0
TEXT
  5
E1
330
1F
100
AcDbEntity
  8
Layer0022
 62
     2
100
AcDbText
 10
70.40000379
 20
56.85000276
 30
0.0
 40
3.299999999999999
  1
スパン　：　
 41
0.8400646219702684
  7
dcStyle0
 72
     5
 11
91.20000404
 21
56.85000276
 31
0.0
100
AcDbText
  0
TEXT
  5
E2
330
1F
100
AcDbEntity
  8
Layer0022
 62
     2
100
AcDbText
 10
91.30000408999999
 20
56.85000276
 30
0.0
 40
3.0
  1
L = 
 41
0.8333333349999997
  7
dcStyle0
 72
     5
 11
101.30000421
 21
56.85000276
 31
0.0
100
AcDbText
  0
TEXT
  5
E3
330
1F
100
AcDbEntity
  8
Layer0022
 62
     2
100
AcDbText
 10
99.30000421
 20
56.85000276
 30
0.0
 40
3.0
  1
 510 
 41
0.833333335111111
  7
dcStyle0
 72
     5
 11
111.80000437
 21
56.85000276
 31
0.0
100
AcDbText
  0
TEXT
  5
E4
330
1F
100
AcDbEntity
  8
Layer0022
 62
     2
100
AcDbText
 10
111.80000439
 20
56.85000276
 30
0.0
 40
3.0
  1
mm
 41
0.6666666683333325
  7
dcStyle0
 72
     5
 11
115.80000442
 21
56.85000276
 31
0.0
100
AcDbText
  0
TEXT
  5
E5
330
1F
100
AcDbEntity
  8
Layer0022
 62
     2
100
AcDbText
 10
80.40000393
 20
48.85000264
 30
0.0
 40
3.299999999999999
  1
　Ｗ　：主部材が支える最大後輪一輪荷重
 41
0.8409436852251483
  7
dcStyle0
 72
     5
 11
146.70000483
 21
48.85000264
 31
0.0
100
AcDbText
  0
TEXT
  5
E6
330
1F
100
AcDbEntity
  8
Layer0022
 62
     2
100
AcDbText
 10
146.80000491
 20
48.85000263999999
 30
0.0
 40
3.0
  1
(Kg)
 41
0.6666666691666655
  7
dcStyle0
 72
     5
 11
154.800005
 21
48.85000263999999
 31
0.0
100
AcDbText
  0
TEXT
  5
E7
330
1F
100
AcDbEntity
  8
Layer0022
 62
     2
100
AcDbText
 10
80.40000393
 20
44.85000258
 30
0.0
 40
3.299999999999999
  1
　Ｎ　：荷重を受ける主部材本数
 41
0.840836014652971
  7
dcStyle0
 72
     5
 11
132.70000463
 21
44.85000258
 31
0.0
100
AcDbText
  0
TEXT
  5
E8
330
1F
100
AcDbEntity
  8
Layer0022
 62
     2
100
AcDbText
 10
80.40000393
 20
40.85000252
 30
0.0
 40
3.299999999999999
  1
〔Ｚ〕：主部材断面係数
 41
0.840649694461702
  7
dcStyle0
 72
     5
 11
118.70000443
 21
40.85000252
 31
0.0
100
AcDbText
  0
TEXT
  5
E9
330
1F
100
AcDbEntity
  8
Layer0022
 62
     2
100
AcDbText
 10
80.40000393
 20
36.85000246
 30
0.0
 40
3.299999999999999
  1
　Ｓ　：溝幅方向載荷寸法
 41
0.84070796636385
  7
dcStyle0
 72
     5
 11
122.20000448
 21
36.85000246
 31
0.0
100
AcDbText
  0
TEXT
  5
EA
330
1F
100
AcDbEntity
  8
Layer0022
 62
     2
100
AcDbText
 10
65.40000371
 20
31.85000239
 30
0.0
 40
3.299999999999999
  1
荷重計算
 41
0.852842810841042
  7
dcStyle0
 72
     5
 11
80.70000388999999
 21
31.85000239
 31
0.0
100
AcDbText
  0
TEXT
  5
EB
330
1F
100
AcDbEntity
  8
Layer0022
 62
     2
100
AcDbText
 10
70.40000379
 20
24.85000228
 30
0.0
 40
3.299999999999999
  1
側　溝
 41
0.8387622162967253
  7
dcStyle0
 72
     5
 11
80.70000389
 21
24.85000228
 31
0.0
100
AcDbText
  0
TEXT
  5
EC
330
1F
100
AcDbEntity
  8
Layer0022
 62
     2
100
AcDbText
 10
80.80000394
 20
24.85000228
 30
0.0
 40
3.299999999999999
  1
　（溝幅＞載荷寸法Ｓの場合）
 41
0.840799450439014
  7
dcStyle0
 72
     5
 11
129.60000459
 21
24.85000228
 31
0.0
100
AcDbText
  0
TEXT
  5
ED
330
1F
100
AcDbEntity
  8
Layer0022
 62
     2
100
AcDbText
 10
70.40000377999999
 20
14.85000213
 30
0.0
 40
3.299999999999999
  1
Ｗ　＝
 41
0.6313131337958707
  7
dcStyle0
 72
     5
 11
77.90000385999998
 21
14.85000213
 31
0.0
100
AcDbText
  0
TEXT
  5
EE
330
1F
100
AcDbEntity
  8
Layer0022
 62
     2
100
AcDbText
 10
81.40000395
 20
17.35000217
 30
0.0
 40
3.0
  1
8
  7
dcStyle0
 72
     5
 11
84.40000395
 21
17.35000217
 31
0.0
100
AcDbText
  0
TEXT
  5
EF
330
1F
100
AcDbEntity
  8
Layer0022
 62
     2
100
AcDbText
 10
84.40000398
 20
17.35000217
 30
0.0
 40
0.8
  1
 
 41
0.9999999999999964
  7
dcStyle0
 72
     5
 11
85.20000397999999
 21
17.35000217
 31
0.0
100
AcDbText
  0
TEXT
  5
F0
330
1F
100
AcDbEntity
  8
Layer0022
 62
     2
100
AcDbText
 10
85.20000399999999
 20
17.35000217
 30
0.0
 40
3.299999999999999
  1
σｂ
 41
0.6313131331751868
  7
dcStyle0
 72
     5
 11
90.20000404
 21
17.35000217
 31
0.0
100
AcDbText
  0
TEXT
  5
F1
330
1F
100
AcDbEntity
  8
Layer0022
 62
     2
100
AcDbText
 10
90.20000406
 20
17.35000217
 30
0.0
 40
0.8
  1
 
 41
0.9999999999999964
  7
dcStyle0
 72
     5
 11
91.00000406
 21
17.35000217
 31
0.0
100
AcDbText
  0
TEXT
  5
F2
330
1F
100
AcDbEntity
  8
Layer0022
 62
     2
100
AcDbText
 10
91.00000409
 20
17.35000217
 30
0.0
 40
3.299999999999999
  1
Ｚ
 41
0.7575757575757578
  7
dcStyle0
 72
     5
 11
94.00000409
 21
17.35000217
 31
0.0
100
AcDbText
  0
TEXT
  5
F3
330
1F
100
AcDbEntity
  8
Layer0022
 62
     2
100
AcDbText
 10
81.40000394
 20
12.3500021
 30
0.0
 40
3.0
  1
2
 41
0.8333333333333334
  7
dcStyle0
 72
     5
 11
83.90000394
 21
12.3500021
 31
0.0
100
AcDbText
  0
TEXT
  5
F4
330
1F
100
AcDbEntity
  8
Layer0022
 62
     2
100
AcDbText
 10
83.90000398999999
 20
12.3500021
 30
0.0
 40
3.299999999999999
  1
Ｌ－Ｓ
 41
0.8333333347362516
  7
dcStyle0
 72
     5
 11
93.80000408999999
 21
12.3500021
 31
0.0
100
AcDbText
  0
TEXT
  5
F5
330
1F
100
AcDbEntity
  8
Layer0022
 62
     2
100
AcDbText
 10
95.40000416
 20
14.85000213
 30
0.0
 40
3.299999999999999
  1
＝
 41
0.7575757575757578
  7
dcStyle0
 72
     5
 11
98.40000416
 21
14.85000213
 31
0.0
100
AcDbText
  0
TEXT
  5
F6
330
1F
100
AcDbEntity
  8
Layer0022
 62
     2
100
AcDbText
 10
100.90000423
 20
17.35000217
 30
0.0
 40
3.0
  1
8
 41
0.8333333333333334
  7
dcStyle0
 72
     5
 11
103.40000423
 21
17.35000217
 31
0.0
100
AcDbText
  0
TEXT
  5
F7
330
1F
100
AcDbEntity
  8
Layer0022
 62
     2
100
AcDbText
 10
103.40000428
 20
17.35000217
 30
0.0
 40
3.299999999999999
  1
×
 41
0.8333333333333328
  7
dcStyle0
 72
     5
 11
106.70000428
 21
17.35000217
 31
0.0
100
AcDbText
  0
TEXT
  5
F8
330
1F
100
AcDbEntity
  8
Layer0022
 62
     2
100
AcDbText
 10
106.80000432
 20
17.35000217
 30
0.0
 40
3.0
  1
 18 
 41
0.8333333349999997
  7
dcStyle0
 72
     5
 11
116.80000444
 21
17.35000217
 31
0.0
100
AcDbText
  0
TEXT
  5
F9
330
1F
100
AcDbEntity
  8
Layer0022
 62
     2
100
AcDbText
 10
115.80000446
 20
17.35000217
 30
0.0
 40
3.299999999999999
  1
×Ｚ
 41
0.8468677504858397
  7
dcStyle0
 72
     5
 11
123.10000452
 21
17.35000217
 31
0.0
100
AcDbText
  0
TEXT
  5
FA
330
1F
100
AcDbEntity
  8
Layer0022
 62
     2
100
AcDbText
 10
100.90000423
 20
12.3500021
 30
0.0
 40
3.0
  1
2
 41
0.8333333333333334
  7
dcStyle0
 72
     5
 11
103.40000423
 21
12.3500021
 31
0.0
100
AcDbText
  0
TEXT
  5
FB
330
1F
100
AcDbEntity
  8
Layer0022
 62
     2
100
AcDbText
 10
103.40000428
 20
12.3500021
 30
0.0
 40
3.299999999999999
  1
×
 41
0.8333333333333328
  7
dcStyle0
 72
     5
 11
106.70000428
 21
12.3500021
 31
0.0
100
AcDbText
  0
TEXT
  5
FC
330
1F
100
AcDbEntity
  8
Layer0022
 62
     2
100
AcDbText
 10
104.80000429
 20
12.3500021
 30
0.0
 40
3.0
  1
 510 
 41
0.833333335111111
  7
dcStyle0
 72
     5
 11
117.30000445
 21
12.3500021
 31
0.0
100
AcDbText
  0
TEXT
  5
FD
330
1F
100
AcDbEntity
  8
Layer0022
 62
     2
100
AcDbText
 10
115.30000445
 20
12.3500021
 30
0.0
 40
3.299999999999999
  1
－
 41
0.6313131313131315
  7
dcStyle0
 72
     5
 11
117.80000445
 21
12.3500021
 31
0.0
100
AcDbText
  0
TEXT
  5
FE
330
1F
100
AcDbEntity
  8
Layer0022
 62
     2
100
AcDbText
 10
116.80000447
 20
12.3500021
 30
0.0
 40
3.0
  1
 240 
 41
0.833333335111112
  7
dcStyle0
 72
     5
 11
129.30000463
 21
12.3500021
 31
0.0
100
AcDbText
  0
TEXT
  5
FF
330
1F
100
AcDbEntity
  8
Layer0022
 62
     2
100
AcDbText
 10
129.90000467
 20
14.85000213
 30
0.0
 40
3.299999999999999
  1
＝
 41
0.7575757575757578
  7
dcStyle0
 72
     5
 11
132.90000467
 21
14.85000213
 31
0.0
100
AcDbText
  0
TEXT
  5
100
330
1F
100
AcDbEntity
  8
Layer0022
 62
     2
100
AcDbText
 10
134.90000474
 20
14.85000213
 30
0.0
 40
3.0
  1
0.185
 41
0.833333335111112
  7
dcStyle0
 72
     5
 11
147.4000049
 21
14.85000213
 31
0.0
100
AcDbText
  0
TEXT
  5
101
330
1F
100
AcDbEntity
  8
Layer0022
 62
     2
100
AcDbText
 10
147.40000493
 20
14.85000213
 30
0.0
 40
3.299999999999999
  1
×Ｚ
 41
0.8468677504858397
  7
dcStyle0
 72
     5
 11
154.70000499
 21
14.85000213
 31
0.0
100
AcDbText
  0
TEXT
  5
102
330
1F
100
AcDbEntity
  8
Layer0022
 62
     2
100
AcDbText
 10
70.40000377999999
 20
4.850001980000001
 30
0.0
 40
3.299999999999999
  1
Ｚ　＝　Ｎ　〔Ｚ〕　＝
 41
0.631313134698686
  7
dcStyle0
 72
     5
 11
97.90000418
 21
4.850001980000001
 31
0.0
100
AcDbText
  0
TEXT
  5
103
330
1F
100
AcDbEntity
  8
Layer0022
 62
     2
100
AcDbText
 10
97.90000419
 20
4.850001979999999
 30
0.0
 40
3.0
  1
 8 
 41
0.8333333348148155
  7
dcStyle0
 72
     5
 11
105.40000427
 21
4.850001979999999
 31
0.0
100
AcDbText
  0
TEXT
  5
104
330
1F
100
AcDbEntity
  8
Layer0022
 62
     2
100
AcDbText
 10
103.40000428
 20
4.850001980000001
 30
0.0
 40
3.299999999999999
  1
×
 41
0.7575757575757578
  7
dcStyle0
 72
     5
 11
106.40000428
 21
4.850001980000001
 31
0.0
100
AcDbText
  0
TEXT
  5
105
330
1F
100
AcDbEntity
  8
Layer0022
 62
     2
100
AcDbText
 10
106.40000432
 20
4.850001979999999
 30
0.0
 40
3.0
  1
  2.163
 41
0.8333333352380948
  7
dcStyle0
 72
     5
 11
123.90000456
 21
4.850001979999999
 31
0.0
100
AcDbText
  0
TEXT
  5
106
330
1F
100
AcDbEntity
  8
Layer0022
 62
     2
100
AcDbText
 10
123.90000458
 20
4.850001980000001
 30
0.0
 40
3.299999999999999
  1
×
 41
0.8333333333333364
  7
dcStyle0
 72
     5
 11
127.20000458
 21
4.850001980000001
 31
0.0
100
AcDbText
  0
TEXT
  5
107
330
1F
100
AcDbEntity
  8
Layer0022
 62
     2
100
AcDbText
 10
127.30000463
 20
4.850001979999999
 30
0.0
 40
3.0
  1
10
 41
0.833333334444445
  7
dcStyle0
 72
     5
 11
132.30000467
 21
4.850001979999999
 31
0.0
100
AcDbText
  0
TEXT
  5
108
330
1F
100
AcDbEntity
  8
Layer0022
 62
     2
100
AcDbText
 10
132.30000469
 20
6.85000201
 30
0.0
 40
1.8
  1
3
 41
0.8333333333333333
  7
dcStyle0
 72
     5
 11
133.80000469
 21
6.85000201
 31
0.0
100
AcDbText
  0
TEXT
  5
109
330
1F
100
AcDbEntity
  8
Layer0022
 62
     2
100
AcDbText
 10
134.80000474
 20
4.850001979999999
 30
0.0
 40
3.0
  1
=
  7
dcStyle0
 72
     5
 11
137.80000474
 21
4.850001979999999
 31
0.0
100
AcDbText
  0
TEXT
  5
10A
330
1F
100
AcDbEntity
  8
Layer0022
 62
     2
100
AcDbText
 10
137.80000478
 20
4.850001979999999
 30
0.0
 40
3.0
  1
 17.30
 41
0.8333333351851846
  7
dcStyle0
 72
     5
 11
152.80000498
 21
4.850001979999999
 31
0.0
100
AcDbText
  0
TEXT
  5
10B
330
1F
100
AcDbEntity
  8
Layer0022
 62
     2
100
AcDbText
 10
152.80000501
 20
4.850001980000001
 30
0.0
 40
3.299999999999999
  1
×
 41
0.8333333333333364
  7
dcStyle0
 72
     5
 11
156.10000501
 21
4.850001980000001
 31
0.0
100
AcDbText
  0
TEXT
  5
10C
330
1F
100
AcDbEntity
  8
Layer0022
 62
     2
100
AcDbText
 10
156.20000506
 20
4.850001979999999
 30
0.0
 40
3.0
  1
10
 41
0.833333334444445
  7
dcStyle0
 72
     5
 11
161.2000051
 21
4.850001979999999
 31
0.0
100
AcDbText
  0
TEXT
  5
10D
330
1F
100
AcDbEntity
  8
Layer0022
 62
     2
100
AcDbText
 10
161.20000513
 20
6.85000201
 30
0.0
 40
1.8
  1
3
 41
0.8333333333333333
  7
dcStyle0
 72
     5
 11
162.70000513
 21
6.85000201
 31
0.0
100
AcDbText
  0
TEXT
  5
10E
330
1F
100
AcDbEntity
  8
Layer0022
 62
     2
100
AcDbText
 10
65.40000371
 20
-3.14999814
 30
0.0
 40
3.299999999999999
  1
∴　Ｗ　＝
 41
0.6313131342924193
  7
dcStyle0
 72
     5
 11
77.90000386999999
 21
-3.14999814
 31
0.0
100
AcDbText
  0
TEXT
  5
10F
330
1F
100
AcDbEntity
  8
Layer0022
 62
     2
100
AcDbText
 10
77.90000389
 20
-3.14999814
 30
0.0
 40
3.0
  1
 0.185
 41
0.8333333351851854
  7
dcStyle0
 72
     5
 11
92.90000409
 21
-3.14999814
 31
0.0
100
AcDbText
  0
TEXT
  5
110
330
1F
100
AcDbEntity
  8
Layer0022
 62
     2
100
AcDbText
 10
92.90000411999999
 20
-3.14999814
 30
0.0
 40
3.299999999999999
  1
×
 41
0.8333333333333328
  7
dcStyle0
 72
     5
 11
96.20000411999999
 21
-3.14999814
 31
0.0
100
AcDbText
  0
TEXT
  5
111
330
1F
100
AcDbEntity
  8
Layer0022
 62
     2
100
AcDbText
 10
96.30000417
 20
-3.14999814
 30
0.0
 40
3.0
  1
 17.30
 41
0.8333333351851854
  7
dcStyle0
 72
     5
 11
111.30000437
 21
-3.14999814
 31
0.0
100
AcDbText
  0
TEXT
  5
112
330
1F
100
AcDbEntity
  8
Layer0022
 62
     2
100
AcDbText
 10
111.3000044
 20
-3.14999814
 30
0.0
 40
3.299999999999999
  1
×
 41
0.8333333333333328
  7
dcStyle0
 72
     5
 11
114.6000044
 21
-3.14999814
 31
0.0
100
AcDbText
  0
TEXT
  5
113
330
1F
100
AcDbEntity
  8
Layer0022
 62
     2
100
AcDbText
 10
114.70000444
 20
-3.14999814
 30
0.0
 40
3.0
  1
10
 41
0.833333334444445
  7
dcStyle0
 72
     5
 11
119.70000448
 21
-3.14999814
 31
0.0
100
AcDbText
  0
TEXT
  5
114
330
1F
100
AcDbEntity
  8
Layer0022
 62
     2
100
AcDbText
 10
119.70000451
 20
-1.14999811
 30
0.0
 40
1.8
  1
3
 41
0.8333333333333333
  7
dcStyle0
 72
     5
 11
121.20000451
 21
-1.14999811
 31
0.0
100
AcDbText
  0
TEXT
  5
115
330
1F
100
AcDbEntity
  8
Layer0022
 62
     2
100
AcDbText
 10
122.20000456
 20
-3.14999814
 30
0.0
 40
3.0
  1
=
  7
dcStyle0
 72
     5
 11
125.20000456
 21
-3.14999814
 31
0.0
100
AcDbText
  0
TEXT
  5
116
330
1F
100
AcDbEntity
  8
Layer0022
 62
     2
100
AcDbText
 10
125.2000046
 20
-3.14999814
 30
0.0
 40
3.0
  1
  3.20
 41
0.8333333351851846
  7
dcStyle0
 72
     5
 11
140.2000048
 21
-3.14999814
 31
0.0
100
AcDbText
  0
TEXT
  5
117
330
1F
100
AcDbEntity
  8
Layer0022
 62
     2
100
AcDbText
 10
140.20000483
 20
-3.14999814
 30
0.0
 40
3.299999999999999
  1
×
 41
0.8333333333333364
  7
dcStyle0
 72
     5
 11
143.50000483
 21
-3.14999814
 31
0.0
100
AcDbText
  0
TEXT
  5
118
330
1F
100
AcDbEntity
  8
Layer0022
 62
     2
100
AcDbText
 10
143.60000487
 20
-3.14999814
 30
0.0
 40
3.0
  1
10
 41
0.833333334444445
  7
dcStyle0
 72
     5
 11
148.60000491
 21
-3.14999814
 31
0.0
100
AcDbText
  0
TEXT
  5
119
330
1F
100
AcDbEntity
  8
Layer0022
 62
     2
100
AcDbText
 10
148.60000494
 20
-1.14999811
 30
0.0
 40
1.8
  1
3
 41
0.8333333333333333
  7
dcStyle0
 72
     5
 11
150.10000494
 21
-1.14999811
 31
0.0
100
AcDbText
  0
TEXT
  5
11A
330
1F
100
AcDbEntity
  8
Layer0022
 62
     2
100
AcDbText
 10
151.10000498
 20
-3.14999814
 30
0.0
 40
3.0
  1
(Kg)
 41
0.8333333350000008
  7
dcStyle0
 72
     5
 11
161.1000051
 21
-3.14999814
 31
0.0
100
AcDbText
  0
TEXT
  5
11B
330
1F
100
AcDbEntity
  8
Layer0022
 62
     2
100
AcDbText
 10
70.40000377999999
 20
-11.14999826
 30
0.0
 40
3.299999999999999
  1
Ｔ
 41
0.6313131313131315
  7
dcStyle0
 72
     5
 11
72.90000377999999
 21
-11.14999826
 31
0.0
100
AcDbText
  0
TEXT
  5
11C
330
1F
100
AcDbEntity
  8
Layer0022
 62
     2
100
AcDbText
 10
72.90000382
 20
-11.14999826
 30
0.0
 40
3.0
  1
 = 0.4
 41
0.8333333351851854
  7
dcStyle0
 72
     5
 11
87.90000402
 21
-11.14999826
 31
0.0
100
AcDbText
  0
TEXT
  5
11D
330
1F
100
AcDbEntity
  8
Layer0022
 62
     2
100
AcDbText
 10
87.90000403
 20
-9.14999823
 30
0.0
 40
1.8
  1
-1
 41
0.8333333342592597
  7
dcStyle0
 72
     5
 11
90.90000405
 21
-9.14999823
 31
0.0
100
AcDbText
  0
TEXT
  5
11E
330
1F
100
AcDbEntity
  8
Layer0022
 62
     2
100
AcDbText
 10
91.90000410999998
 20
-11.14999826
 30
0.0
 40
3.299999999999999
  1
×
 41
0.8333333333333328
  7
dcStyle0
 72
     5
 11
95.20000410999998
 21
-11.14999826
 31
0.0
100
AcDbText
  0
TEXT
  5
11F
330
1F
100
AcDbEntity
  8
Layer0022
 62
     2
100
AcDbText
 10
95.30000415
 20
-11.14999826
 30
0.0
 40
3.0
  1
10
 41
0.833333334444445
  7
dcStyle0
 72
     5
 11
100.30000419
 21
-11.14999826
 31
0.0
100
AcDbText
  0
TEXT
  5
120
330
1F
100
AcDbEntity
  8
Layer0022
 62
     2
100
AcDbText
 10
100.30000422
 20
-9.14999823
 30
0.0
 40
1.8
  1
-3
 41
0.8333333342592597
  7
dcStyle0
 72
     5
 11
103.30000424
 21
-9.14999823
 31
0.0
100
AcDbText
  0
TEXT
  5
121
330
1F
100
AcDbEntity
  8
Layer0022
 62
     2
100
AcDbText
 10
104.30000429
 20
-11.14999826
 30
0.0
 40
3.299999999999999
  1
×Ｗ
 41
0.8374384246463146
  7
dcStyle0
 72
     5
 11
111.10000434
 21
-11.14999826
 31
0.0
100
AcDbText
  0
TEXT
  5
122
330
1F
100
AcDbEntity
  8
Layer0022
 62
     2
100
AcDbText
 10
70.40000377999999
 20
-16.14999833
 30
0.0
 40
3.0
  1
  = 0.4
 41
0.8333333352380948
  7
dcStyle0
 72
     5
 11
87.90000401999998
 21
-16.14999833
 31
0.0
100
AcDbText
  0
TEXT
  5
123
330
1F
100
AcDbEntity
  8
Layer0022
 62
     2
100
AcDbText
 10
87.90000403
 20
-14.1499983
 30
0.0
 40
1.8
  1
-1
 41
0.8333333342592597
  7
dcStyle0
 72
     5
 11
90.90000405
 21
-14.1499983
 31
0.0
100
AcDbText
  0
TEXT
  5
124
330
1F
100
AcDbEntity
  8
Layer0022
 62
     2
100
AcDbText
 10
91.90000410999998
 20
-16.14999833
 30
0.0
 40
3.299999999999999
  1
×
 41
0.8333333333333328
  7
dcStyle0
 72
     5
 11
95.20000410999998
 21
-16.14999833
 31
0.0
100
AcDbText
  0
TEXT
  5
125
330
1F
100
AcDbEntity
  8
Layer0022
 62
     2
100
AcDbText
 10
95.30000415
 20
-16.14999833
 30
0.0
 40
3.0
  1
10
 41
0.833333334444445
  7
dcStyle0
 72
     5
 11
100.30000419
 21
-16.14999833
 31
0.0
100
AcDbText
  0
TEXT
  5
126
330
1F
100
AcDbEntity
  8
Layer0022
 62
     2
100
AcDbText
 10
100.30000422
 20
-14.1499983
 30
0.0
 40
1.8
  1
-3
 41
0.8333333342592597
  7
dcStyle0
 72
     5
 11
103.30000424
 21
-14.1499983
 31
0.0
100
AcDbText
  0
TEXT
  5
127
330
1F
100
AcDbEntity
  8
Layer0022
 62
     2
100
AcDbText
 10
104.30000429
 20
-16.14999833
 30
0.0
 40
3.299999999999999
  1
×
 41
0.8333333333333328
  7
dcStyle0
 72
     5
 11
107.60000429
 21
-16.14999833
 31
0.0
100
AcDbText
  0
TEXT
  5
128
330
1F
100
AcDbEntity
  8
Layer0022
 62
     2
100
AcDbText
 10
107.70000434
 20
-16.14999833
 30
0.0
 40
3.0
  1
  3.20
 41
0.8333333351851854
  7
dcStyle0
 72
     5
 11
122.70000454
 21
-16.14999833
 31
0.0
100
AcDbText
  0
TEXT
  5
129
330
1F
100
AcDbEntity
  8
Layer0022
 62
     2
100
AcDbText
 10
122.70000456
 20
-16.14999833
 30
0.0
 40
3.299999999999999
  1
×
 41
0.8333333333333328
  7
dcStyle0
 72
     5
 11
126.00000456
 21
-16.14999833
 31
0.0
100
AcDbText
  0
TEXT
  5
12A
330
1F
100
AcDbEntity
  8
Layer0022
 62
     2
100
AcDbText
 10
126.10000461
 20
-16.14999833
 30
0.0
 40
3.0
  1
10
 41
0.8333333344444427
  7
dcStyle0
 72
     5
 11
131.10000465
 21
-16.14999833
 31
0.0
100
AcDbText
  0
TEXT
  5
12B
330
1F
100
AcDbEntity
  8
Layer0022
 62
     2
100
AcDbText
 10
131.10000468
 20
-14.1499983
 30
0.0
 40
1.8
  1
3
 41
0.8333333333333333
  7
dcStyle0
 72
     5
 11
132.60000468
 21
-14.1499983
 31
0.0
100
AcDbText
  0
TEXT
  5
12C
330
1F
100
AcDbEntity
  8
Layer0022
 62
     2
100
AcDbText
 10
70.40000377999999
 20
-21.1499984
 30
0.0
 40
3.0
  1
  =
 41
0.8333333348148155
  7
dcStyle0
 72
     5
 11
77.90000386
 21
-21.1499984
 31
0.0
100
AcDbText
  0
TEXT
  5
12D
330
1F
100
AcDbEntity
  8
Layer0022
 62
     2
100
AcDbText
 10
77.90000389
 20
-21.1499984
 30
0.0
 40
3.0
  1
  8.0
 41
0.833333335111111
  7
dcStyle0
 72
     5
 11
90.40000404999999
 21
-21.1499984
 31
0.0
100
AcDbText
  0
TEXT
  5
12E
330
1F
100
AcDbEntity
  8
Layer0022
 62
     2
100
AcDbText
 10
91.4000041
 20
-21.1499984
 30
0.0
 40
3.0
  1
>
  7
dcStyle0
 72
     5
 11
94.4000041
 21
-21.1499984
 31
0.0
100
AcDbText
  0
TEXT
  5
12F
330
1F
100
AcDbEntity
  8
Layer0022
 62
     2
100
AcDbText
 10
94.65000414
 20
-21.1499984
 30
0.0
 40
3.0
  1
 6 
 41
0.8333333348148155
  7
dcStyle0
 72
     5
 11
102.15000422
 21
-21.1499984
 31
0.0
100
AcDbText
  0
TEXT
  5
130
330
1F
100
AcDbEntity
  8
Layer0022
 62
     2
100
AcDbText
 10
85.40000400999998
 20
-59.14999896999999
 30
0.0
 40
3.299999999999999
  1
以上より　
 41
0.839805826798002
  7
dcStyle0
 72
     5
 11
102.70000421
 21
-59.14999896999999
 31
0.0
100
AcDbText
  0
TEXT
  5
131
330
1F
100
AcDbEntity
  8
Layer0022
 62
     2
100
AcDbText
 10
102.80000427
 20
-59.14999896999999
 30
0.0
 40
3.5
  1
Ｔ－
 41
0.8333333343253964
  7
dcStyle0
 72
     5
 11
109.80000432
 21
-59.14999896999999
 31
0.0
100
AcDbText
  0
TEXT
  5
132
330
1F
100
AcDbEntity
  8
Layer0022
 62
     2
100
AcDbText
 10
109.80000437
 20
-59.14999896999999
 30
0.0
 40
3.0
  1
 6 
 41
0.8333333348148155
  7
dcStyle0
 72
     5
 11
117.30000445
 21
-59.14999896999999
 31
0.0
100
AcDbText
  0
TEXT
  5
133
330
1F
100
AcDbEntity
  8
Layer0022
 62
     2
100
AcDbText
 10
117.30000448
 20
-59.14999896999999
 30
0.0
 40
3.299999999999999
  1
となる
 41
0.8387622162967253
  7
dcStyle0
 72
     5
 11
127.60000458
 21
-59.14999896999999
 31
0.0
100
AcDbText
  0
LINE
  5
134
330
1F
100
AcDbEntity
  8
Layer0032
  6
Continuous
 62
     4
370
    25
100
AcDbLine
 10
-9.59999743103981
 20
-88.14999940246344
 30
0.0
 11
-9.59999743103981
 21
-88.81666608899832
 31
0.0
  0
LINE
  5
135
330
1F
100
AcDbEntity
  8
Layer0032
  6
Continuous
 62
     4
370
    25
100
AcDbLine
 10
-9.59999743103981
 20
-88.81666608899832
 30
0.0
 11
-8.599997401237488
 21
-88.81666608899832
 31
0.0
  0
LINE
  5
136
330
1F
100
AcDbEntity
  8
Layer0032
  6
Continuous
 62
     4
370
    25
100
AcDbLine
 10
-8.599997401237488
 20
-88.81666608899832
 30
0.0
 11
-7.266664028167725
 21
-91.1499994918704
 31
0.0
  0
LINE
  5
137
330
1F
100
AcDbEntity
  8
Layer0032
  6
Continuous
 62
     4
370
    25
100
AcDbLine
 10
-7.266664028167725
 20
-91.1499994918704
 30
0.0
 11
-7.266664028167725
 21
-92.14999952167273
 31
0.0
  0
LINE
  5
138
330
1F
100
AcDbEntity
  8
Layer0032
  6
Continuous
 62
     4
370
    25
100
AcDbLine
 10
-7.266664028167725
 20
-92.14999952167273
 30
0.0
 11
-6.933330684900284
 21
-92.48333286494017
 31
0.0
  0
LINE
  5
139
330
1F
100
AcDbEntity
  8
Layer0032
  6
Continuous
 62
     4
370
    25
100
AcDbLine
 10
-6.933330684900284
 20
-92.48333286494017
 30
0.0
 11
-6.933330684900284
 21
-102.8166665062308
 31
0.0
  0
LINE
  5
13A
330
1F
100
AcDbEntity
  8
Layer0032
  6
Continuous
 62
     4
370
    25
100
AcDbLine
 10
-6.933330684900284
 20
-102.8166665062308
 30
0.0
 11
-5.599997311830521
 21
-102.8166665062308
 31
0.0
  0
LINE
  5
13B
330
1F
100
AcDbEntity
  8
Layer0032
  6
Continuous
 62
     4
370
    25
100
AcDbLine
 10
-5.599997311830521
 20
-102.8166665062308
 30
0.0
 11
-5.599997311830521
 21
-92.48333286494017
 31
0.0
  0
LINE
  5
13C
330
1F
100
AcDbEntity
  8
Layer0032
  6
Continuous
 62
     4
370
    25
100
AcDbLine
 10
-5.599997311830521
 20
-92.48333286494017
 30
0.0
 11
-5.26666396856308
 21
-92.14999952167273
 31
0.0
  0
LINE
  5
13D
330
1F
100
AcDbEntity
  8
Layer0032
  6
Continuous
 62
     4
370
    25
100
AcDbLine
 10
-5.26666396856308
 20
-92.14999952167273
 30
0.0
 11
-5.26666396856308
 21
-91.1499994918704
 31
0.0
  0
LINE
  5
13E
330
1F
100
AcDbEntity
  8
Layer0032
  6
Continuous
 62
     4
370
    25
100
AcDbLine
 10
-5.26666396856308
 20
-91.1499994918704
 30
0.0
 11
-3.933330595493317
 21
-88.81666608899832
 31
0.0
  0
LINE
  5
13F
330
1F
100
AcDbEntity
  8
Layer0032
  6
Continuous
 62
     4
370
    25
100
AcDbLine
 10
-3.933330595493317
 20
-88.81666608899832
 30
0.0
 11
-2.933330565690994
 21
-88.81666608899832
 31
0.0
  0
LINE
  5
140
330
1F
100
AcDbEntity
  8
Layer0032
  6
Continuous
 62
     4
370
    25
100
AcDbLine
 10
-2.933330565690994
 20
-88.81666608899832
 30
0.0
 11
-2.933330565690994
 21
-88.14999940246344
 31
0.0
  0
LINE
  5
141
330
1F
100
AcDbEntity
  8
Layer0032
  6
Continuous
 62
     4
370
    25
100
AcDbLine
 10
-2.933330565690994
 20
-88.14999940246344
 30
0.0
 11
-4.266663938760757
 21
-88.14999940246344
 31
0.0
  0
LINE
  5
142
330
1F
100
AcDbEntity
  8
Layer0032
  6
Continuous
 62
     4
370
    25
100
AcDbLine
 10
-4.266663938760757
 20
-88.14999940246344
 30
0.0
 11
-6.266663998365402
 21
-90.14999946206808
 31
0.0
  0
LINE
  5
143
330
1F
100
AcDbEntity
  8
Layer0032
  6
Continuous
 62
     4
370
    25
100
AcDbLine
 10
-6.266663998365402
 20
-90.14999946206808
 30
0.0
 11
-8.266664057970047
 21
-88.14999940246344
 31
0.0
  0
LINE
  5
144
330
1F
100
AcDbEntity
  8
Layer0032
  6
Continuous
 62
     4
370
    25
100
AcDbLine
 10
-8.266664057970047
 20
-88.14999940246344
 30
0.0
 11
-9.59999743103981
 21
-88.14999940246344
 31
0.0
  0
CIRCLE
  5
145
330
1F
100
AcDbEntity
  8
Layer0032
  6
Continuous
 62
     4
370
    25
100
AcDbCircle
 10
-6.266663998365402
 20
-89.14999943226576
 30
0.0
 40
0.6666666865348816
  0
ARC
  5
146
330
1F
100
AcDbEntity
  8
Layer0032
  6
Continuous
 62
     4
370
    25
100
AcDbCircle
 10
-6.300348309402192
 20
-92.71772633943382
 30
0.0
 40
5.000000149011612
100
AcDbArc
 50
66.00000000000014
 51
113.0000000000003
  0
LINE
  5
147
330
1F
100
AcDbEntity
  8
Layer0032
  6
Continuous
 62
     4
370
    25
100
AcDbLine
 10
-8.266667447487563
 20
-87.64999939501286
 30
0.0
 11
-8.266667447487563
 21
-83.64999933540821
 31
0.0
  0
LINE
  5
148
330
1F
100
AcDbEntity
  8
Layer0032
  6
Continuous
 62
     4
370
    25
100
AcDbLine
 10
-8.266667447487563
 20
-84.64999935030937
 30
0.0
 11
-10.26666747728989
 21
-84.34999934583902
 31
0.0
  0
LINE
  5
149
330
1F
100
AcDbEntity
  8
Layer0032
  6
Continuous
 62
     4
370
    25
100
AcDbLine
 10
-10.26666747728989
 20
-84.34999934583902
 30
0.0
 11
-10.26666747728989
 21
-84.94999935477972
 31
0.0
  0
LINE
  5
14A
330
1F
100
AcDbEntity
  8
Layer0032
  6
Continuous
 62
     4
370
    25
100
AcDbLine
 10
-10.26666747728989
 20
-84.94999935477972
 30
0.0
 11
-8.266667447487563
 21
-84.64999935030937
 31
0.0
  0
LINE
  5
14B
330
1F
100
AcDbEntity
  8
Layer0032
  6
Continuous
 62
     4
370
    25
100
AcDbLine
 10
-8.266667447487563
 20
-84.64999935030937
 30
0.0
 11
-11.26666749219105
 21
-84.64999935030937
 31
0.0
  0
LINE
  5
14C
330
1F
100
AcDbEntity
  8
Layer0032
  6
Continuous
 62
     4
370
    25
100
AcDbLine
 10
-8.266667447487563
 20
-84.64999935030937
 30
0.0
 11
-4.266667387882919
 21
-84.64999935030937
 31
0.0
  0
LINE
  5
14D
330
1F
100
AcDbEntity
  8
Layer0032
  6
Continuous
 62
     4
370
    25
100
AcDbLine
 10
-4.266667387882919
 20
-84.64999935030937
 30
0.0
 11
-2.266667358080596
 21
-84.34999934583902
 31
0.0
  0
LINE
  5
14E
330
1F
100
AcDbEntity
  8
Layer0032
  6
Continuous
 62
     4
370
    25
100
AcDbLine
 10
-2.266667358080596
 20
-84.34999934583902
 30
0.0
 11
-2.266667358080596
 21
-84.94999935477972
 31
0.0
  0
LINE
  5
14F
330
1F
100
AcDbEntity
  8
Layer0032
  6
Continuous
 62
     4
370
    25
100
AcDbLine
 10
-2.266667358080596
 20
-84.94999935477972
 30
0.0
 11
-4.266667387882919
 21
-84.64999935030937
 31
0.0
  0
LINE
  5
150
330
1F
100
AcDbEntity
  8
Layer0032
  6
Continuous
 62
     4
370
    25
100
AcDbLine
 10
-4.266667387882919
 20
-84.64999935030937
 30
0.0
 11
-1.266667343179435
 21
-84.64999935030937
 31
0.0
  0
LINE
  5
151
330
1F
100
AcDbEntity
  8
Layer0032
  6
Continuous
 62
     4
370
    25
100
AcDbLine
 10
-4.266667387882919
 20
-83.64999933540821
 30
0.0
 11
-4.266667387882919
 21
-87.64999939501286
 31
0.0
  0
LINE
  5
152
330
1F
100
AcDbEntity
  8
Layer0032
  6
Continuous
 62
     4
370
    25
100
AcDbLine
 10
-6.599997386336323
 20
-87.64999939501286
 30
0.0
 11
-6.966664400200052
 21
-86.08332933535173
 31
0.0
  0
LINE
  5
153
330
1F
100
AcDbEntity
  8
Layer0032
  6
Continuous
 62
     4
370
    25
100
AcDbLine
 10
-6.599997386336323
 20
-87.64999939501286
 30
0.0
 11
-7.766667440036979
 21
-85.64999936521053
 31
0.0
  0
LINE
  5
154
330
1F
100
AcDbEntity
  8
Layer0032
  6
Continuous
 62
     4
370
    25
100
AcDbLine
 10
-10.53333751757949
 20
-80.94999929517508
 30
0.0
 11
-11.70000757128015
 21
-78.94999926537275
 31
0.0
  0
LINE
  5
155
330
1F
100
AcDbEntity
  8
Layer0032
  6
Continuous
 62
     4
370
    25
100
AcDbLine
 10
-20.03333746840566
 20
-78.94999926537275
 30
0.0
 11
-11.70000757128015
 21
-78.94999926537275
 31
0.0
  0
LINE
  5
156
330
1F
100
AcDbEntity
  8
Layer0032
  6
Continuous
 62
     4
370
    25
100
AcDbLine
 10
-5.932992981865933
 20
-88.48330018868
 30
0.0
 11
-5.699659986788966
 21
-86.88330016483815
 31
0.0
  0
LINE
  5
157
330
1F
100
AcDbEntity
  8
Layer0032
  6
Continuous
 62
     4
370
    25
100
AcDbLine
 10
-5.932992981865933
 20
-88.48330018868
 30
0.0
 11
-4.799663001293918
 21
-86.48330015887768
 31
0.0
  0
LINE
  5
158
330
1F
100
AcDbEntity
  8
Layer0032
  6
Continuous
 62
     4
370
    25
100
AcDbLine
 10
-2.332992928221753
 20
-82.81663025865899
 30
0.0
 11
0.1003370717217713
 21
-78.61663019607411
 31
0.0
  0
LINE
  5
159
330
1F
100
AcDbEntity
  8
Layer0032
  6
Continuous
 62
     4
370
    25
100
AcDbLine
 10
0.1003370717217713
 20
-78.61663019607411
 30
0.0
 11
7.433666953946119
 21
-78.61663019607411
 31
0.0
  0
LINE
  5
15A
330
1F
100
AcDbEntity
  8
Layer0032
  6
Continuous
 62
     4
370
    25
100
AcDbLine
 10
-9.59999743103981
 20
-87.64999939501286
 30
0.0
 11
-9.59999743103981
 21
-85.4499993622303
 31
0.0
  0
LINE
  5
15B
330
1F
100
AcDbEntity
  8
Layer0032
  6
Continuous
 62
     4
370
    25
100
AcDbLine
 10
-9.59999743103981
 20
-83.84999933838844
 30
0.0
 11
-9.59999743103981
 21
-77.64999924600124
 31
0.0
  0
LINE
  5
15C
330
1F
100
AcDbEntity
  8
Layer0032
  6
Continuous
 62
     4
370
    25
100
AcDbLine
 10
-9.59999743103981
 20
-78.6499992609024
 30
0.0
 11
-7.599997401237488
 21
-78.34999925643206
 31
0.0
  0
LINE
  5
15D
330
1F
100
AcDbEntity
  8
Layer0032
  6
Continuous
 62
     4
370
    25
100
AcDbLine
 10
-7.599997401237488
 20
-78.94999926537275
 30
0.0
 11
-7.599997401237488
 21
-78.34999925643206
 31
0.0
  0
LINE
  5
15E
330
1F
100
AcDbEntity
  8
Layer0032
  6
Continuous
 62
     4
370
    25
100
AcDbLine
 10
-7.599997401237488
 20
-78.94999926537275
 30
0.0
 11
-9.59999743103981
 21
-78.6499992609024
 31
0.0
  0
LINE
  5
15F
330
1F
100
AcDbEntity
  8
Layer0032
  6
Continuous
 62
     4
370
    25
100
AcDbLine
 10
-9.59999743103981
 20
-78.6499992609024
 30
0.0
 11
-2.933327104647901
 21
-78.6499992609024
 31
0.0
  0
LINE
  5
160
330
1F
100
AcDbEntity
  8
Layer0032
  6
Continuous
 62
     4
370
    25
100
AcDbLine
 10
-2.933327104647901
 20
-78.6499992609024
 30
0.0
 11
-4.933327134450224
 21
-78.34999925643206
 31
0.0
  0
LINE
  5
161
330
1F
100
AcDbEntity
  8
Layer0032
  6
Continuous
 62
     4
370
    25
100
AcDbLine
 10
-4.933327134450224
 20
-78.94999926537275
 30
0.0
 11
-4.933327134450224
 21
-78.34999925643206
 31
0.0
  0
LINE
  5
162
330
1F
100
AcDbEntity
  8
Layer0032
  6
Continuous
 62
     4
370
    25
100
AcDbLine
 10
-4.933327134450224
 20
-78.94999926537275
 30
0.0
 11
-2.933327104647901
 21
-78.6499992609024
 31
0.0
  0
LINE
  5
163
330
1F
100
AcDbEntity
  8
Layer0032
  6
Continuous
 62
     4
370
    25
100
AcDbLine
 10
-2.933327104647901
 20
-87.64999939501286
 30
0.0
 11
-2.933327104647901
 21
-85.4499993622303
 31
0.0
  0
LINE
  5
164
330
1F
100
AcDbEntity
  8
Layer0032
  6
Continuous
 62
     4
370
    25
100
AcDbLine
 10
-2.933327104647901
 20
-83.84999933838844
 30
0.0
 11
-2.933327104647901
 21
-77.64999924600124
 31
0.0
  0
LINE
  5
165
330
1F
100
AcDbEntity
  8
Layer0032
  6
Continuous
 62
     4
370
    25
100
AcDbLine
 10
-14.09999749809504
 20
-88.14999940246344
 30
0.0
 11
-10.09999743849039
 21
-88.14999940246344
 31
0.0
  0
LINE
  5
166
330
1F
100
AcDbEntity
  8
Layer0032
  6
Continuous
 62
     4
370
    25
100
AcDbLine
 10
-13.09999748319387
 20
-88.14999940246344
 30
0.0
 11
-13.39999748766422
 21
-86.14999937266111
 31
0.0
  0
LINE
  5
167
330
1F
100
AcDbEntity
  8
Layer0032
  6
Continuous
 62
     4
370
    25
100
AcDbLine
 10
-13.39999748766422
 20
-86.14999937266111
 30
0.0
 11
-12.79999747872353
 21
-86.14999937266111
 31
0.0
  0
LINE
  5
168
330
1F
100
AcDbEntity
  8
Layer0032
  6
Continuous
 62
     4
370
    25
100
AcDbLine
 10
-12.79999747872353
 20
-86.14999937266111
 30
0.0
 11
-13.09999748319387
 21
-88.14999940246344
 31
0.0
  0
LINE
  5
169
330
1F
100
AcDbEntity
  8
Layer0032
  6
Continuous
 62
     4
370
    25
100
AcDbLine
 10
-13.09999748319387
 20
-88.14999940246344
 30
0.0
 11
-13.09999748319387
 21
-85.14999935775995
 31
0.0
  0
LINE
  5
16A
330
1F
100
AcDbEntity
  8
Layer0032
  6
Continuous
 62
     4
370
    25
100
AcDbLine
 10
-13.09999748319387
 20
-90.14999943226576
 30
0.0
 11
-13.09999748319387
 21
-88.14999940246344
 31
0.0
  0
LINE
  5
16B
330
1F
100
AcDbEntity
  8
Layer0032
  6
Continuous
 62
     4
370
    25
100
AcDbLine
 10
-13.39999748766422
 20
-92.14999946206808
 30
0.0
 11
-13.09999748319387
 21
-90.14999943226576
 31
0.0
  0
LINE
  5
16C
330
1F
100
AcDbEntity
  8
Layer0032
  6
Continuous
 62
     4
370
    25
100
AcDbLine
 10
-13.39999748766422
 20
-92.14999946206808
 30
0.0
 11
-12.79999747872353
 21
-92.14999946206808
 31
0.0
  0
LINE
  5
16D
330
1F
100
AcDbEntity
  8
Layer0032
  6
Continuous
 62
     4
370
    25
100
AcDbLine
 10
-12.79999747872353
 20
-92.14999946206808
 30
0.0
 11
-13.09999748319387
 21
-90.14999943226576
 31
0.0
  0
LINE
  5
16E
330
1F
100
AcDbEntity
  8
Layer0032
  6
Continuous
 62
     4
370
    25
100
AcDbLine
 10
-13.09999748319387
 20
-93.14999947696924
 30
0.0
 11
-13.09999748319387
 21
-90.14999943226576
 31
0.0
  0
LINE
  5
16F
330
1F
100
AcDbEntity
  8
Layer0032
  6
Continuous
 62
     4
370
    25
100
AcDbLine
 10
-14.09999749809504
 20
-90.14999943226576
 30
0.0
 11
-8.599997416138649
 21
-90.14999943226576
 31
0.0
  0
LINE
  5
170
330
1F
100
AcDbEntity
  8
Layer0032
  6
Continuous
 62
     4
370
    25
100
AcDbLine
 10
-2.433327097197321
 20
-88.14999940246344
 30
0.0
 11
3.566672992209646
 21
-88.14999940246344
 31
0.0
  0
LINE
  5
171
330
1F
100
AcDbEntity
  8
Layer0032
  6
Continuous
 62
     4
370
    25
100
AcDbLine
 10
2.266672972838137
 20
-90.14999943226576
 30
0.0
 11
2.566672977308485
 21
-88.14999940246344
 31
0.0
  0
LINE
  5
172
330
1F
100
AcDbEntity
  8
Layer0032
  6
Continuous
 62
     4
370
    25
100
AcDbLine
 10
2.266672972838137
 20
-90.14999943226576
 30
0.0
 11
2.866672981778834
 21
-90.14999943226576
 31
0.0
  0
LINE
  5
173
330
1F
100
AcDbEntity
  8
Layer0032
  6
Continuous
 62
     4
370
    25
100
AcDbLine
 10
2.866672981778834
 20
-90.14999943226576
 30
0.0
 11
2.566672977308485
 21
-88.14999940246344
 31
0.0
  0
LINE
  5
174
330
1F
100
AcDbEntity
  8
Layer0032
  6
Continuous
 62
     4
370
    25
100
AcDbLine
 10
2.566672977308485
 20
-102.8167003656432
 30
0.0
 11
2.566672977308485
 21
-88.14999940246344
 31
0.0
  0
LINE
  5
175
330
1F
100
AcDbEntity
  8
Layer0032
  6
Continuous
 62
     4
370
    25
100
AcDbLine
 10
2.566672977308485
 20
-102.8167003656432
 30
0.0
 11
2.266672972838137
 21
-100.8167003358409
 31
0.0
  0
LINE
  5
176
330
1F
100
AcDbEntity
  8
Layer0032
  6
Continuous
 62
     4
370
    25
100
AcDbLine
 10
2.266672972838137
 20
-100.8167003358409
 30
0.0
 11
2.866672981778834
 21
-100.8167003358409
 31
0.0
  0
LINE
  5
177
330
1F
100
AcDbEntity
  8
Layer0032
  6
Continuous
 62
     4
370
    25
100
AcDbLine
 10
2.866672981778834
 20
-100.8167003358409
 30
0.0
 11
2.566672977308485
 21
-102.8167003656432
 31
0.0
  0
LINE
  5
178
330
1F
100
AcDbEntity
  8
Layer0032
  6
Continuous
 62
     4
370
    25
100
AcDbLine
 10
-4.433327126999643
 20
-102.8167003656432
 30
0.0
 11
3.566672992209646
 21
-102.8167003656432
 31
0.0
  0
LINE
  5
179
330
1F
100
AcDbEntity
  8
Layer0032
  6
Continuous
 62
     4
370
    25
100
AcDbLine
 10
-6.933327354987412
 20
-108.3167004475996
 30
0.0
 11
-6.933327354987412
 21
-103.3167003730938
 31
0.0
  0
LINE
  5
17A
330
1F
100
AcDbEntity
  8
Layer0032
  6
Continuous
 62
     4
370
    25
100
AcDbLine
 10
-6.933327354987412
 20
-107.3167004326984
 30
0.0
 11
-8.933327384789735
 21
-107.0167004282281
 31
0.0
  0
LINE
  5
17B
330
1F
100
AcDbEntity
  8
Layer0032
  6
Continuous
 62
     4
370
    25
100
AcDbLine
 10
-8.933327384789735
 20
-107.6167004371688
 30
0.0
 11
-8.933327384789735
 21
-107.0167004282281
 31
0.0
  0
LINE
  5
17C
330
1F
100
AcDbEntity
  8
Layer0032
  6
Continuous
 62
     4
370
    25
100
AcDbLine
 10
-8.933327384789735
 20
-107.6167004371688
 30
0.0
 11
-6.933327354987412
 21
-107.3167004326984
 31
0.0
  0
LINE
  5
17D
330
1F
100
AcDbEntity
  8
Layer0032
  6
Continuous
 62
     4
370
    25
100
AcDbLine
 10
-9.933327399690896
 20
-107.3167004326984
 30
0.0
 11
-6.933327354987412
 21
-107.3167004326984
 31
0.0
  0
LINE
  5
17E
330
1F
100
AcDbEntity
  8
Layer0032
  6
Continuous
 62
     4
370
    25
100
AcDbLine
 10
-6.933327354987412
 20
-107.3167004326984
 30
0.0
 11
-5.599997371435165
 21
-107.3167004326984
 31
0.0
  0
LINE
  5
17F
330
1F
100
AcDbEntity
  8
Layer0032
  6
Continuous
 62
     4
370
    25
100
AcDbLine
 10
-5.599997371435165
 20
-107.3167004326984
 30
0.0
 11
-3.599997341632843
 21
-107.0167004282281
 31
0.0
  0
LINE
  5
180
330
1F
100
AcDbEntity
  8
Layer0032
  6
Continuous
 62
     4
370
    25
100
AcDbLine
 10
-3.599997341632843
 20
-107.6167004371688
 30
0.0
 11
-3.599997341632843
 21
-107.0167004282281
 31
0.0
  0
LINE
  5
181
330
1F
100
AcDbEntity
  8
Layer0032
  6
Continuous
 62
     4
370
    25
100
AcDbLine
 10
-3.599997341632843
 20
-107.6167004371688
 30
0.0
 11
-5.599997371435165
 21
-107.3167004326984
 31
0.0
  0
LINE
  5
182
330
1F
100
AcDbEntity
  8
Layer0032
  6
Continuous
 62
     4
370
    25
100
AcDbLine
 10
-5.599997371435165
 20
-107.3167004326984
 30
0.0
 11
-2.599997326731682
 21
-107.3167004326984
 31
0.0
  0
LINE
  5
183
330
1F
100
AcDbEntity
  8
Layer0032
  6
Continuous
 62
     4
370
    25
100
AcDbLine
 10
-5.599997371435165
 20
-108.3167004475996
 30
0.0
 11
-5.599997371435165
 21
-103.3167003730938
 31
0.0
  0
TEXT
  5
184
330
1F
100
AcDbEntity
  8
Layer0032
 62
     2
100
AcDbText
 10
-9.26666745
 20
-83.34999933
 30
0.0
 40
2.0
  1
12.5
 41
0.7500000018749999
  7
dcStyle0
 72
     5
 11
-3.26666739
 21
-83.34999933
 31
0.0
100
AcDbText
  0
TEXT
  5
185
330
1F
100
AcDbEntity
  8
Layer0032
 62
     2
100
AcDbText
 10
-19.53333745
 20
-78.64999926
 30
0.0
 40
2.0
  1
ｾﾗﾐｯｸ
 41
0.7500000019999999
  7
dcStyle0
 72
     5
 11
-12.03333737
 21
-78.64999926
 31
0.0
100
AcDbText
  0
TEXT
  5
186
330
1F
100
AcDbEntity
  8
Layer0032
 62
     2
100
AcDbText
 10
0.60033709
 20
-78.31663019
 30
0.0
 40
2.0
  1
剥離防止
 41
0.62500000234375
  7
dcStyle0
 72
     5
 11
6.60033715
 21
-78.31663019
 31
0.0
100
AcDbText
  0
TEXT
  5
187
330
1F
100
AcDbEntity
  8
Layer0032
 62
     2
100
AcDbText
 10
0.4336672400000001
 20
-80.81663023
 30
0.0
 40
2.0
  1
スプリング
 41
0.5416666697222222
  7
dcStyle0
 72
     5
 11
6.93366732
 21
-80.81663023
 31
0.0
100
AcDbText
  0
TEXT
  5
188
330
1F
100
AcDbEntity
  8
Layer0032
 62
     2
100
AcDbText
 10
-7.76665732
 20
-77.64999925
 30
0.0
 40
2.0
  1
20
 41
0.75000000125
  7
dcStyle0
 72
     5
 11
-4.7666573
 21
-77.64999925
 31
0.0
100
AcDbText
  0
TEXT
  5
189
330
1F
100
AcDbEntity
  8
Layer0032
 62
     2
100
AcDbText
 10
-14.39999749759617
 20
-91.1499994367949
 30
0.0
 40
2.0
  1
6.5
 50
90.0000001836389
 41
0.7500000016666672
  7
dcStyle0
 72
     5
 11
-14.39999751201914
 21
-86.6499993967949
 31
0.0
100
AcDbText
  0
TEXT
  5
18A
330
1F
100
AcDbEntity
  8
Layer0032
 62
     2
100
AcDbText
 10
2.066672972403828
 20
-98.4833701367949
 30
0.0
 40
2.0
  1
 44 
 50
90.0000001836389
 41
0.7500000018750006
  7
dcStyle0
 72
     5
 11
2.066672953173207
 21
-92.4833700767949
 31
0.0
100
AcDbText
  0
TEXT
  5
18B
330
1F
100
AcDbEntity
  8
Layer0032
 62
     2
100
AcDbText
 10
-5.59999736
 20
-106.61670042
 30
0.0
 40
2.0
  1
 4.5 
 41
0.750000002
  7
dcStyle0
 72
     5
 11
1.900002720000001
 21
-106.61670042
 31
0.0
100
AcDbText
  0
LINE
  5
18C
330
1F
100
AcDbEntity
  8
Layer0016
  6
Continuous
 62
     3
370
    25
100
AcDbLine
 10
-182.0
 20
-128.25
 30
0.0
 11
-178.9999999552965
 21
-128.25
 31
0.0
  0
LINE
  5
18D
330
1F
100
AcDbEntity
  8
Layer0016
  6
Continuous
 62
     3
370
    25
100
AcDbLine
 10
-178.9999999552965
 20
-128.25
 30
0.0
 11
-178.9999999552965
 21
-125.2499999552965
 31
0.0
  0
LINE
  5
18E
330
1F
100
AcDbEntity
  8
Layer0016
  6
Continuous
 62
     3
370
    25
100
AcDbLine
 10
-182.0
 20
-125.2499999552965
 30
0.0
 11
-178.9999999552965
 21
-125.2499999552965
 31
0.0
  0
LINE
  5
18F
330
1F
100
AcDbEntity
  8
Layer0016
  6
Continuous
 62
     3
370
    25
100
AcDbLine
 10
-182.0
 20
-128.25
 30
0.0
 11
-182.0
 21
-125.2499999552965
 31
0.0
  0
LINE
  5
190
330
1F
100
AcDbEntity
  8
Layer0016
  6
Continuous
 62
     3
370
    25
100
AcDbLine
 10
-182.0
 20
-128.25
 30
0.0
 11
-178.9999999552965
 21
-128.25
 31
0.0
  0
LINE
  5
191
330
1F
100
AcDbEntity
  8
Layer0016
  6
Continuous
 62
     3
370
    25
100
AcDbLine
 10
-178.9999999552965
 20
-128.25
 30
0.0
 11
-178.9999999552965
 21
-125.2499999552965
 31
0.0
  0
LINE
  5
192
330
1F
100
AcDbEntity
  8
Layer0016
  6
Continuous
 62
     3
370
    25
100
AcDbLine
 10
-182.0
 20
-125.2499999552965
 30
0.0
 11
-178.9999999552965
 21
-125.2499999552965
 31
0.0
  0
LINE
  5
193
330
1F
100
AcDbEntity
  8
Layer0016
  6
Continuous
 62
     3
370
    25
100
AcDbLine
 10
-182.0
 20
-128.25
 30
0.0
 11
-182.0
 21
-125.2499999552965
 31
0.0
  0
LINE
  5
194
330
1F
100
AcDbEntity
  8
Layer0016
  6
Continuous
 62
     3
370
    25
100
AcDbLine
 10
-182.0
 20
-128.25
 30
0.0
 11
-178.9999999552965
 21
-128.25
 31
0.0
  0
LINE
  5
195
330
1F
100
AcDbEntity
  8
Layer0016
  6
Continuous
 62
     3
370
    25
100
AcDbLine
 10
-178.9999999552965
 20
-128.25
 30
0.0
 11
-178.9999999552965
 21
-125.2499999552965
 31
0.0
  0
LINE
  5
196
330
1F
100
AcDbEntity
  8
Layer0016
  6
Continuous
 62
     3
370
    25
100
AcDbLine
 10
-182.0
 20
-125.2499999552965
 30
0.0
 11
-178.9999999552965
 21
-125.2499999552965
 31
0.0
  0
LINE
  5
197
330
1F
100
AcDbEntity
  8
Layer0016
  6
Continuous
 62
     3
370
    25
100
AcDbLine
 10
-182.0
 20
-128.25
 30
0.0
 11
-182.0
 21
-125.2499999552965
 31
0.0
  0
LINE
  5
198
330
1F
100
AcDbEntity
  8
Layer0016
  6
Continuous
 62
     3
370
    25
100
AcDbLine
 10
-182.0
 20
-128.25
 30
0.0
 11
-178.9999999552965
 21
-128.25
 31
0.0
  0
LINE
  5
199
330
1F
100
AcDbEntity
  8
Layer0016
  6
Continuous
 62
     3
370
    25
100
AcDbLine
 10
-178.9999999552965
 20
-128.25
 30
0.0
 11
-178.9999999552965
 21
-125.2499999552965
 31
0.0
  0
LINE
  5
19A
330
1F
100
AcDbEntity
  8
Layer0016
  6
Continuous
 62
     3
370
    25
100
AcDbLine
 10
-182.0
 20
-125.2499999552965
 30
0.0
 11
-178.9999999552965
 21
-125.2499999552965
 31
0.0
  0
LINE
  5
19B
330
1F
100
AcDbEntity
  8
Layer0016
  6
Continuous
 62
     3
370
    25
100
AcDbLine
 10
-182.0
 20
-128.25
 30
0.0
 11
-182.0
 21
-125.2499999552965
 31
0.0
  0
LINE
  5
19C
330
1F
100
AcDbEntity
  8
Layer0016
  6
Continuous
 62
     3
370
    25
100
AcDbLine
 10
-182.0
 20
-128.25
 30
0.0
 11
-178.9999999552965
 21
-128.25
 31
0.0
  0
LINE
  5
19D
330
1F
100
AcDbEntity
  8
Layer0016
  6
Continuous
 62
     3
370
    25
100
AcDbLine
 10
-178.9999999552965
 20
-128.25
 30
0.0
 11
-178.9999999552965
 21
-125.2499999552965
 31
0.0
  0
LINE
  5
19E
330
1F
100
AcDbEntity
  8
Layer0016
  6
Continuous
 62
     3
370
    25
100
AcDbLine
 10
-182.0
 20
-125.2499999552965
 30
0.0
 11
-178.9999999552965
 21
-125.2499999552965
 31
0.0
  0
LINE
  5
19F
330
1F
100
AcDbEntity
  8
Layer0016
  6
Continuous
 62
     3
370
    25
100
AcDbLine
 10
-182.0
 20
-128.25
 30
0.0
 11
-182.0
 21
-125.2499999552965
 31
0.0
  0
LINE
  5
1A0
330
1F
100
AcDbEntity
  8
Layer0022
  6
Continuous
 62
     4
370
    25
100
AcDbLine
 10
92.40000408887863
 20
94.85000332444906
 30
0.0
 11
87.40000401437283
 21
94.85000332444906
 31
0.0
  0
LINE
  5
1A1
330
1F
100
AcDbEntity
  8
Layer0022
  6
Continuous
 62
     4
370
    25
100
AcDbLine
 10
87.40000401437283
 20
94.85000332444906
 30
0.0
 11
87.40000401437283
 21
90.85000326484442
 31
0.0
  0
LINE
  5
1A2
330
1F
100
AcDbEntity
  8
Layer0022
  6
Continuous
 62
     4
370
    25
100
AcDbLine
 10
87.40000401437283
 20
90.85000326484442
 30
0.0
 11
145.4000048786402
 21
90.85000326484442
 31
0.0
  0
LINE
  5
1A3
330
1F
100
AcDbEntity
  8
Layer0022
  6
Continuous
 62
     4
370
    25
100
AcDbLine
 10
145.4000048786402
 20
90.85000326484442
 30
0.0
 11
145.4000048786402
 21
94.85000332444906
 31
0.0
  0
LINE
  5
1A4
330
1F
100
AcDbEntity
  8
Layer0022
  6
Continuous
 62
     4
370
    25
100
AcDbLine
 10
145.4000048786402
 20
94.85000332444906
 30
0.0
 11
140.4000048041344
 21
94.85000332444906
 31
0.0
  0
LINE
  5
1A5
330
1F
100
AcDbEntity
  8
Layer0022
  6
Continuous
 62
     4
370
    25
100
AcDbLine
 10
69.40000374615192
 20
26.35000230371952
 30
0.0
 11
68.40000373125076
 21
26.35000230371952
 31
0.0
  0
LINE
  5
1A6
330
1F
100
AcDbEntity
  8
Layer0022
  6
Continuous
 62
     4
370
    25
100
AcDbLine
 10
68.40000373125076
 20
26.35000230371952
 30
0.0
 11
68.40000373125076
 21
23.85000226646662
 31
0.0
  0
LINE
  5
1A7
330
1F
100
AcDbEntity
  8
Layer0022
  6
Continuous
 62
     4
370
    25
100
AcDbLine
 10
68.40000373125076
 20
23.85000226646662
 30
0.0
 11
82.40000393986702
 21
23.85000226646662
 31
0.0
  0
LINE
  5
1A8
330
1F
100
AcDbEntity
  8
Layer0022
  6
Continuous
 62
     4
370
    25
100
AcDbLine
 10
82.40000393986702
 20
23.85000226646662
 30
0.0
 11
82.40000393986702
 21
26.35000230371952
 31
0.0
  0
LINE
  5
1A9
330
1F
100
AcDbEntity
  8
Layer0022
  6
Continuous
 62
     4
370
    25
100
AcDbLine
 10
82.40000393986702
 20
26.35000230371952
 30
0.0
 11
81.40000392496586
 21
26.35000230371952
 31
0.0
  0
LINE
  5
1AA
330
1F
100
AcDbEntity
  8
Layer0022
  6
Continuous
 62
     4
370
    25
100
AcDbLine
 10
80.4000039100647
 20
16.35000215470791
 30
0.0
 11
94.40000411868095
 21
16.35000215470791
 31
0.0
  0
LINE
  5
1AB
330
1F
100
AcDbEntity
  8
Layer0022
  6
Continuous
 62
     4
370
    25
100
AcDbLine
 10
99.90000420063734
 20
16.35000215470791
 30
0.0
 11
128.900004632771
 21
16.35000215470791
 31
0.0
  0
LINE
  5
1AC
330
1F
100
AcDbEntity
  8
Layer0022
  6
Continuous
 62
     4
370
    25
100
AcDbLine
 10
83.40000395476818
 20
-60.14999898523092
 30
0.0
 11
131.4000046700239
 21
-60.14999898523092
 31
0.0
  0
LINE
  5
1AD
330
1F
100
AcDbEntity
  8
Layer0022
  6
Continuous
 62
     4
370
    25
100
AcDbLine
 10
-182.0
 20
-128.25
 30
0.0
 11
-178.9999999552965
 21
-128.25
 31
0.0
  0
LINE
  5
1AE
330
1F
100
AcDbEntity
  8
Layer0022
  6
Continuous
 62
     4
370
    25
100
AcDbLine
 10
-178.9999999552965
 20
-128.25
 30
0.0
 11
-178.9999999552965
 21
-125.2499999552965
 31
0.0
  0
LINE
  5
1AF
330
1F
100
AcDbEntity
  8
Layer0022
  6
Continuous
 62
     4
370
    25
100
AcDbLine
 10
-178.9999999552965
 20
-125.2499999552965
 30
0.0
 11
-182.0
 21
-125.2499999552965
 31
0.0
  0
LINE
  5
1B0
330
1F
100
AcDbEntity
  8
Layer0022
  6
Continuous
 62
     4
370
    25
100
AcDbLine
 10
-182.0
 20
-125.2499999552965
 30
0.0
 11
-182.0
 21
-128.25
 31
0.0
  0
LINE
  5
1B1
330
1F
100
AcDbEntity
  8
Layer0022
  6
Continuous
 62
     4
370
    25
100
AcDbLine
 10
-182.0
 20
-128.25
 30
0.0
 11
-178.9999999552965
 21
-128.25
 31
0.0
  0
LINE
  5
1B2
330
1F
100
AcDbEntity
  8
Layer0022
  6
Continuous
 62
     4
370
    25
100
AcDbLine
 10
-178.9999999552965
 20
-128.25
 30
0.0
 11
-178.9999999552965
 21
-125.2499999552965
 31
0.0
  0
LINE
  5
1B3
330
1F
100
AcDbEntity
  8
Layer0022
  6
Continuous
 62
     4
370
    25
100
AcDbLine
 10
-178.9999999552965
 20
-125.2499999552965
 30
0.0
 11
-182.0
 21
-125.2499999552965
 31
0.0
  0
LINE
  5
1B4
330
1F
100
AcDbEntity
  8
Layer0022
  6
Continuous
 62
     4
370
    25
100
AcDbLine
 10
-182.0
 20
-125.2499999552965
 30
0.0
 11
-182.0
 21
-128.25
 31
0.0
  0
LINE
  5
1B5
330
1F
100
AcDbEntity
  8
Layer0022
  6
Continuous
 62
     4
370
    25
100
AcDbLine
 10
-182.0
 20
-128.25
 30
0.0
 11
-178.9999999552965
 21
-128.25
 31
0.0
  0
LINE
  5
1B6
330
1F
100
AcDbEntity
  8
Layer0022
  6
Continuous
 62
     4
370
    25
100
AcDbLine
 10
-178.9999999552965
 20
-128.25
 30
0.0
 11
-178.9999999552965
 21
-125.2499999552965
 31
0.0
  0
LINE
  5
1B7
330
1F
100
AcDbEntity
  8
Layer0022
  6
Continuous
 62
     4
370
    25
100
AcDbLine
 10
-178.9999999552965
 20
-125.2499999552965
 30
0.0
 11
-182.0
 21
-125.2499999552965
 31
0.0
  0
LINE
  5
1B8
330
1F
100
AcDbEntity
  8
Layer0022
  6
Continuous
 62
     4
370
    25
100
AcDbLine
 10
-182.0
 20
-125.2499999552965
 30
0.0
 11
-182.0
 21
-128.25
 31
0.0
  0
ARC
  5
1B9
330
1F
100
AcDbEntity
  8
Layer0022
  6
Continuous
 62
     4
370
    25
100
AcDbCircle
 10
60.40000361204147
 20
101.8500034287572
 30
0.0
 40
5.000000074505806
100
AcDbArc
 50
270.0000000000006
 51
0.0000000000008142
  0
LINE
  5
1BA
330
1F
100
AcDbEntity
  8
Layer0022
  6
Continuous
 62
     4
370
    25
100
AcDbLine
 10
60.40000524601598
 20
96.85000335425164
 30
0.0
 11
60.40000361204147
 21
-58.1499989554286
 31
0.0
  0
ARC
  5
1BB
330
1F
100
AcDbEntity
  8
Layer0022
  6
Continuous
 62
     4
370
    25
100
AcDbCircle
 10
60.40000197806697
 20
-63.14999902993414
 30
0.0
 40
5.000000074505806
100
AcDbArc
 50
0.0
 51
90.0000000000002
  0
LINE
  5
1BC
330
1F
100
AcDbEntity
  8
Layer0022
  6
Continuous
 62
     4
370
    25
100
AcDbLine
 10
65.40000205257277
 20
-63.14999902993414
 30
0.0
 11
165.4000051766634
 21
-63.14999902993441
 31
0.0
  0
ARC
  5
1BD
330
1F
100
AcDbEntity
  8
Layer0022
  6
Continuous
 62
     4
370
    25
100
AcDbCircle
 10
170.4000052511681
 20
-63.15000229788342
 30
0.0
 40
5.000000074505806
100
AcDbArc
 50
90.0000000000002
 51
180.0000000000004
  0
LINE
  5
1BE
330
1F
100
AcDbEntity
  8
Layer0022
  6
Continuous
 62
     4
370
    25
100
AcDbLine
 10
170.4000068851426
 20
-58.15000222337788
 30
0.0
 11
170.4000052511692
 21
96.85000335425138
 31
0.0
  0
ARC
  5
1BF
330
1F
100
AcDbEntity
  8
Layer0022
  6
Continuous
 62
     4
370
    25
100
AcDbCircle
 10
170.4000101530927
 20
101.8500034287548
 30
0.0
 40
5.000000074505806
100
AcDbArc
 50
180.0000000000004
 51
270.0000000000006
  0
LINE
  5
1C0
330
1F
100
AcDbEntity
  8
Layer0022
  6
Continuous
 62
     4
370
    25
100
AcDbLine
 10
165.400010078588
 20
101.8500066967038
 30
0.0
 11
65.40000368654728
 21
101.8500034287572
 31
0.0
  0
LINE
  5
1C1
330
1F
100
AcDbEntity
  8
Layer0048
  6
Continuous
 62
     3
370
    25
100
AcDbLine
 10
-122.4749984666705
 20
53.35000610351562
 30
0.0
 11
-60.72499846667051
 21
53.35000610351562
 31
0.0
  0
LINE
  5
1C2
330
1F
100
AcDbEntity
  8
Layer0048
  6
Continuous
 62
     3
370
    25
100
AcDbLine
 10
-60.72499846667051
 20
52.60000610351562
 30
0.0
 11
-60.72499846667051
 21
53.35000610351562
 31
0.0
  0
LINE
  5
1C3
330
1F
100
AcDbEntity
  8
Layer0048
  6
Continuous
 62
     3
370
    25
100
AcDbLine
 10
-122.4749984666705
 20
52.60000610351562
 30
0.0
 11
-60.72499846667051
 21
52.60000610351562
 31
0.0
  0
LINE
  5
1C4
330
1F
100
AcDbEntity
  8
Layer0048
  6
Continuous
 62
     3
370
    25
100
AcDbLine
 10
-122.4749984666705
 20
52.60000610351562
 30
0.0
 11
-122.4749984666705
 21
53.35000610351562
 31
0.0
  0
LINE
  5
1C5
330
1F
100
AcDbEntity
  8
Layer0048
  6
Continuous
 62
     3
370
    25
100
AcDbLine
 10
-122.4749984666705
 20
-20.89999389648437
 30
0.0
 11
-60.72499846667051
 21
-20.89999389648437
 31
0.0
  0
LINE
  5
1C6
330
1F
100
AcDbEntity
  8
Layer0048
  6
Continuous
 62
     3
370
    25
100
AcDbLine
 10
-60.72499846667051
 20
-21.64999389648437
 30
0.0
 11
-60.72499846667051
 21
-20.89999389648437
 31
0.0
  0
LINE
  5
1C7
330
1F
100
AcDbEntity
  8
Layer0048
  6
Continuous
 62
     3
370
    25
100
AcDbLine
 10
-122.4749984666705
 20
-21.64999389648437
 30
0.0
 11
-60.72499846667051
 21
-21.64999389648437
 31
0.0
  0
LINE
  5
1C8
330
1F
100
AcDbEntity
  8
Layer0048
  6
Continuous
 62
     3
370
    25
100
AcDbLine
 10
-122.4749984666705
 20
-21.64999389648437
 30
0.0
 11
-122.4749984666705
 21
-20.89999389648437
 31
0.0
  0
LINE
  5
1C9
330
1F
100
AcDbEntity
  8
Layer0048
  6
Continuous
 62
     3
370
    25
100
AcDbLine
 10
-119.9749984666705
 20
41.28750610351562
 30
0.0
 11
-118.9874984547496
 21
41.28750610351562
 31
0.0
  0
LINE
  5
1CA
330
1F
100
AcDbEntity
  8
Layer0048
  6
Continuous
 62
     3
370
    25
100
AcDbLine
 10
-116.4875030443072
 20
41.28750610351562
 30
0.0
 11
-115.5000030323863
 21
41.28750610351562
 31
0.0
  0
LINE
  5
1CB
330
1F
100
AcDbEntity
  8
Layer0048
  6
Continuous
 62
     3
370
    25
100
AcDbLine
 10
-112.9999999925494
 20
41.28750610351562
 30
0.0
 11
-112.0124999806285
 21
41.28750610351562
 31
0.0
  0
LINE
  5
1CC
330
1F
100
AcDbEntity
  8
Layer0048
  6
Continuous
 62
     3
370
    25
100
AcDbLine
 10
-109.5124969407916
 20
41.28750610351562
 30
0.0
 11
-108.5249969288707
 21
41.28750610351562
 31
0.0
  0
LINE
  5
1CD
330
1F
100
AcDbEntity
  8
Layer0048
  6
Continuous
 62
     3
370
    25
100
AcDbLine
 10
-106.0250015184283
 20
41.28750610351562
 30
0.0
 11
-105.0375015065074
 21
41.28750610351562
 31
0.0
  0
LINE
  5
1CE
330
1F
100
AcDbEntity
  8
Layer0048
  6
Continuous
 62
     3
370
    25
100
AcDbLine
 10
-102.5374984666705
 20
41.28750610351562
 30
0.0
 11
-101.5499984547496
 21
41.28750610351562
 31
0.0
  0
LINE
  5
1CF
330
1F
100
AcDbEntity
  8
Layer0048
  6
Continuous
 62
     3
370
    25
100
AcDbLine
 10
-99.05000304430723
 20
41.28750610351562
 30
0.0
 11
-98.0625030323863
 21
41.28750610351562
 31
0.0
  0
LINE
  5
1D0
330
1F
100
AcDbEntity
  8
Layer0048
  6
Continuous
 62
     3
370
    25
100
AcDbLine
 10
-95.56249999254942
 20
41.28750610351562
 30
0.0
 11
-94.57499998062849
 21
41.28750610351562
 31
0.0
  0
LINE
  5
1D1
330
1F
100
AcDbEntity
  8
Layer0048
  6
Continuous
 62
     3
370
    25
100
AcDbLine
 10
-92.0749969407916
 20
41.28750610351562
 30
0.0
 11
-91.08749692887068
 21
41.28750610351562
 31
0.0
  0
LINE
  5
1D2
330
1F
100
AcDbEntity
  8
Layer0048
  6
Continuous
 62
     3
370
    25
100
AcDbLine
 10
-88.58750151842833
 20
41.28750610351562
 30
0.0
 11
-87.6000015065074
 21
41.28750610351562
 31
0.0
  0
LINE
  5
1D3
330
1F
100
AcDbEntity
  8
Layer0048
  6
Continuous
 62
     3
370
    25
100
AcDbLine
 10
-85.09999846667051
 20
41.28750610351562
 30
0.0
 11
-84.11249845474958
 21
41.28750610351562
 31
0.0
  0
LINE
  5
1D4
330
1F
100
AcDbEntity
  8
Layer0048
  6
Continuous
 62
     3
370
    25
100
AcDbLine
 10
-81.61250304430723
 20
41.28750610351562
 30
0.0
 11
-80.6250030323863
 21
41.28750610351562
 31
0.0
  0
LINE
  5
1D5
330
1F
100
AcDbEntity
  8
Layer0048
  6
Continuous
 62
     3
370
    25
100
AcDbLine
 10
-78.12499999254942
 20
41.28750610351562
 30
0.0
 11
-77.13749998062849
 21
41.28750610351562
 31
0.0
  0
LINE
  5
1D6
330
1F
100
AcDbEntity
  8
Layer0048
  6
Continuous
 62
     3
370
    25
100
AcDbLine
 10
-74.6374969407916
 20
41.28750610351562
 30
0.0
 11
-73.64999692887068
 21
41.28750610351562
 31
0.0
  0
LINE
  5
1D7
330
1F
100
AcDbEntity
  8
Layer0048
  6
Continuous
 62
     3
370
    25
100
AcDbLine
 10
-71.15000151842833
 20
41.28750610351562
 30
0.0
 11
-70.1625015065074
 21
41.28750610351562
 31
0.0
  0
LINE
  5
1D8
330
1F
100
AcDbEntity
  8
Layer0048
  6
Continuous
 62
     3
370
    25
100
AcDbLine
 10
-67.66249846667051
 20
41.28750610351562
 30
0.0
 11
-66.67499845474958
 21
41.28750610351562
 31
0.0
  0
LINE
  5
1D9
330
1F
100
AcDbEntity
  8
Layer0048
  6
Continuous
 62
     3
370
    25
100
AcDbLine
 10
-64.17500304430723
 20
41.28750610351562
 30
0.0
 11
-63.22500180453062
 21
41.28750610351562
 31
0.0
  0
LINE
  5
1DA
330
1F
100
AcDbEntity
  8
Layer0048
  6
Continuous
 62
     3
370
    25
100
AcDbLine
 10
-119.9749984666705
 20
40.41250610351562
 30
0.0
 11
-118.9874984547496
 21
40.41250610351562
 31
0.0
  0
LINE
  5
1DB
330
1F
100
AcDbEntity
  8
Layer0048
  6
Continuous
 62
     3
370
    25
100
AcDbLine
 10
-116.4875030443072
 20
40.41250610351562
 30
0.0
 11
-115.5000030323863
 21
40.41250610351562
 31
0.0
  0
LINE
  5
1DC
330
1F
100
AcDbEntity
  8
Layer0048
  6
Continuous
 62
     3
370
    25
100
AcDbLine
 10
-112.9999999925494
 20
40.41250610351562
 30
0.0
 11
-112.0124999806285
 21
40.41250610351562
 31
0.0
  0
LINE
  5
1DD
330
1F
100
AcDbEntity
  8
Layer0048
  6
Continuous
 62
     3
370
    25
100
AcDbLine
 10
-109.5124969407916
 20
40.41250610351562
 30
0.0
 11
-108.5249969288707
 21
40.41250610351562
 31
0.0
  0
LINE
  5
1DE
330
1F
100
AcDbEntity
  8
Layer0048
  6
Continuous
 62
     3
370
    25
100
AcDbLine
 10
-106.0250015184283
 20
40.41250610351562
 30
0.0
 11
-105.0375015065074
 21
40.41250610351562
 31
0.0
  0
LINE
  5
1DF
330
1F
100
AcDbEntity
  8
Layer0048
  6
Continuous
 62
     3
370
    25
100
AcDbLine
 10
-102.5374984666705
 20
40.41250610351562
 30
0.0
 11
-101.5499984547496
 21
40.41250610351562
 31
0.0
  0
LINE
  5
1E0
330
1F
100
AcDbEntity
  8
Layer0048
  6
Continuous
 62
     3
370
    25
100
AcDbLine
 10
-99.05000304430723
 20
40.41250610351562
 30
0.0
 11
-98.0625030323863
 21
40.41250610351562
 31
0.0
  0
LINE
  5
1E1
330
1F
100
AcDbEntity
  8
Layer0048
  6
Continuous
 62
     3
370
    25
100
AcDbLine
 10
-95.56249999254942
 20
40.41250610351562
 30
0.0
 11
-94.57499998062849
 21
40.41250610351562
 31
0.0
  0
LINE
  5
1E2
330
1F
100
AcDbEntity
  8
Layer0048
  6
Continuous
 62
     3
370
    25
100
AcDbLine
 10
-92.0749969407916
 20
40.41250610351562
 30
0.0
 11
-91.08749692887068
 21
40.41250610351562
 31
0.0
  0
LINE
  5
1E3
330
1F
100
AcDbEntity
  8
Layer0048
  6
Continuous
 62
     3
370
    25
100
AcDbLine
 10
-88.58750151842833
 20
40.41250610351562
 30
0.0
 11
-87.6000015065074
 21
40.41250610351562
 31
0.0
  0
LINE
  5
1E4
330
1F
100
AcDbEntity
  8
Layer0048
  6
Continuous
 62
     3
370
    25
100
AcDbLine
 10
-85.09999846667051
 20
40.41250610351562
 30
0.0
 11
-84.11249845474958
 21
40.41250610351562
 31
0.0
  0
LINE
  5
1E5
330
1F
100
AcDbEntity
  8
Layer0048
  6
Continuous
 62
     3
370
    25
100
AcDbLine
 10
-81.61250304430723
 20
40.41250610351562
 30
0.0
 11
-80.6250030323863
 21
40.41250610351562
 31
0.0
  0
LINE
  5
1E6
330
1F
100
AcDbEntity
  8
Layer0048
  6
Continuous
 62
     3
370
    25
100
AcDbLine
 10
-78.12499999254942
 20
40.41250610351562
 30
0.0
 11
-77.13749998062849
 21
40.41250610351562
 31
0.0
  0
LINE
  5
1E7
330
1F
100
AcDbEntity
  8
Layer0048
  6
Continuous
 62
     3
370
    25
100
AcDbLine
 10
-74.6374969407916
 20
40.41250610351562
 30
0.0
 11
-73.64999692887068
 21
40.41250610351562
 31
0.0
  0
LINE
  5
1E8
330
1F
100
AcDbEntity
  8
Layer0048
  6
Continuous
 62
     3
370
    25
100
AcDbLine
 10
-71.15000151842833
 20
40.41250610351562
 30
0.0
 11
-70.1625015065074
 21
40.41250610351562
 31
0.0
  0
LINE
  5
1E9
330
1F
100
AcDbEntity
  8
Layer0048
  6
Continuous
 62
     3
370
    25
100
AcDbLine
 10
-67.66249846667051
 20
40.41250610351562
 30
0.0
 11
-66.67499845474958
 21
40.41250610351562
 31
0.0
  0
LINE
  5
1EA
330
1F
100
AcDbEntity
  8
Layer0048
  6
Continuous
 62
     3
370
    25
100
AcDbLine
 10
-64.17500304430723
 20
40.41250610351562
 30
0.0
 11
-63.22500180453062
 21
40.41250610351562
 31
0.0
  0
LINE
  5
1EB
330
1F
100
AcDbEntity
  8
Layer0048
  6
Continuous
 62
     3
370
    25
100
AcDbLine
 10
-119.9749984666705
 20
28.78750610351562
 30
0.0
 11
-118.9874984547496
 21
28.78750610351562
 31
0.0
  0
LINE
  5
1EC
330
1F
100
AcDbEntity
  8
Layer0048
  6
Continuous
 62
     3
370
    25
100
AcDbLine
 10
-116.4875030443072
 20
28.78750610351562
 30
0.0
 11
-115.5000030323863
 21
28.78750610351562
 31
0.0
  0
LINE
  5
1ED
330
1F
100
AcDbEntity
  8
Layer0048
  6
Continuous
 62
     3
370
    25
100
AcDbLine
 10
-112.9999999925494
 20
28.78750610351562
 30
0.0
 11
-112.0124999806285
 21
28.78750610351562
 31
0.0
  0
LINE
  5
1EE
330
1F
100
AcDbEntity
  8
Layer0048
  6
Continuous
 62
     3
370
    25
100
AcDbLine
 10
-109.5124969407916
 20
28.78750610351562
 30
0.0
 11
-108.5249969288707
 21
28.78750610351562
 31
0.0
  0
LINE
  5
1EF
330
1F
100
AcDbEntity
  8
Layer0048
  6
Continuous
 62
     3
370
    25
100
AcDbLine
 10
-106.0250015184283
 20
28.78750610351562
 30
0.0
 11
-105.0375015065074
 21
28.78750610351562
 31
0.0
  0
LINE
  5
1F0
330
1F
100
AcDbEntity
  8
Layer0048
  6
Continuous
 62
     3
370
    25
100
AcDbLine
 10
-102.5374984666705
 20
28.78750610351562
 30
0.0
 11
-101.5499984547496
 21
28.78750610351562
 31
0.0
  0
LINE
  5
1F1
330
1F
100
AcDbEntity
  8
Layer0048
  6
Continuous
 62
     3
370
    25
100
AcDbLine
 10
-99.05000304430723
 20
28.78750610351562
 30
0.0
 11
-98.0625030323863
 21
28.78750610351562
 31
0.0
  0
LINE
  5
1F2
330
1F
100
AcDbEntity
  8
Layer0048
  6
Continuous
 62
     3
370
    25
100
AcDbLine
 10
-95.56249999254942
 20
28.78750610351562
 30
0.0
 11
-94.57499998062849
 21
28.78750610351562
 31
0.0
  0
LINE
  5
1F3
330
1F
100
AcDbEntity
  8
Layer0048
  6
Continuous
 62
     3
370
    25
100
AcDbLine
 10
-92.0749969407916
 20
28.78750610351562
 30
0.0
 11
-91.08749692887068
 21
28.78750610351562
 31
0.0
  0
LINE
  5
1F4
330
1F
100
AcDbEntity
  8
Layer0048
  6
Continuous
 62
     3
370
    25
100
AcDbLine
 10
-88.58750151842833
 20
28.78750610351562
 30
0.0
 11
-87.6000015065074
 21
28.78750610351562
 31
0.0
  0
LINE
  5
1F5
330
1F
100
AcDbEntity
  8
Layer0048
  6
Continuous
 62
     3
370
    25
100
AcDbLine
 10
-85.09999846667051
 20
28.78750610351562
 30
0.0
 11
-84.11249845474958
 21
28.78750610351562
 31
0.0
  0
LINE
  5
1F6
330
1F
100
AcDbEntity
  8
Layer0048
  6
Continuous
 62
     3
370
    25
100
AcDbLine
 10
-81.61250304430723
 20
28.78750610351562
 30
0.0
 11
-80.6250030323863
 21
28.78750610351562
 31
0.0
  0
LINE
  5
1F7
330
1F
100
AcDbEntity
  8
Layer0048
  6
Continuous
 62
     3
370
    25
100
AcDbLine
 10
-78.12499999254942
 20
28.78750610351562
 30
0.0
 11
-77.13749998062849
 21
28.78750610351562
 31
0.0
  0
LINE
  5
1F8
330
1F
100
AcDbEntity
  8
Layer0048
  6
Continuous
 62
     3
370
    25
100
AcDbLine
 10
-74.6374969407916
 20
28.78750610351562
 30
0.0
 11
-73.64999692887068
 21
28.78750610351562
 31
0.0
  0
LINE
  5
1F9
330
1F
100
AcDbEntity
  8
Layer0048
  6
Continuous
 62
     3
370
    25
100
AcDbLine
 10
-71.15000151842833
 20
28.78750610351562
 30
0.0
 11
-70.1625015065074
 21
28.78750610351562
 31
0.0
  0
LINE
  5
1FA
330
1F
100
AcDbEntity
  8
Layer0048
  6
Continuous
 62
     3
370
    25
100
AcDbLine
 10
-67.66249846667051
 20
28.78750610351562
 30
0.0
 11
-66.67499845474958
 21
28.78750610351562
 31
0.0
  0
LINE
  5
1FB
330
1F
100
AcDbEntity
  8
Layer0048
  6
Continuous
 62
     3
370
    25
100
AcDbLine
 10
-64.17500304430723
 20
28.78750610351562
 30
0.0
 11
-63.22500180453062
 21
28.78750610351562
 31
0.0
  0
LINE
  5
1FC
330
1F
100
AcDbEntity
  8
Layer0048
  6
Continuous
 62
     3
370
    25
100
AcDbLine
 10
-119.9749984666705
 20
27.91250610351562
 30
0.0
 11
-118.9874984547496
 21
27.91250610351562
 31
0.0
  0
LINE
  5
1FD
330
1F
100
AcDbEntity
  8
Layer0048
  6
Continuous
 62
     3
370
    25
100
AcDbLine
 10
-116.4875030443072
 20
27.91250610351562
 30
0.0
 11
-115.5000030323863
 21
27.91250610351562
 31
0.0
  0
LINE
  5
1FE
330
1F
100
AcDbEntity
  8
Layer0048
  6
Continuous
 62
     3
370
    25
100
AcDbLine
 10
-112.9999999925494
 20
27.91250610351562
 30
0.0
 11
-112.0124999806285
 21
27.91250610351562
 31
0.0
  0
LINE
  5
1FF
330
1F
100
AcDbEntity
  8
Layer0048
  6
Continuous
 62
     3
370
    25
100
AcDbLine
 10
-109.5124969407916
 20
27.91250610351562
 30
0.0
 11
-108.5249969288707
 21
27.91250610351562
 31
0.0
  0
LINE
  5
200
330
1F
100
AcDbEntity
  8
Layer0048
  6
Continuous
 62
     3
370
    25
100
AcDbLine
 10
-106.0250015184283
 20
27.91250610351562
 30
0.0
 11
-105.0375015065074
 21
27.91250610351562
 31
0.0
  0
LINE
  5
201
330
1F
100
AcDbEntity
  8
Layer0048
  6
Continuous
 62
     3
370
    25
100
AcDbLine
 10
-102.5374984666705
 20
27.91250610351562
 30
0.0
 11
-101.5499984547496
 21
27.91250610351562
 31
0.0
  0
LINE
  5
202
330
1F
100
AcDbEntity
  8
Layer0048
  6
Continuous
 62
     3
370
    25
100
AcDbLine
 10
-99.05000304430723
 20
27.91250610351562
 30
0.0
 11
-98.0625030323863
 21
27.91250610351562
 31
0.0
  0
LINE
  5
203
330
1F
100
AcDbEntity
  8
Layer0048
  6
Continuous
 62
     3
370
    25
100
AcDbLine
 10
-95.56249999254942
 20
27.91250610351562
 30
0.0
 11
-94.57499998062849
 21
27.91250610351562
 31
0.0
  0
LINE
  5
204
330
1F
100
AcDbEntity
  8
Layer0048
  6
Continuous
 62
     3
370
    25
100
AcDbLine
 10
-92.0749969407916
 20
27.91250610351562
 30
0.0
 11
-91.08749692887068
 21
27.91250610351562
 31
0.0
  0
LINE
  5
205
330
1F
100
AcDbEntity
  8
Layer0048
  6
Continuous
 62
     3
370
    25
100
AcDbLine
 10
-88.58750151842833
 20
27.91250610351562
 30
0.0
 11
-87.6000015065074
 21
27.91250610351562
 31
0.0
  0
LINE
  5
206
330
1F
100
AcDbEntity
  8
Layer0048
  6
Continuous
 62
     3
370
    25
100
AcDbLine
 10
-85.09999846667051
 20
27.91250610351562
 30
0.0
 11
-84.11249845474958
 21
27.91250610351562
 31
0.0
  0
LINE
  5
207
330
1F
100
AcDbEntity
  8
Layer0048
  6
Continuous
 62
     3
370
    25
100
AcDbLine
 10
-81.61250304430723
 20
27.91250610351562
 30
0.0
 11
-80.6250030323863
 21
27.91250610351562
 31
0.0
  0
LINE
  5
208
330
1F
100
AcDbEntity
  8
Layer0048
  6
Continuous
 62
     3
370
    25
100
AcDbLine
 10
-78.12499999254942
 20
27.91250610351562
 30
0.0
 11
-77.13749998062849
 21
27.91250610351562
 31
0.0
  0
LINE
  5
209
330
1F
100
AcDbEntity
  8
Layer0048
  6
Continuous
 62
     3
370
    25
100
AcDbLine
 10
-74.6374969407916
 20
27.91250610351562
 30
0.0
 11
-73.64999692887068
 21
27.91250610351562
 31
0.0
  0
LINE
  5
20A
330
1F
100
AcDbEntity
  8
Layer0048
  6
Continuous
 62
     3
370
    25
100
AcDbLine
 10
-71.15000151842833
 20
27.91250610351562
 30
0.0
 11
-70.1625015065074
 21
27.91250610351562
 31
0.0
  0
LINE
  5
20B
330
1F
100
AcDbEntity
  8
Layer0048
  6
Continuous
 62
     3
370
    25
100
AcDbLine
 10
-67.66249846667051
 20
27.91250610351562
 30
0.0
 11
-66.67499845474958
 21
27.91250610351562
 31
0.0
  0
LINE
  5
20C
330
1F
100
AcDbEntity
  8
Layer0048
  6
Continuous
 62
     3
370
    25
100
AcDbLine
 10
-64.17500304430723
 20
27.91250610351562
 30
0.0
 11
-63.22500180453062
 21
27.91250610351562
 31
0.0
  0
LINE
  5
20D
330
1F
100
AcDbEntity
  8
Layer0048
  6
Continuous
 62
     3
370
    25
100
AcDbLine
 10
-119.9749984666705
 20
16.28750610351562
 30
0.0
 11
-118.9874984547496
 21
16.28750610351562
 31
0.0
  0
LINE
  5
20E
330
1F
100
AcDbEntity
  8
Layer0048
  6
Continuous
 62
     3
370
    25
100
AcDbLine
 10
-116.4875030443072
 20
16.28750610351562
 30
0.0
 11
-115.5000030323863
 21
16.28750610351562
 31
0.0
  0
LINE
  5
20F
330
1F
100
AcDbEntity
  8
Layer0048
  6
Continuous
 62
     3
370
    25
100
AcDbLine
 10
-112.9999999925494
 20
16.28750610351562
 30
0.0
 11
-112.0124999806285
 21
16.28750610351562
 31
0.0
  0
LINE
  5
210
330
1F
100
AcDbEntity
  8
Layer0048
  6
Continuous
 62
     3
370
    25
100
AcDbLine
 10
-109.5124969407916
 20
16.28750610351562
 30
0.0
 11
-108.5249969288707
 21
16.28750610351562
 31
0.0
  0
LINE
  5
211
330
1F
100
AcDbEntity
  8
Layer0048
  6
Continuous
 62
     3
370
    25
100
AcDbLine
 10
-106.0250015184283
 20
16.28750610351562
 30
0.0
 11
-105.0375015065074
 21
16.28750610351562
 31
0.0
  0
LINE
  5
212
330
1F
100
AcDbEntity
  8
Layer0048
  6
Continuous
 62
     3
370
    25
100
AcDbLine
 10
-102.5374984666705
 20
16.28750610351562
 30
0.0
 11
-101.5499984547496
 21
16.28750610351562
 31
0.0
  0
LINE
  5
213
330
1F
100
AcDbEntity
  8
Layer0048
  6
Continuous
 62
     3
370
    25
100
AcDbLine
 10
-99.05000304430723
 20
16.28750610351562
 30
0.0
 11
-98.0625030323863
 21
16.28750610351562
 31
0.0
  0
LINE
  5
214
330
1F
100
AcDbEntity
  8
Layer0048
  6
Continuous
 62
     3
370
    25
100
AcDbLine
 10
-95.56249999254942
 20
16.28750610351562
 30
0.0
 11
-94.57499998062849
 21
16.28750610351562
 31
0.0
  0
LINE
  5
215
330
1F
100
AcDbEntity
  8
Layer0048
  6
Continuous
 62
     3
370
    25
100
AcDbLine
 10
-92.0749969407916
 20
16.28750610351562
 30
0.0
 11
-91.08749692887068
 21
16.28750610351562
 31
0.0
  0
LINE
  5
216
330
1F
100
AcDbEntity
  8
Layer0048
  6
Continuous
 62
     3
370
    25
100
AcDbLine
 10
-88.58750151842833
 20
16.28750610351562
 30
0.0
 11
-87.6000015065074
 21
16.28750610351562
 31
0.0
  0
LINE
  5
217
330
1F
100
AcDbEntity
  8
Layer0048
  6
Continuous
 62
     3
370
    25
100
AcDbLine
 10
-85.09999846667051
 20
16.28750610351562
 30
0.0
 11
-84.11249845474958
 21
16.28750610351562
 31
0.0
  0
LINE
  5
218
330
1F
100
AcDbEntity
  8
Layer0048
  6
Continuous
 62
     3
370
    25
100
AcDbLine
 10
-81.61250304430723
 20
16.28750610351562
 30
0.0
 11
-80.6250030323863
 21
16.28750610351562
 31
0.0
  0
LINE
  5
219
330
1F
100
AcDbEntity
  8
Layer0048
  6
Continuous
 62
     3
370
    25
100
AcDbLine
 10
-78.12499999254942
 20
16.28750610351562
 30
0.0
 11
-77.13749998062849
 21
16.28750610351562
 31
0.0
  0
LINE
  5
21A
330
1F
100
AcDbEntity
  8
Layer0048
  6
Continuous
 62
     3
370
    25
100
AcDbLine
 10
-74.6374969407916
 20
16.28750610351562
 30
0.0
 11
-73.64999692887068
 21
16.28750610351562
 31
0.0
  0
LINE
  5
21B
330
1F
100
AcDbEntity
  8
Layer0048
  6
Continuous
 62
     3
370
    25
100
AcDbLine
 10
-71.15000151842833
 20
16.28750610351562
 30
0.0
 11
-70.1625015065074
 21
16.28750610351562
 31
0.0
  0
LINE
  5
21C
330
1F
100
AcDbEntity
  8
Layer0048
  6
Continuous
 62
     3
370
    25
100
AcDbLine
 10
-67.66249846667051
 20
16.28750610351562
 30
0.0
 11
-66.67499845474958
 21
16.28750610351562
 31
0.0
  0
LINE
  5
21D
330
1F
100
AcDbEntity
  8
Layer0048
  6
Continuous
 62
     3
370
    25
100
AcDbLine
 10
-64.17500304430723
 20
16.28750610351562
 30
0.0
 11
-63.22500180453062
 21
16.28750610351562
 31
0.0
  0
LINE
  5
21E
330
1F
100
AcDbEntity
  8
Layer0048
  6
Continuous
 62
     3
370
    25
100
AcDbLine
 10
-119.9749984666705
 20
15.41250610351562
 30
0.0
 11
-118.9874984547496
 21
15.41250610351562
 31
0.0
  0
LINE
  5
21F
330
1F
100
AcDbEntity
  8
Layer0048
  6
Continuous
 62
     3
370
    25
100
AcDbLine
 10
-116.4875030443072
 20
15.41250610351562
 30
0.0
 11
-115.5000030323863
 21
15.41250610351562
 31
0.0
  0
LINE
  5
220
330
1F
100
AcDbEntity
  8
Layer0048
  6
Continuous
 62
     3
370
    25
100
AcDbLine
 10
-112.9999999925494
 20
15.41250610351562
 30
0.0
 11
-112.0124999806285
 21
15.41250610351562
 31
0.0
  0
LINE
  5
221
330
1F
100
AcDbEntity
  8
Layer0048
  6
Continuous
 62
     3
370
    25
100
AcDbLine
 10
-109.5124969407916
 20
15.41250610351562
 30
0.0
 11
-108.5249969288707
 21
15.41250610351562
 31
0.0
  0
LINE
  5
222
330
1F
100
AcDbEntity
  8
Layer0048
  6
Continuous
 62
     3
370
    25
100
AcDbLine
 10
-106.0250015184283
 20
15.41250610351562
 30
0.0
 11
-105.0375015065074
 21
15.41250610351562
 31
0.0
  0
LINE
  5
223
330
1F
100
AcDbEntity
  8
Layer0048
  6
Continuous
 62
     3
370
    25
100
AcDbLine
 10
-102.5374984666705
 20
15.41250610351562
 30
0.0
 11
-101.5499984547496
 21
15.41250610351562
 31
0.0
  0
LINE
  5
224
330
1F
100
AcDbEntity
  8
Layer0048
  6
Continuous
 62
     3
370
    25
100
AcDbLine
 10
-99.05000304430723
 20
15.41250610351562
 30
0.0
 11
-98.0625030323863
 21
15.41250610351562
 31
0.0
  0
LINE
  5
225
330
1F
100
AcDbEntity
  8
Layer0048
  6
Continuous
 62
     3
370
    25
100
AcDbLine
 10
-95.56249999254942
 20
15.41250610351562
 30
0.0
 11
-94.57499998062849
 21
15.41250610351562
 31
0.0
  0
LINE
  5
226
330
1F
100
AcDbEntity
  8
Layer0048
  6
Continuous
 62
     3
370
    25
100
AcDbLine
 10
-92.0749969407916
 20
15.41250610351562
 30
0.0
 11
-91.08749692887068
 21
15.41250610351562
 31
0.0
  0
LINE
  5
227
330
1F
100
AcDbEntity
  8
Layer0048
  6
Continuous
 62
     3
370
    25
100
AcDbLine
 10
-88.58750151842833
 20
15.41250610351562
 30
0.0
 11
-87.6000015065074
 21
15.41250610351562
 31
0.0
  0
LINE
  5
228
330
1F
100
AcDbEntity
  8
Layer0048
  6
Continuous
 62
     3
370
    25
100
AcDbLine
 10
-85.09999846667051
 20
15.41250610351562
 30
0.0
 11
-84.11249845474958
 21
15.41250610351562
 31
0.0
  0
LINE
  5
229
330
1F
100
AcDbEntity
  8
Layer0048
  6
Continuous
 62
     3
370
    25
100
AcDbLine
 10
-81.61250304430723
 20
15.41250610351562
 30
0.0
 11
-80.6250030323863
 21
15.41250610351562
 31
0.0
  0
LINE
  5
22A
330
1F
100
AcDbEntity
  8
Layer0048
  6
Continuous
 62
     3
370
    25
100
AcDbLine
 10
-78.12499999254942
 20
15.41250610351562
 30
0.0
 11
-77.13749998062849
 21
15.41250610351562
 31
0.0
  0
LINE
  5
22B
330
1F
100
AcDbEntity
  8
Layer0048
  6
Continuous
 62
     3
370
    25
100
AcDbLine
 10
-74.6374969407916
 20
15.41250610351562
 30
0.0
 11
-73.64999692887068
 21
15.41250610351562
 31
0.0
  0
LINE
  5
22C
330
1F
100
AcDbEntity
  8
Layer0048
  6
Continuous
 62
     3
370
    25
100
AcDbLine
 10
-71.15000151842833
 20
15.41250610351562
 30
0.0
 11
-70.1625015065074
 21
15.41250610351562
 31
0.0
  0
LINE
  5
22D
330
1F
100
AcDbEntity
  8
Layer0048
  6
Continuous
 62
     3
370
    25
100
AcDbLine
 10
-67.66249846667051
 20
15.41250610351562
 30
0.0
 11
-66.67499845474958
 21
15.41250610351562
 31
0.0
  0
LINE
  5
22E
330
1F
100
AcDbEntity
  8
Layer0048
  6
Continuous
 62
     3
370
    25
100
AcDbLine
 10
-64.17500304430723
 20
15.41250610351562
 30
0.0
 11
-63.22500180453062
 21
15.41250610351562
 31
0.0
  0
LINE
  5
22F
330
1F
100
AcDbEntity
  8
Layer0048
  6
Continuous
 62
     3
370
    25
100
AcDbLine
 10
-119.9749984666705
 20
3.787506103515625
 30
0.0
 11
-118.9874984547496
 21
3.787506103515625
 31
0.0
  0
LINE
  5
230
330
1F
100
AcDbEntity
  8
Layer0048
  6
Continuous
 62
     3
370
    25
100
AcDbLine
 10
-116.4875030443072
 20
3.787506103515625
 30
0.0
 11
-115.5000030323863
 21
3.787506103515625
 31
0.0
  0
LINE
  5
231
330
1F
100
AcDbEntity
  8
Layer0048
  6
Continuous
 62
     3
370
    25
100
AcDbLine
 10
-112.9999999925494
 20
3.787506103515625
 30
0.0
 11
-112.0124999806285
 21
3.787506103515625
 31
0.0
  0
LINE
  5
232
330
1F
100
AcDbEntity
  8
Layer0048
  6
Continuous
 62
     3
370
    25
100
AcDbLine
 10
-109.5124969407916
 20
3.787506103515625
 30
0.0
 11
-108.5249969288707
 21
3.787506103515625
 31
0.0
  0
LINE
  5
233
330
1F
100
AcDbEntity
  8
Layer0048
  6
Continuous
 62
     3
370
    25
100
AcDbLine
 10
-106.0250015184283
 20
3.787506103515625
 30
0.0
 11
-105.0375015065074
 21
3.787506103515625
 31
0.0
  0
LINE
  5
234
330
1F
100
AcDbEntity
  8
Layer0048
  6
Continuous
 62
     3
370
    25
100
AcDbLine
 10
-102.5374984666705
 20
3.787506103515625
 30
0.0
 11
-101.5499984547496
 21
3.787506103515625
 31
0.0
  0
LINE
  5
235
330
1F
100
AcDbEntity
  8
Layer0048
  6
Continuous
 62
     3
370
    25
100
AcDbLine
 10
-99.05000304430723
 20
3.787506103515625
 30
0.0
 11
-98.0625030323863
 21
3.787506103515625
 31
0.0
  0
LINE
  5
236
330
1F
100
AcDbEntity
  8
Layer0048
  6
Continuous
 62
     3
370
    25
100
AcDbLine
 10
-95.56249999254942
 20
3.787506103515625
 30
0.0
 11
-94.57499998062849
 21
3.787506103515625
 31
0.0
  0
LINE
  5
237
330
1F
100
AcDbEntity
  8
Layer0048
  6
Continuous
 62
     3
370
    25
100
AcDbLine
 10
-92.0749969407916
 20
3.787506103515625
 30
0.0
 11
-91.08749692887068
 21
3.787506103515625
 31
0.0
  0
LINE
  5
238
330
1F
100
AcDbEntity
  8
Layer0048
  6
Continuous
 62
     3
370
    25
100
AcDbLine
 10
-88.58750151842833
 20
3.787506103515625
 30
0.0
 11
-87.6000015065074
 21
3.787506103515625
 31
0.0
  0
LINE
  5
239
330
1F
100
AcDbEntity
  8
Layer0048
  6
Continuous
 62
     3
370
    25
100
AcDbLine
 10
-85.09999846667051
 20
3.787506103515625
 30
0.0
 11
-84.11249845474958
 21
3.787506103515625
 31
0.0
  0
LINE
  5
23A
330
1F
100
AcDbEntity
  8
Layer0048
  6
Continuous
 62
     3
370
    25
100
AcDbLine
 10
-81.61250304430723
 20
3.787506103515625
 30
0.0
 11
-80.6250030323863
 21
3.787506103515625
 31
0.0
  0
LINE
  5
23B
330
1F
100
AcDbEntity
  8
Layer0048
  6
Continuous
 62
     3
370
    25
100
AcDbLine
 10
-78.12499999254942
 20
3.787506103515625
 30
0.0
 11
-77.13749998062849
 21
3.787506103515625
 31
0.0
  0
LINE
  5
23C
330
1F
100
AcDbEntity
  8
Layer0048
  6
Continuous
 62
     3
370
    25
100
AcDbLine
 10
-74.6374969407916
 20
3.787506103515625
 30
0.0
 11
-73.64999692887068
 21
3.787506103515625
 31
0.0
  0
LINE
  5
23D
330
1F
100
AcDbEntity
  8
Layer0048
  6
Continuous
 62
     3
370
    25
100
AcDbLine
 10
-71.15000151842833
 20
3.787506103515625
 30
0.0
 11
-70.1625015065074
 21
3.787506103515625
 31
0.0
  0
LINE
  5
23E
330
1F
100
AcDbEntity
  8
Layer0048
  6
Continuous
 62
     3
370
    25
100
AcDbLine
 10
-67.66249846667051
 20
3.787506103515625
 30
0.0
 11
-66.67499845474958
 21
3.787506103515625
 31
0.0
  0
LINE
  5
23F
330
1F
100
AcDbEntity
  8
Layer0048
  6
Continuous
 62
     3
370
    25
100
AcDbLine
 10
-64.17500304430723
 20
3.787506103515625
 30
0.0
 11
-63.22500180453062
 21
3.787506103515625
 31
0.0
  0
LINE
  5
240
330
1F
100
AcDbEntity
  8
Layer0048
  6
Continuous
 62
     3
370
    25
100
AcDbLine
 10
-119.9749984666705
 20
2.912506103515625
 30
0.0
 11
-118.9874984547496
 21
2.912506103515625
 31
0.0
  0
LINE
  5
241
330
1F
100
AcDbEntity
  8
Layer0048
  6
Continuous
 62
     3
370
    25
100
AcDbLine
 10
-116.4875030443072
 20
2.912506103515625
 30
0.0
 11
-115.5000030323863
 21
2.912506103515625
 31
0.0
  0
LINE
  5
242
330
1F
100
AcDbEntity
  8
Layer0048
  6
Continuous
 62
     3
370
    25
100
AcDbLine
 10
-112.9999999925494
 20
2.912506103515625
 30
0.0
 11
-112.0124999806285
 21
2.912506103515625
 31
0.0
  0
LINE
  5
243
330
1F
100
AcDbEntity
  8
Layer0048
  6
Continuous
 62
     3
370
    25
100
AcDbLine
 10
-109.5124969407916
 20
2.912506103515625
 30
0.0
 11
-108.5249969288707
 21
2.912506103515625
 31
0.0
  0
LINE
  5
244
330
1F
100
AcDbEntity
  8
Layer0048
  6
Continuous
 62
     3
370
    25
100
AcDbLine
 10
-106.0250015184283
 20
2.912506103515625
 30
0.0
 11
-105.0375015065074
 21
2.912506103515625
 31
0.0
  0
LINE
  5
245
330
1F
100
AcDbEntity
  8
Layer0048
  6
Continuous
 62
     3
370
    25
100
AcDbLine
 10
-102.5374984666705
 20
2.912506103515625
 30
0.0
 11
-101.5499984547496
 21
2.912506103515625
 31
0.0
  0
LINE
  5
246
330
1F
100
AcDbEntity
  8
Layer0048
  6
Continuous
 62
     3
370
    25
100
AcDbLine
 10
-99.05000304430723
 20
2.912506103515625
 30
0.0
 11
-98.0625030323863
 21
2.912506103515625
 31
0.0
  0
LINE
  5
247
330
1F
100
AcDbEntity
  8
Layer0048
  6
Continuous
 62
     3
370
    25
100
AcDbLine
 10
-95.56249999254942
 20
2.912506103515625
 30
0.0
 11
-94.57499998062849
 21
2.912506103515625
 31
0.0
  0
LINE
  5
248
330
1F
100
AcDbEntity
  8
Layer0048
  6
Continuous
 62
     3
370
    25
100
AcDbLine
 10
-92.0749969407916
 20
2.912506103515625
 30
0.0
 11
-91.08749692887068
 21
2.912506103515625
 31
0.0
  0
LINE
  5
249
330
1F
100
AcDbEntity
  8
Layer0048
  6
Continuous
 62
     3
370
    25
100
AcDbLine
 10
-88.58750151842833
 20
2.912506103515625
 30
0.0
 11
-87.6000015065074
 21
2.912506103515625
 31
0.0
  0
LINE
  5
24A
330
1F
100
AcDbEntity
  8
Layer0048
  6
Continuous
 62
     3
370
    25
100
AcDbLine
 10
-85.09999846667051
 20
2.912506103515625
 30
0.0
 11
-84.11249845474958
 21
2.912506103515625
 31
0.0
  0
LINE
  5
24B
330
1F
100
AcDbEntity
  8
Layer0048
  6
Continuous
 62
     3
370
    25
100
AcDbLine
 10
-81.61250304430723
 20
2.912506103515625
 30
0.0
 11
-80.6250030323863
 21
2.912506103515625
 31
0.0
  0
LINE
  5
24C
330
1F
100
AcDbEntity
  8
Layer0048
  6
Continuous
 62
     3
370
    25
100
AcDbLine
 10
-78.12499999254942
 20
2.912506103515625
 30
0.0
 11
-77.13749998062849
 21
2.912506103515625
 31
0.0
  0
LINE
  5
24D
330
1F
100
AcDbEntity
  8
Layer0048
  6
Continuous
 62
     3
370
    25
100
AcDbLine
 10
-74.6374969407916
 20
2.912506103515625
 30
0.0
 11
-73.64999692887068
 21
2.912506103515625
 31
0.0
  0
LINE
  5
24E
330
1F
100
AcDbEntity
  8
Layer0048
  6
Continuous
 62
     3
370
    25
100
AcDbLine
 10
-71.15000151842833
 20
2.912506103515625
 30
0.0
 11
-70.1625015065074
 21
2.912506103515625
 31
0.0
  0
LINE
  5
24F
330
1F
100
AcDbEntity
  8
Layer0048
  6
Continuous
 62
     3
370
    25
100
AcDbLine
 10
-67.66249846667051
 20
2.912506103515625
 30
0.0
 11
-66.67499845474958
 21
2.912506103515625
 31
0.0
  0
LINE
  5
250
330
1F
100
AcDbEntity
  8
Layer0048
  6
Continuous
 62
     3
370
    25
100
AcDbLine
 10
-64.17500304430723
 20
2.912506103515625
 30
0.0
 11
-63.22500180453062
 21
2.912506103515625
 31
0.0
  0
LINE
  5
251
330
1F
100
AcDbEntity
  8
Layer0048
  6
Continuous
 62
     3
370
    25
100
AcDbLine
 10
-119.9749984666705
 20
-8.712501525878906
 30
0.0
 11
-118.9874984547496
 21
-8.712501525878906
 31
0.0
  0
LINE
  5
252
330
1F
100
AcDbEntity
  8
Layer0048
  6
Continuous
 62
     3
370
    25
100
AcDbLine
 10
-116.4875030443072
 20
-8.712501525878906
 30
0.0
 11
-115.5000030323863
 21
-8.712501525878906
 31
0.0
  0
LINE
  5
253
330
1F
100
AcDbEntity
  8
Layer0048
  6
Continuous
 62
     3
370
    25
100
AcDbLine
 10
-112.9999999925494
 20
-8.712501525878906
 30
0.0
 11
-112.0124999806285
 21
-8.712501525878906
 31
0.0
  0
LINE
  5
254
330
1F
100
AcDbEntity
  8
Layer0048
  6
Continuous
 62
     3
370
    25
100
AcDbLine
 10
-109.5124969407916
 20
-8.712501525878906
 30
0.0
 11
-108.5249969288707
 21
-8.712501525878906
 31
0.0
  0
LINE
  5
255
330
1F
100
AcDbEntity
  8
Layer0048
  6
Continuous
 62
     3
370
    25
100
AcDbLine
 10
-106.0250015184283
 20
-8.712501525878906
 30
0.0
 11
-105.0375015065074
 21
-8.712501525878906
 31
0.0
  0
LINE
  5
256
330
1F
100
AcDbEntity
  8
Layer0048
  6
Continuous
 62
     3
370
    25
100
AcDbLine
 10
-102.5374984666705
 20
-8.712501525878906
 30
0.0
 11
-101.5499984547496
 21
-8.712501525878906
 31
0.0
  0
LINE
  5
257
330
1F
100
AcDbEntity
  8
Layer0048
  6
Continuous
 62
     3
370
    25
100
AcDbLine
 10
-99.05000304430723
 20
-8.712501525878906
 30
0.0
 11
-98.0625030323863
 21
-8.712501525878906
 31
0.0
  0
LINE
  5
258
330
1F
100
AcDbEntity
  8
Layer0048
  6
Continuous
 62
     3
370
    25
100
AcDbLine
 10
-95.56249999254942
 20
-8.712501525878906
 30
0.0
 11
-94.57499998062849
 21
-8.712501525878906
 31
0.0
  0
LINE
  5
259
330
1F
100
AcDbEntity
  8
Layer0048
  6
Continuous
 62
     3
370
    25
100
AcDbLine
 10
-92.0749969407916
 20
-8.712501525878906
 30
0.0
 11
-91.08749692887068
 21
-8.712501525878906
 31
0.0
  0
LINE
  5
25A
330
1F
100
AcDbEntity
  8
Layer0048
  6
Continuous
 62
     3
370
    25
100
AcDbLine
 10
-88.58750151842833
 20
-8.712501525878906
 30
0.0
 11
-87.6000015065074
 21
-8.712501525878906
 31
0.0
  0
LINE
  5
25B
330
1F
100
AcDbEntity
  8
Layer0048
  6
Continuous
 62
     3
370
    25
100
AcDbLine
 10
-85.09999846667051
 20
-8.712501525878906
 30
0.0
 11
-84.11249845474958
 21
-8.712501525878906
 31
0.0
  0
LINE
  5
25C
330
1F
100
AcDbEntity
  8
Layer0048
  6
Continuous
 62
     3
370
    25
100
AcDbLine
 10
-81.61250304430723
 20
-8.712501525878906
 30
0.0
 11
-80.6250030323863
 21
-8.712501525878906
 31
0.0
  0
LINE
  5
25D
330
1F
100
AcDbEntity
  8
Layer0048
  6
Continuous
 62
     3
370
    25
100
AcDbLine
 10
-78.12499999254942
 20
-8.712501525878906
 30
0.0
 11
-77.13749998062849
 21
-8.712501525878906
 31
0.0
  0
LINE
  5
25E
330
1F
100
AcDbEntity
  8
Layer0048
  6
Continuous
 62
     3
370
    25
100
AcDbLine
 10
-74.6374969407916
 20
-8.712501525878906
 30
0.0
 11
-73.64999692887068
 21
-8.712501525878906
 31
0.0
  0
LINE
  5
25F
330
1F
100
AcDbEntity
  8
Layer0048
  6
Continuous
 62
     3
370
    25
100
AcDbLine
 10
-71.15000151842833
 20
-8.712501525878906
 30
0.0
 11
-70.1625015065074
 21
-8.712501525878906
 31
0.0
  0
LINE
  5
260
330
1F
100
AcDbEntity
  8
Layer0048
  6
Continuous
 62
     3
370
    25
100
AcDbLine
 10
-67.66249846667051
 20
-8.712501525878906
 30
0.0
 11
-66.67499845474958
 21
-8.712501525878906
 31
0.0
  0
LINE
  5
261
330
1F
100
AcDbEntity
  8
Layer0048
  6
Continuous
 62
     3
370
    25
100
AcDbLine
 10
-64.17500304430723
 20
-8.712501525878906
 30
0.0
 11
-63.22500180453062
 21
-8.712501525878906
 31
0.0
  0
LINE
  5
262
330
1F
100
AcDbEntity
  8
Layer0048
  6
Continuous
 62
     3
370
    25
100
AcDbLine
 10
-119.9749984666705
 20
-9.587501525878906
 30
0.0
 11
-118.9874984547496
 21
-9.587501525878906
 31
0.0
  0
LINE
  5
263
330
1F
100
AcDbEntity
  8
Layer0048
  6
Continuous
 62
     3
370
    25
100
AcDbLine
 10
-116.4875030443072
 20
-9.587501525878906
 30
0.0
 11
-115.5000030323863
 21
-9.587501525878906
 31
0.0
  0
LINE
  5
264
330
1F
100
AcDbEntity
  8
Layer0048
  6
Continuous
 62
     3
370
    25
100
AcDbLine
 10
-112.9999999925494
 20
-9.587501525878906
 30
0.0
 11
-112.0124999806285
 21
-9.587501525878906
 31
0.0
  0
LINE
  5
265
330
1F
100
AcDbEntity
  8
Layer0048
  6
Continuous
 62
     3
370
    25
100
AcDbLine
 10
-109.5124969407916
 20
-9.587501525878906
 30
0.0
 11
-108.5249969288707
 21
-9.587501525878906
 31
0.0
  0
LINE
  5
266
330
1F
100
AcDbEntity
  8
Layer0048
  6
Continuous
 62
     3
370
    25
100
AcDbLine
 10
-106.0250015184283
 20
-9.587501525878906
 30
0.0
 11
-105.0375015065074
 21
-9.587501525878906
 31
0.0
  0
LINE
  5
267
330
1F
100
AcDbEntity
  8
Layer0048
  6
Continuous
 62
     3
370
    25
100
AcDbLine
 10
-102.5374984666705
 20
-9.587501525878906
 30
0.0
 11
-101.5499984547496
 21
-9.587501525878906
 31
0.0
  0
LINE
  5
268
330
1F
100
AcDbEntity
  8
Layer0048
  6
Continuous
 62
     3
370
    25
100
AcDbLine
 10
-99.05000304430723
 20
-9.587501525878906
 30
0.0
 11
-98.0625030323863
 21
-9.587501525878906
 31
0.0
  0
LINE
  5
269
330
1F
100
AcDbEntity
  8
Layer0048
  6
Continuous
 62
     3
370
    25
100
AcDbLine
 10
-95.56249999254942
 20
-9.587501525878906
 30
0.0
 11
-94.57499998062849
 21
-9.587501525878906
 31
0.0
  0
LINE
  5
26A
330
1F
100
AcDbEntity
  8
Layer0048
  6
Continuous
 62
     3
370
    25
100
AcDbLine
 10
-92.0749969407916
 20
-9.587501525878906
 30
0.0
 11
-91.08749692887068
 21
-9.587501525878906
 31
0.0
  0
LINE
  5
26B
330
1F
100
AcDbEntity
  8
Layer0048
  6
Continuous
 62
     3
370
    25
100
AcDbLine
 10
-88.58750151842833
 20
-9.587501525878906
 30
0.0
 11
-87.6000015065074
 21
-9.587501525878906
 31
0.0
  0
LINE
  5
26C
330
1F
100
AcDbEntity
  8
Layer0048
  6
Continuous
 62
     3
370
    25
100
AcDbLine
 10
-85.09999846667051
 20
-9.587501525878906
 30
0.0
 11
-84.11249845474958
 21
-9.587501525878906
 31
0.0
  0
LINE
  5
26D
330
1F
100
AcDbEntity
  8
Layer0048
  6
Continuous
 62
     3
370
    25
100
AcDbLine
 10
-81.61250304430723
 20
-9.587501525878906
 30
0.0
 11
-80.6250030323863
 21
-9.587501525878906
 31
0.0
  0
LINE
  5
26E
330
1F
100
AcDbEntity
  8
Layer0048
  6
Continuous
 62
     3
370
    25
100
AcDbLine
 10
-78.12499999254942
 20
-9.587501525878906
 30
0.0
 11
-77.13749998062849
 21
-9.587501525878906
 31
0.0
  0
LINE
  5
26F
330
1F
100
AcDbEntity
  8
Layer0048
  6
Continuous
 62
     3
370
    25
100
AcDbLine
 10
-74.6374969407916
 20
-9.587501525878906
 30
0.0
 11
-73.64999692887068
 21
-9.587501525878906
 31
0.0
  0
LINE
  5
270
330
1F
100
AcDbEntity
  8
Layer0048
  6
Continuous
 62
     3
370
    25
100
AcDbLine
 10
-71.15000151842833
 20
-9.587501525878906
 30
0.0
 11
-70.1625015065074
 21
-9.587501525878906
 31
0.0
  0
LINE
  5
271
330
1F
100
AcDbEntity
  8
Layer0048
  6
Continuous
 62
     3
370
    25
100
AcDbLine
 10
-67.66249846667051
 20
-9.587501525878906
 30
0.0
 11
-66.67499845474958
 21
-9.587501525878906
 31
0.0
  0
LINE
  5
272
330
1F
100
AcDbEntity
  8
Layer0048
  6
Continuous
 62
     3
370
    25
100
AcDbLine
 10
-64.17500304430723
 20
-9.587501525878906
 30
0.0
 11
-63.22500180453062
 21
-9.587501525878906
 31
0.0
  0
LINE
  5
273
330
1F
100
AcDbEntity
  8
Layer0048
  6
Continuous
 62
     3
370
    25
100
AcDbLine
 10
-122.4749984666705
 20
-20.89999389648437
 30
0.0
 11
-122.4749984666705
 21
52.60000610351562
 31
0.0
  0
LINE
  5
274
330
1F
100
AcDbEntity
  8
Layer0048
  6
Continuous
 62
     3
370
    25
100
AcDbLine
 10
-122.4749984666705
 20
-20.89999389648437
 30
0.0
 11
-119.9749984666705
 21
-20.89999389648437
 31
0.0
  0
LINE
  5
275
330
1F
100
AcDbEntity
  8
Layer0048
  6
Continuous
 62
     3
370
    25
100
AcDbLine
 10
-119.9749984666705
 20
-20.89999389648437
 30
0.0
 11
-119.9749984666705
 21
52.60000610351562
 31
0.0
  0
LINE
  5
276
330
1F
100
AcDbEntity
  8
Layer0048
  6
Continuous
 62
     3
370
    25
100
AcDbLine
 10
-122.4749984666705
 20
52.60000610351562
 30
0.0
 11
-119.9749984666705
 21
52.60000610351562
 31
0.0
  0
LINE
  5
277
330
1F
100
AcDbEntity
  8
Layer0048
  6
Continuous
 62
     3
370
    25
100
AcDbLine
 10
-121.9749984666705
 20
-20.89999389648437
 30
0.0
 11
-121.9749984666705
 21
52.60000610351562
 31
0.0
  0
LINE
  5
278
330
1F
100
AcDbEntity
  8
Layer0048
  6
Continuous
 62
     3
370
    25
100
AcDbLine
 10
-120.4749984666705
 20
-20.89999389648437
 30
0.0
 11
-120.4749984666705
 21
52.60000610351562
 31
0.0
  0
LINE
  5
279
330
1F
100
AcDbEntity
  8
Layer0048
  6
Continuous
 62
     3
370
    25
100
AcDbLine
 10
-121.2249984666705
 20
-20.27499389648437
 30
0.0
 11
-121.2249984666705
 21
51.97500610351563
 31
0.0
  0
LINE
  5
27A
330
1F
100
AcDbEntity
  8
Layer0048
  6
Continuous
 62
     3
370
    25
100
AcDbLine
 10
-118.9874992296099
 20
-20.89999389648437
 30
0.0
 11
-118.9874992296099
 21
52.60000610351562
 31
0.0
  0
LINE
  5
27B
330
1F
100
AcDbEntity
  8
Layer0048
  6
Continuous
 62
     3
370
    25
100
AcDbLine
 10
-118.9874992296099
 20
-20.89999389648437
 30
0.0
 11
-116.4874992296099
 21
-20.89999389648437
 31
0.0
  0
LINE
  5
27C
330
1F
100
AcDbEntity
  8
Layer0048
  6
Continuous
 62
     3
370
    25
100
AcDbLine
 10
-116.4874992296099
 20
-20.89999389648437
 30
0.0
 11
-116.4874992296099
 21
52.60000610351562
 31
0.0
  0
LINE
  5
27D
330
1F
100
AcDbEntity
  8
Layer0048
  6
Continuous
 62
     3
370
    25
100
AcDbLine
 10
-118.9874992296099
 20
52.60000610351562
 30
0.0
 11
-116.4874992296099
 21
52.60000610351562
 31
0.0
  0
LINE
  5
27E
330
1F
100
AcDbEntity
  8
Layer0048
  6
Continuous
 62
     3
370
    25
100
AcDbLine
 10
-118.4874992296099
 20
-20.89999389648437
 30
0.0
 11
-118.4874992296099
 21
52.60000610351562
 31
0.0
  0
LINE
  5
27F
330
1F
100
AcDbEntity
  8
Layer0048
  6
Continuous
 62
     3
370
    25
100
AcDbLine
 10
-116.9874992296099
 20
-20.89999389648437
 30
0.0
 11
-116.9874992296099
 21
52.60000610351562
 31
0.0
  0
LINE
  5
280
330
1F
100
AcDbEntity
  8
Layer0048
  6
Continuous
 62
     3
370
    25
100
AcDbLine
 10
-117.7374992296099
 20
-20.27499389648437
 30
0.0
 11
-117.7374992296099
 21
51.97500610351563
 31
0.0
  0
LINE
  5
281
330
1F
100
AcDbEntity
  8
Layer0048
  6
Continuous
 62
     3
370
    25
100
AcDbLine
 10
-115.4999999925494
 20
-20.89999389648437
 30
0.0
 11
-115.4999999925494
 21
52.60000610351562
 31
0.0
  0
LINE
  5
282
330
1F
100
AcDbEntity
  8
Layer0048
  6
Continuous
 62
     3
370
    25
100
AcDbLine
 10
-115.4999999925494
 20
-20.89999389648437
 30
0.0
 11
-112.9999999925494
 21
-20.89999389648437
 31
0.0
  0
LINE
  5
283
330
1F
100
AcDbEntity
  8
Layer0048
  6
Continuous
 62
     3
370
    25
100
AcDbLine
 10
-112.9999999925494
 20
-20.89999389648437
 30
0.0
 11
-112.9999999925494
 21
52.60000610351562
 31
0.0
  0
LINE
  5
284
330
1F
100
AcDbEntity
  8
Layer0048
  6
Continuous
 62
     3
370
    25
100
AcDbLine
 10
-115.4999999925494
 20
52.60000610351562
 30
0.0
 11
-112.9999999925494
 21
52.60000610351562
 31
0.0
  0
LINE
  5
285
330
1F
100
AcDbEntity
  8
Layer0048
  6
Continuous
 62
     3
370
    25
100
AcDbLine
 10
-114.9999999925494
 20
-20.89999389648437
 30
0.0
 11
-114.9999999925494
 21
52.60000610351562
 31
0.0
  0
LINE
  5
286
330
1F
100
AcDbEntity
  8
Layer0048
  6
Continuous
 62
     3
370
    25
100
AcDbLine
 10
-113.4999999925494
 20
-20.89999389648437
 30
0.0
 11
-113.4999999925494
 21
52.60000610351562
 31
0.0
  0
LINE
  5
287
330
1F
100
AcDbEntity
  8
Layer0048
  6
Continuous
 62
     3
370
    25
100
AcDbLine
 10
-114.2499999925494
 20
-20.27499389648437
 30
0.0
 11
-114.2499999925494
 21
51.97500610351563
 31
0.0
  0
LINE
  5
288
330
1F
100
AcDbEntity
  8
Layer0048
  6
Continuous
 62
     3
370
    25
100
AcDbLine
 10
-112.0124969407916
 20
-20.89999389648437
 30
0.0
 11
-112.0124969407916
 21
52.60000610351562
 31
0.0
  0
LINE
  5
289
330
1F
100
AcDbEntity
  8
Layer0048
  6
Continuous
 62
     3
370
    25
100
AcDbLine
 10
-112.0124969407916
 20
-20.89999389648437
 30
0.0
 11
-109.5124969407916
 21
-20.89999389648437
 31
0.0
  0
LINE
  5
28A
330
1F
100
AcDbEntity
  8
Layer0048
  6
Continuous
 62
     3
370
    25
100
AcDbLine
 10
-109.5124969407916
 20
-20.89999389648437
 30
0.0
 11
-109.5124969407916
 21
52.60000610351562
 31
0.0
  0
LINE
  5
28B
330
1F
100
AcDbEntity
  8
Layer0048
  6
Continuous
 62
     3
370
    25
100
AcDbLine
 10
-112.0124969407916
 20
52.60000610351562
 30
0.0
 11
-109.5124969407916
 21
52.60000610351562
 31
0.0
  0
LINE
  5
28C
330
1F
100
AcDbEntity
  8
Layer0048
  6
Continuous
 62
     3
370
    25
100
AcDbLine
 10
-111.5124969407916
 20
-20.89999389648437
 30
0.0
 11
-111.5124969407916
 21
52.60000610351562
 31
0.0
  0
LINE
  5
28D
330
1F
100
AcDbEntity
  8
Layer0048
  6
Continuous
 62
     3
370
    25
100
AcDbLine
 10
-110.0124969407916
 20
-20.89999389648437
 30
0.0
 11
-110.0124969407916
 21
52.60000610351562
 31
0.0
  0
LINE
  5
28E
330
1F
100
AcDbEntity
  8
Layer0048
  6
Continuous
 62
     3
370
    25
100
AcDbLine
 10
-110.7624969407916
 20
-20.27499389648437
 30
0.0
 11
-110.7624969407916
 21
51.97500610351563
 31
0.0
  0
LINE
  5
28F
330
1F
100
AcDbEntity
  8
Layer0048
  6
Continuous
 62
     3
370
    25
100
AcDbLine
 10
-108.5250015184283
 20
-20.89999389648437
 30
0.0
 11
-108.5250015184283
 21
52.60000610351562
 31
0.0
  0
LINE
  5
290
330
1F
100
AcDbEntity
  8
Layer0048
  6
Continuous
 62
     3
370
    25
100
AcDbLine
 10
-108.5250015184283
 20
-20.89999389648437
 30
0.0
 11
-106.0250015184283
 21
-20.89999389648437
 31
0.0
  0
LINE
  5
291
330
1F
100
AcDbEntity
  8
Layer0048
  6
Continuous
 62
     3
370
    25
100
AcDbLine
 10
-106.0250015184283
 20
-20.89999389648437
 30
0.0
 11
-106.0250015184283
 21
52.60000610351562
 31
0.0
  0
LINE
  5
292
330
1F
100
AcDbEntity
  8
Layer0048
  6
Continuous
 62
     3
370
    25
100
AcDbLine
 10
-108.5250015184283
 20
52.60000610351562
 30
0.0
 11
-106.0250015184283
 21
52.60000610351562
 31
0.0
  0
LINE
  5
293
330
1F
100
AcDbEntity
  8
Layer0048
  6
Continuous
 62
     3
370
    25
100
AcDbLine
 10
-108.0250015184283
 20
-20.89999389648437
 30
0.0
 11
-108.0250015184283
 21
52.60000610351562
 31
0.0
  0
LINE
  5
294
330
1F
100
AcDbEntity
  8
Layer0048
  6
Continuous
 62
     3
370
    25
100
AcDbLine
 10
-106.5250015184283
 20
-20.89999389648437
 30
0.0
 11
-106.5250015184283
 21
52.60000610351562
 31
0.0
  0
LINE
  5
295
330
1F
100
AcDbEntity
  8
Layer0048
  6
Continuous
 62
     3
370
    25
100
AcDbLine
 10
-107.2750015184283
 20
-20.27499389648437
 30
0.0
 11
-107.2750015184283
 21
51.97500610351563
 31
0.0
  0
LINE
  5
296
330
1F
100
AcDbEntity
  8
Layer0048
  6
Continuous
 62
     3
370
    25
100
AcDbLine
 10
-105.0374984666705
 20
-20.89999389648437
 30
0.0
 11
-105.0374984666705
 21
52.60000610351562
 31
0.0
  0
LINE
  5
297
330
1F
100
AcDbEntity
  8
Layer0048
  6
Continuous
 62
     3
370
    25
100
AcDbLine
 10
-105.0374984666705
 20
-20.89999389648437
 30
0.0
 11
-102.5374984666705
 21
-20.89999389648437
 31
0.0
  0
LINE
  5
298
330
1F
100
AcDbEntity
  8
Layer0048
  6
Continuous
 62
     3
370
    25
100
AcDbLine
 10
-102.5374984666705
 20
-20.89999389648437
 30
0.0
 11
-102.5374984666705
 21
52.60000610351562
 31
0.0
  0
LINE
  5
299
330
1F
100
AcDbEntity
  8
Layer0048
  6
Continuous
 62
     3
370
    25
100
AcDbLine
 10
-105.0374984666705
 20
52.60000610351562
 30
0.0
 11
-102.5374984666705
 21
52.60000610351562
 31
0.0
  0
LINE
  5
29A
330
1F
100
AcDbEntity
  8
Layer0048
  6
Continuous
 62
     3
370
    25
100
AcDbLine
 10
-104.5374984666705
 20
-20.89999389648437
 30
0.0
 11
-104.5374984666705
 21
52.60000610351562
 31
0.0
  0
LINE
  5
29B
330
1F
100
AcDbEntity
  8
Layer0048
  6
Continuous
 62
     3
370
    25
100
AcDbLine
 10
-103.0374984666705
 20
-20.89999389648437
 30
0.0
 11
-103.0374984666705
 21
52.60000610351562
 31
0.0
  0
LINE
  5
29C
330
1F
100
AcDbEntity
  8
Layer0048
  6
Continuous
 62
     3
370
    25
100
AcDbLine
 10
-103.7874984666705
 20
-20.27499389648437
 30
0.0
 11
-103.7874984666705
 21
51.97500610351563
 31
0.0
  0
LINE
  5
29D
330
1F
100
AcDbEntity
  8
Layer0048
  6
Continuous
 62
     3
370
    25
100
AcDbLine
 10
-101.5500030443072
 20
-20.89999389648437
 30
0.0
 11
-101.5500030443072
 21
52.60000610351562
 31
0.0
  0
LINE
  5
29E
330
1F
100
AcDbEntity
  8
Layer0048
  6
Continuous
 62
     3
370
    25
100
AcDbLine
 10
-101.5500030443072
 20
-20.89999389648437
 30
0.0
 11
-99.05000304430723
 21
-20.89999389648437
 31
0.0
  0
LINE
  5
29F
330
1F
100
AcDbEntity
  8
Layer0048
  6
Continuous
 62
     3
370
    25
100
AcDbLine
 10
-99.05000304430723
 20
-20.89999389648437
 30
0.0
 11
-99.05000304430723
 21
52.60000610351562
 31
0.0
  0
LINE
  5
2A0
330
1F
100
AcDbEntity
  8
Layer0048
  6
Continuous
 62
     3
370
    25
100
AcDbLine
 10
-101.5500030443072
 20
52.60000610351562
 30
0.0
 11
-99.05000304430723
 21
52.60000610351562
 31
0.0
  0
LINE
  5
2A1
330
1F
100
AcDbEntity
  8
Layer0048
  6
Continuous
 62
     3
370
    25
100
AcDbLine
 10
-101.0500030443072
 20
-20.89999389648437
 30
0.0
 11
-101.0500030443072
 21
52.60000610351562
 31
0.0
  0
LINE
  5
2A2
330
1F
100
AcDbEntity
  8
Layer0048
  6
Continuous
 62
     3
370
    25
100
AcDbLine
 10
-99.55000304430722
 20
-20.89999389648437
 30
0.0
 11
-99.55000304430722
 21
52.60000610351562
 31
0.0
  0
LINE
  5
2A3
330
1F
100
AcDbEntity
  8
Layer0048
  6
Continuous
 62
     3
370
    25
100
AcDbLine
 10
-100.3000030443072
 20
-20.27499389648437
 30
0.0
 11
-100.3000030443072
 21
51.97500610351563
 31
0.0
  0
LINE
  5
2A4
330
1F
100
AcDbEntity
  8
Layer0048
  6
Continuous
 62
     3
370
    25
100
AcDbLine
 10
-98.06249999254942
 20
-20.89999389648437
 30
0.0
 11
-98.06249999254942
 21
52.60000610351562
 31
0.0
  0
LINE
  5
2A5
330
1F
100
AcDbEntity
  8
Layer0048
  6
Continuous
 62
     3
370
    25
100
AcDbLine
 10
-98.06249999254942
 20
-20.89999389648437
 30
0.0
 11
-95.56249999254942
 21
-20.89999389648437
 31
0.0
  0
LINE
  5
2A6
330
1F
100
AcDbEntity
  8
Layer0048
  6
Continuous
 62
     3
370
    25
100
AcDbLine
 10
-95.56249999254942
 20
-20.89999389648437
 30
0.0
 11
-95.56249999254942
 21
52.60000610351562
 31
0.0
  0
LINE
  5
2A7
330
1F
100
AcDbEntity
  8
Layer0048
  6
Continuous
 62
     3
370
    25
100
AcDbLine
 10
-98.06249999254942
 20
52.60000610351562
 30
0.0
 11
-95.56249999254942
 21
52.60000610351562
 31
0.0
  0
LINE
  5
2A8
330
1F
100
AcDbEntity
  8
Layer0048
  6
Continuous
 62
     3
370
    25
100
AcDbLine
 10
-97.56249999254942
 20
-20.89999389648437
 30
0.0
 11
-97.56249999254942
 21
52.60000610351562
 31
0.0
  0
LINE
  5
2A9
330
1F
100
AcDbEntity
  8
Layer0048
  6
Continuous
 62
     3
370
    25
100
AcDbLine
 10
-96.06249999254942
 20
-20.89999389648437
 30
0.0
 11
-96.06249999254942
 21
52.60000610351562
 31
0.0
  0
LINE
  5
2AA
330
1F
100
AcDbEntity
  8
Layer0048
  6
Continuous
 62
     3
370
    25
100
AcDbLine
 10
-96.81249999254942
 20
-20.27499389648437
 30
0.0
 11
-96.81249999254942
 21
51.97500610351563
 31
0.0
  0
LINE
  5
2AB
330
1F
100
AcDbEntity
  8
Layer0048
  6
Continuous
 62
     3
370
    25
100
AcDbLine
 10
-94.5749969407916
 20
-20.89999389648437
 30
0.0
 11
-94.5749969407916
 21
52.60000610351562
 31
0.0
  0
LINE
  5
2AC
330
1F
100
AcDbEntity
  8
Layer0048
  6
Continuous
 62
     3
370
    25
100
AcDbLine
 10
-94.5749969407916
 20
-20.89999389648437
 30
0.0
 11
-92.0749969407916
 21
-20.89999389648437
 31
0.0
  0
LINE
  5
2AD
330
1F
100
AcDbEntity
  8
Layer0048
  6
Continuous
 62
     3
370
    25
100
AcDbLine
 10
-92.0749969407916
 20
-20.89999389648437
 30
0.0
 11
-92.0749969407916
 21
52.60000610351562
 31
0.0
  0
LINE
  5
2AE
330
1F
100
AcDbEntity
  8
Layer0048
  6
Continuous
 62
     3
370
    25
100
AcDbLine
 10
-94.5749969407916
 20
52.60000610351562
 30
0.0
 11
-92.0749969407916
 21
52.60000610351562
 31
0.0
  0
LINE
  5
2AF
330
1F
100
AcDbEntity
  8
Layer0048
  6
Continuous
 62
     3
370
    25
100
AcDbLine
 10
-94.0749969407916
 20
-20.89999389648437
 30
0.0
 11
-94.0749969407916
 21
52.60000610351562
 31
0.0
  0
LINE
  5
2B0
330
1F
100
AcDbEntity
  8
Layer0048
  6
Continuous
 62
     3
370
    25
100
AcDbLine
 10
-92.5749969407916
 20
-20.89999389648437
 30
0.0
 11
-92.5749969407916
 21
52.60000610351562
 31
0.0
  0
LINE
  5
2B1
330
1F
100
AcDbEntity
  8
Layer0048
  6
Continuous
 62
     3
370
    25
100
AcDbLine
 10
-93.3249969407916
 20
-20.27499389648437
 30
0.0
 11
-93.3249969407916
 21
51.97500610351563
 31
0.0
  0
LINE
  5
2B2
330
1F
100
AcDbEntity
  8
Layer0048
  6
Continuous
 62
     3
370
    25
100
AcDbLine
 10
-91.08750151842833
 20
-20.89999389648437
 30
0.0
 11
-91.08750151842833
 21
52.60000610351562
 31
0.0
  0
LINE
  5
2B3
330
1F
100
AcDbEntity
  8
Layer0048
  6
Continuous
 62
     3
370
    25
100
AcDbLine
 10
-91.08750151842833
 20
-20.89999389648437
 30
0.0
 11
-88.58750151842833
 21
-20.89999389648437
 31
0.0
  0
LINE
  5
2B4
330
1F
100
AcDbEntity
  8
Layer0048
  6
Continuous
 62
     3
370
    25
100
AcDbLine
 10
-88.58750151842833
 20
-20.89999389648437
 30
0.0
 11
-88.58750151842833
 21
52.60000610351562
 31
0.0
  0
LINE
  5
2B5
330
1F
100
AcDbEntity
  8
Layer0048
  6
Continuous
 62
     3
370
    25
100
AcDbLine
 10
-91.08750151842833
 20
52.60000610351562
 30
0.0
 11
-88.58750151842833
 21
52.60000610351562
 31
0.0
  0
LINE
  5
2B6
330
1F
100
AcDbEntity
  8
Layer0048
  6
Continuous
 62
     3
370
    25
100
AcDbLine
 10
-90.58750151842833
 20
-20.89999389648437
 30
0.0
 11
-90.58750151842833
 21
52.60000610351562
 31
0.0
  0
LINE
  5
2B7
330
1F
100
AcDbEntity
  8
Layer0048
  6
Continuous
 62
     3
370
    25
100
AcDbLine
 10
-89.08750151842833
 20
-20.89999389648437
 30
0.0
 11
-89.08750151842833
 21
52.60000610351562
 31
0.0
  0
LINE
  5
2B8
330
1F
100
AcDbEntity
  8
Layer0048
  6
Continuous
 62
     3
370
    25
100
AcDbLine
 10
-89.83750151842833
 20
-20.27499389648437
 30
0.0
 11
-89.83750151842833
 21
51.97500610351563
 31
0.0
  0
LINE
  5
2B9
330
1F
100
AcDbEntity
  8
Layer0048
  6
Continuous
 62
     3
370
    25
100
AcDbLine
 10
-87.59999846667051
 20
-20.89999389648437
 30
0.0
 11
-87.59999846667051
 21
52.60000610351562
 31
0.0
  0
LINE
  5
2BA
330
1F
100
AcDbEntity
  8
Layer0048
  6
Continuous
 62
     3
370
    25
100
AcDbLine
 10
-87.59999846667051
 20
-20.89999389648437
 30
0.0
 11
-85.09999846667051
 21
-20.89999389648437
 31
0.0
  0
LINE
  5
2BB
330
1F
100
AcDbEntity
  8
Layer0048
  6
Continuous
 62
     3
370
    25
100
AcDbLine
 10
-85.09999846667051
 20
-20.89999389648437
 30
0.0
 11
-85.09999846667051
 21
52.60000610351562
 31
0.0
  0
LINE
  5
2BC
330
1F
100
AcDbEntity
  8
Layer0048
  6
Continuous
 62
     3
370
    25
100
AcDbLine
 10
-87.59999846667051
 20
52.60000610351562
 30
0.0
 11
-85.09999846667051
 21
52.60000610351562
 31
0.0
  0
LINE
  5
2BD
330
1F
100
AcDbEntity
  8
Layer0048
  6
Continuous
 62
     3
370
    25
100
AcDbLine
 10
-87.09999846667051
 20
-20.89999389648437
 30
0.0
 11
-87.09999846667051
 21
52.60000610351562
 31
0.0
  0
LINE
  5
2BE
330
1F
100
AcDbEntity
  8
Layer0048
  6
Continuous
 62
     3
370
    25
100
AcDbLine
 10
-85.59999846667051
 20
-20.89999389648437
 30
0.0
 11
-85.59999846667051
 21
52.60000610351562
 31
0.0
  0
LINE
  5
2BF
330
1F
100
AcDbEntity
  8
Layer0048
  6
Continuous
 62
     3
370
    25
100
AcDbLine
 10
-86.34999846667051
 20
-20.27499389648437
 30
0.0
 11
-86.34999846667051
 21
51.97500610351563
 31
0.0
  0
LINE
  5
2C0
330
1F
100
AcDbEntity
  8
Layer0048
  6
Continuous
 62
     3
370
    25
100
AcDbLine
 10
-84.11250304430723
 20
-20.89999389648437
 30
0.0
 11
-84.11250304430723
 21
52.60000610351562
 31
0.0
  0
LINE
  5
2C1
330
1F
100
AcDbEntity
  8
Layer0048
  6
Continuous
 62
     3
370
    25
100
AcDbLine
 10
-84.11250304430723
 20
-20.89999389648437
 30
0.0
 11
-81.61250304430723
 21
-20.89999389648437
 31
0.0
  0
LINE
  5
2C2
330
1F
100
AcDbEntity
  8
Layer0048
  6
Continuous
 62
     3
370
    25
100
AcDbLine
 10
-81.61250304430723
 20
-20.89999389648437
 30
0.0
 11
-81.61250304430723
 21
52.60000610351562
 31
0.0
  0
LINE
  5
2C3
330
1F
100
AcDbEntity
  8
Layer0048
  6
Continuous
 62
     3
370
    25
100
AcDbLine
 10
-84.11250304430723
 20
52.60000610351562
 30
0.0
 11
-81.61250304430723
 21
52.60000610351562
 31
0.0
  0
LINE
  5
2C4
330
1F
100
AcDbEntity
  8
Layer0048
  6
Continuous
 62
     3
370
    25
100
AcDbLine
 10
-83.61250304430723
 20
-20.89999389648437
 30
0.0
 11
-83.61250304430723
 21
52.60000610351562
 31
0.0
  0
LINE
  5
2C5
330
1F
100
AcDbEntity
  8
Layer0048
  6
Continuous
 62
     3
370
    25
100
AcDbLine
 10
-82.11250304430723
 20
-20.89999389648437
 30
0.0
 11
-82.11250304430723
 21
52.60000610351562
 31
0.0
  0
LINE
  5
2C6
330
1F
100
AcDbEntity
  8
Layer0048
  6
Continuous
 62
     3
370
    25
100
AcDbLine
 10
-82.86250304430723
 20
-20.27499389648437
 30
0.0
 11
-82.86250304430723
 21
51.97500610351563
 31
0.0
  0
LINE
  5
2C7
330
1F
100
AcDbEntity
  8
Layer0048
  6
Continuous
 62
     3
370
    25
100
AcDbLine
 10
-80.62499999254942
 20
-20.89999389648437
 30
0.0
 11
-80.62499999254942
 21
52.60000610351562
 31
0.0
  0
LINE
  5
2C8
330
1F
100
AcDbEntity
  8
Layer0048
  6
Continuous
 62
     3
370
    25
100
AcDbLine
 10
-80.62499999254942
 20
-20.89999389648437
 30
0.0
 11
-78.12499999254942
 21
-20.89999389648437
 31
0.0
  0
LINE
  5
2C9
330
1F
100
AcDbEntity
  8
Layer0048
  6
Continuous
 62
     3
370
    25
100
AcDbLine
 10
-78.12499999254942
 20
-20.89999389648437
 30
0.0
 11
-78.12499999254942
 21
52.60000610351562
 31
0.0
  0
LINE
  5
2CA
330
1F
100
AcDbEntity
  8
Layer0048
  6
Continuous
 62
     3
370
    25
100
AcDbLine
 10
-80.62499999254942
 20
52.60000610351562
 30
0.0
 11
-78.12499999254942
 21
52.60000610351562
 31
0.0
  0
LINE
  5
2CB
330
1F
100
AcDbEntity
  8
Layer0048
  6
Continuous
 62
     3
370
    25
100
AcDbLine
 10
-80.12499999254942
 20
-20.89999389648437
 30
0.0
 11
-80.12499999254942
 21
52.60000610351562
 31
0.0
  0
LINE
  5
2CC
330
1F
100
AcDbEntity
  8
Layer0048
  6
Continuous
 62
     3
370
    25
100
AcDbLine
 10
-78.62499999254942
 20
-20.89999389648437
 30
0.0
 11
-78.62499999254942
 21
52.60000610351562
 31
0.0
  0
LINE
  5
2CD
330
1F
100
AcDbEntity
  8
Layer0048
  6
Continuous
 62
     3
370
    25
100
AcDbLine
 10
-79.37499999254942
 20
-20.27499389648437
 30
0.0
 11
-79.37499999254942
 21
51.97500610351563
 31
0.0
  0
LINE
  5
2CE
330
1F
100
AcDbEntity
  8
Layer0048
  6
Continuous
 62
     3
370
    25
100
AcDbLine
 10
-77.1374969407916
 20
-20.89999389648437
 30
0.0
 11
-77.1374969407916
 21
52.60000610351562
 31
0.0
  0
LINE
  5
2CF
330
1F
100
AcDbEntity
  8
Layer0048
  6
Continuous
 62
     3
370
    25
100
AcDbLine
 10
-77.1374969407916
 20
-20.89999389648437
 30
0.0
 11
-74.6374969407916
 21
-20.89999389648437
 31
0.0
  0
LINE
  5
2D0
330
1F
100
AcDbEntity
  8
Layer0048
  6
Continuous
 62
     3
370
    25
100
AcDbLine
 10
-74.6374969407916
 20
-20.89999389648437
 30
0.0
 11
-74.6374969407916
 21
52.60000610351562
 31
0.0
  0
LINE
  5
2D1
330
1F
100
AcDbEntity
  8
Layer0048
  6
Continuous
 62
     3
370
    25
100
AcDbLine
 10
-77.1374969407916
 20
52.60000610351562
 30
0.0
 11
-74.6374969407916
 21
52.60000610351562
 31
0.0
  0
LINE
  5
2D2
330
1F
100
AcDbEntity
  8
Layer0048
  6
Continuous
 62
     3
370
    25
100
AcDbLine
 10
-76.6374969407916
 20
-20.89999389648437
 30
0.0
 11
-76.6374969407916
 21
52.60000610351562
 31
0.0
  0
LINE
  5
2D3
330
1F
100
AcDbEntity
  8
Layer0048
  6
Continuous
 62
     3
370
    25
100
AcDbLine
 10
-75.1374969407916
 20
-20.89999389648437
 30
0.0
 11
-75.1374969407916
 21
52.60000610351562
 31
0.0
  0
LINE
  5
2D4
330
1F
100
AcDbEntity
  8
Layer0048
  6
Continuous
 62
     3
370
    25
100
AcDbLine
 10
-75.8874969407916
 20
-20.27499389648437
 30
0.0
 11
-75.8874969407916
 21
51.97500610351563
 31
0.0
  0
LINE
  5
2D5
330
1F
100
AcDbEntity
  8
Layer0048
  6
Continuous
 62
     3
370
    25
100
AcDbLine
 10
-73.65000151842833
 20
-20.89999389648437
 30
0.0
 11
-73.65000151842833
 21
52.60000610351562
 31
0.0
  0
LINE
  5
2D6
330
1F
100
AcDbEntity
  8
Layer0048
  6
Continuous
 62
     3
370
    25
100
AcDbLine
 10
-73.65000151842833
 20
-20.89999389648437
 30
0.0
 11
-71.15000151842833
 21
-20.89999389648437
 31
0.0
  0
LINE
  5
2D7
330
1F
100
AcDbEntity
  8
Layer0048
  6
Continuous
 62
     3
370
    25
100
AcDbLine
 10
-71.15000151842833
 20
-20.89999389648437
 30
0.0
 11
-71.15000151842833
 21
52.60000610351562
 31
0.0
  0
LINE
  5
2D8
330
1F
100
AcDbEntity
  8
Layer0048
  6
Continuous
 62
     3
370
    25
100
AcDbLine
 10
-73.65000151842833
 20
52.60000610351562
 30
0.0
 11
-71.15000151842833
 21
52.60000610351562
 31
0.0
  0
LINE
  5
2D9
330
1F
100
AcDbEntity
  8
Layer0048
  6
Continuous
 62
     3
370
    25
100
AcDbLine
 10
-73.15000151842833
 20
-20.89999389648437
 30
0.0
 11
-73.15000151842833
 21
52.60000610351562
 31
0.0
  0
LINE
  5
2DA
330
1F
100
AcDbEntity
  8
Layer0048
  6
Continuous
 62
     3
370
    25
100
AcDbLine
 10
-71.65000151842833
 20
-20.89999389648437
 30
0.0
 11
-71.65000151842833
 21
52.60000610351562
 31
0.0
  0
LINE
  5
2DB
330
1F
100
AcDbEntity
  8
Layer0048
  6
Continuous
 62
     3
370
    25
100
AcDbLine
 10
-72.40000151842833
 20
-20.27499389648437
 30
0.0
 11
-72.40000151842833
 21
51.97500610351563
 31
0.0
  0
LINE
  5
2DC
330
1F
100
AcDbEntity
  8
Layer0048
  6
Continuous
 62
     3
370
    25
100
AcDbLine
 10
-70.16249846667051
 20
-20.89999389648437
 30
0.0
 11
-70.16249846667051
 21
52.60000610351562
 31
0.0
  0
LINE
  5
2DD
330
1F
100
AcDbEntity
  8
Layer0048
  6
Continuous
 62
     3
370
    25
100
AcDbLine
 10
-70.16249846667051
 20
-20.89999389648437
 30
0.0
 11
-67.66249846667051
 21
-20.89999389648437
 31
0.0
  0
LINE
  5
2DE
330
1F
100
AcDbEntity
  8
Layer0048
  6
Continuous
 62
     3
370
    25
100
AcDbLine
 10
-67.66249846667051
 20
-20.89999389648437
 30
0.0
 11
-67.66249846667051
 21
52.60000610351562
 31
0.0
  0
LINE
  5
2DF
330
1F
100
AcDbEntity
  8
Layer0048
  6
Continuous
 62
     3
370
    25
100
AcDbLine
 10
-70.16249846667051
 20
52.60000610351562
 30
0.0
 11
-67.66249846667051
 21
52.60000610351562
 31
0.0
  0
LINE
  5
2E0
330
1F
100
AcDbEntity
  8
Layer0048
  6
Continuous
 62
     3
370
    25
100
AcDbLine
 10
-69.66249846667051
 20
-20.89999389648437
 30
0.0
 11
-69.66249846667051
 21
52.60000610351562
 31
0.0
  0
LINE
  5
2E1
330
1F
100
AcDbEntity
  8
Layer0048
  6
Continuous
 62
     3
370
    25
100
AcDbLine
 10
-68.16249846667051
 20
-20.89999389648437
 30
0.0
 11
-68.16249846667051
 21
52.60000610351562
 31
0.0
  0
LINE
  5
2E2
330
1F
100
AcDbEntity
  8
Layer0048
  6
Continuous
 62
     3
370
    25
100
AcDbLine
 10
-68.91249846667051
 20
-20.27499389648437
 30
0.0
 11
-68.91249846667051
 21
51.97500610351563
 31
0.0
  0
LINE
  5
2E3
330
1F
100
AcDbEntity
  8
Layer0048
  6
Continuous
 62
     3
370
    25
100
AcDbLine
 10
-66.67500304430723
 20
-20.89999389648437
 30
0.0
 11
-66.67500304430723
 21
52.60000610351562
 31
0.0
  0
LINE
  5
2E4
330
1F
100
AcDbEntity
  8
Layer0048
  6
Continuous
 62
     3
370
    25
100
AcDbLine
 10
-66.67500304430723
 20
-20.89999389648437
 30
0.0
 11
-64.17500304430723
 21
-20.89999389648437
 31
0.0
  0
LINE
  5
2E5
330
1F
100
AcDbEntity
  8
Layer0048
  6
Continuous
 62
     3
370
    25
100
AcDbLine
 10
-64.17500304430723
 20
-20.89999389648437
 30
0.0
 11
-64.17500304430723
 21
52.60000610351562
 31
0.0
  0
LINE
  5
2E6
330
1F
100
AcDbEntity
  8
Layer0048
  6
Continuous
 62
     3
370
    25
100
AcDbLine
 10
-66.67500304430723
 20
52.60000610351562
 30
0.0
 11
-64.17500304430723
 21
52.60000610351562
 31
0.0
  0
LINE
  5
2E7
330
1F
100
AcDbEntity
  8
Layer0048
  6
Continuous
 62
     3
370
    25
100
AcDbLine
 10
-66.17500304430723
 20
-20.89999389648437
 30
0.0
 11
-66.17500304430723
 21
52.60000610351562
 31
0.0
  0
LINE
  5
2E8
330
1F
100
AcDbEntity
  8
Layer0048
  6
Continuous
 62
     3
370
    25
100
AcDbLine
 10
-64.67500304430723
 20
-20.89999389648437
 30
0.0
 11
-64.67500304430723
 21
52.60000610351562
 31
0.0
  0
LINE
  5
2E9
330
1F
100
AcDbEntity
  8
Layer0048
  6
Continuous
 62
     3
370
    25
100
AcDbLine
 10
-65.42500304430723
 20
-20.27499389648437
 30
0.0
 11
-65.42500304430723
 21
51.97500610351563
 31
0.0
  0
LINE
  5
2EA
330
1F
100
AcDbEntity
  8
Layer0048
  6
Continuous
 62
     3
370
    25
100
AcDbLine
 10
-63.22499846667051
 20
-20.89999389648437
 30
0.0
 11
-63.22499846667051
 21
52.60000610351562
 31
0.0
  0
LINE
  5
2EB
330
1F
100
AcDbEntity
  8
Layer0048
  6
Continuous
 62
     3
370
    25
100
AcDbLine
 10
-63.22499846667051
 20
-20.89999389648437
 30
0.0
 11
-60.72499846667051
 21
-20.89999389648437
 31
0.0
  0
LINE
  5
2EC
330
1F
100
AcDbEntity
  8
Layer0048
  6
Continuous
 62
     3
370
    25
100
AcDbLine
 10
-60.72499846667051
 20
-20.89999389648437
 30
0.0
 11
-60.72499846667051
 21
52.60000610351562
 31
0.0
  0
LINE
  5
2ED
330
1F
100
AcDbEntity
  8
Layer0048
  6
Continuous
 62
     3
370
    25
100
AcDbLine
 10
-63.22499846667051
 20
52.60000610351562
 30
0.0
 11
-60.72499846667051
 21
52.60000610351562
 31
0.0
  0
LINE
  5
2EE
330
1F
100
AcDbEntity
  8
Layer0048
  6
Continuous
 62
     3
370
    25
100
AcDbLine
 10
-62.72499846667051
 20
-20.89999389648437
 30
0.0
 11
-62.72499846667051
 21
52.60000610351562
 31
0.0
  0
LINE
  5
2EF
330
1F
100
AcDbEntity
  8
Layer0048
  6
Continuous
 62
     3
370
    25
100
AcDbLine
 10
-61.22499846667051
 20
-20.89999389648437
 30
0.0
 11
-61.22499846667051
 21
52.60000610351562
 31
0.0
  0
LINE
  5
2F0
330
1F
100
AcDbEntity
  8
Layer0048
  6
Continuous
 62
     3
370
    25
100
AcDbLine
 10
-61.97499846667051
 20
-20.27499389648437
 30
0.0
 11
-61.97499846667051
 21
51.97500610351563
 31
0.0
  0
LINE
  5
2F1
330
1F
100
AcDbEntity
  8
Layer0048
  6
Continuous
 62
     3
370
    25
100
AcDbLine
 10
-119.9749984666705
 20
47.60000610351562
 30
0.0
 11
-118.9874984547496
 21
47.60000610351562
 31
0.0
  0
LINE
  5
2F2
330
1F
100
AcDbEntity
  8
Layer0048
  6
Continuous
 62
     3
370
    25
100
AcDbLine
 10
-116.4875030443072
 20
47.60000610351562
 30
0.0
 11
-115.5000030323863
 21
47.60000610351562
 31
0.0
  0
LINE
  5
2F3
330
1F
100
AcDbEntity
  8
Layer0048
  6
Continuous
 62
     3
370
    25
100
AcDbLine
 10
-112.9999999925494
 20
47.60000610351562
 30
0.0
 11
-112.0124999806285
 21
47.60000610351562
 31
0.0
  0
LINE
  5
2F4
330
1F
100
AcDbEntity
  8
Layer0048
  6
Continuous
 62
     3
370
    25
100
AcDbLine
 10
-109.5124969407916
 20
47.60000610351562
 30
0.0
 11
-108.5249969288707
 21
47.60000610351562
 31
0.0
  0
LINE
  5
2F5
330
1F
100
AcDbEntity
  8
Layer0048
  6
Continuous
 62
     3
370
    25
100
AcDbLine
 10
-106.0250015184283
 20
47.60000610351562
 30
0.0
 11
-105.0375015065074
 21
47.60000610351562
 31
0.0
  0
LINE
  5
2F6
330
1F
100
AcDbEntity
  8
Layer0048
  6
Continuous
 62
     3
370
    25
100
AcDbLine
 10
-102.5374984666705
 20
47.60000610351562
 30
0.0
 11
-101.5499984547496
 21
47.60000610351562
 31
0.0
  0
LINE
  5
2F7
330
1F
100
AcDbEntity
  8
Layer0048
  6
Continuous
 62
     3
370
    25
100
AcDbLine
 10
-99.05000304430723
 20
47.60000610351562
 30
0.0
 11
-98.0625030323863
 21
47.60000610351562
 31
0.0
  0
LINE
  5
2F8
330
1F
100
AcDbEntity
  8
Layer0048
  6
Continuous
 62
     3
370
    25
100
AcDbLine
 10
-95.56249999254942
 20
47.60000610351562
 30
0.0
 11
-94.57499998062849
 21
47.60000610351562
 31
0.0
  0
LINE
  5
2F9
330
1F
100
AcDbEntity
  8
Layer0048
  6
Continuous
 62
     3
370
    25
100
AcDbLine
 10
-92.0749969407916
 20
47.60000610351562
 30
0.0
 11
-91.08749692887068
 21
47.60000610351562
 31
0.0
  0
LINE
  5
2FA
330
1F
100
AcDbEntity
  8
Layer0048
  6
Continuous
 62
     3
370
    25
100
AcDbLine
 10
-88.58750151842833
 20
47.60000610351562
 30
0.0
 11
-87.6000015065074
 21
47.60000610351562
 31
0.0
  0
LINE
  5
2FB
330
1F
100
AcDbEntity
  8
Layer0048
  6
Continuous
 62
     3
370
    25
100
AcDbLine
 10
-85.09999846667051
 20
47.60000610351562
 30
0.0
 11
-84.11249845474958
 21
47.60000610351562
 31
0.0
  0
LINE
  5
2FC
330
1F
100
AcDbEntity
  8
Layer0048
  6
Continuous
 62
     3
370
    25
100
AcDbLine
 10
-81.61250304430723
 20
47.60000610351562
 30
0.0
 11
-80.6250030323863
 21
47.60000610351562
 31
0.0
  0
LINE
  5
2FD
330
1F
100
AcDbEntity
  8
Layer0048
  6
Continuous
 62
     3
370
    25
100
AcDbLine
 10
-78.12499999254942
 20
47.60000610351562
 30
0.0
 11
-77.13749998062849
 21
47.60000610351562
 31
0.0
  0
LINE
  5
2FE
330
1F
100
AcDbEntity
  8
Layer0048
  6
Continuous
 62
     3
370
    25
100
AcDbLine
 10
-74.6374969407916
 20
47.60000610351562
 30
0.0
 11
-73.64999692887068
 21
47.60000610351562
 31
0.0
  0
LINE
  5
2FF
330
1F
100
AcDbEntity
  8
Layer0048
  6
Continuous
 62
     3
370
    25
100
AcDbLine
 10
-71.15000151842833
 20
47.60000610351562
 30
0.0
 11
-70.1625015065074
 21
47.60000610351562
 31
0.0
  0
LINE
  5
300
330
1F
100
AcDbEntity
  8
Layer0048
  6
Continuous
 62
     3
370
    25
100
AcDbLine
 10
-67.66249846667051
 20
47.60000610351562
 30
0.0
 11
-66.67499845474958
 21
47.60000610351562
 31
0.0
  0
LINE
  5
301
330
1F
100
AcDbEntity
  8
Layer0048
  6
Continuous
 62
     3
370
    25
100
AcDbLine
 10
-64.17500304430723
 20
47.60000610351562
 30
0.0
 11
-63.1875030323863
 21
47.60000610351562
 31
0.0
  0
LINE
  5
302
330
1F
100
AcDbEntity
  8
Layer0048
  6
Continuous
 62
     3
370
    25
100
AcDbLine
 10
-119.9749984666705
 20
-15.90000152587891
 30
0.0
 11
-118.9874984547496
 21
-15.90000152587891
 31
0.0
  0
LINE
  5
303
330
1F
100
AcDbEntity
  8
Layer0048
  6
Continuous
 62
     3
370
    25
100
AcDbLine
 10
-116.4875030443072
 20
-15.90000152587891
 30
0.0
 11
-115.5000030323863
 21
-15.90000152587891
 31
0.0
  0
LINE
  5
304
330
1F
100
AcDbEntity
  8
Layer0048
  6
Continuous
 62
     3
370
    25
100
AcDbLine
 10
-112.9999999925494
 20
-15.90000152587891
 30
0.0
 11
-112.0124999806285
 21
-15.90000152587891
 31
0.0
  0
LINE
  5
305
330
1F
100
AcDbEntity
  8
Layer0048
  6
Continuous
 62
     3
370
    25
100
AcDbLine
 10
-109.5124969407916
 20
-15.90000152587891
 30
0.0
 11
-108.5249969288707
 21
-15.90000152587891
 31
0.0
  0
LINE
  5
306
330
1F
100
AcDbEntity
  8
Layer0048
  6
Continuous
 62
     3
370
    25
100
AcDbLine
 10
-106.0250015184283
 20
-15.90000152587891
 30
0.0
 11
-105.0375015065074
 21
-15.90000152587891
 31
0.0
  0
LINE
  5
307
330
1F
100
AcDbEntity
  8
Layer0048
  6
Continuous
 62
     3
370
    25
100
AcDbLine
 10
-102.5374984666705
 20
-15.90000152587891
 30
0.0
 11
-101.5499984547496
 21
-15.90000152587891
 31
0.0
  0
LINE
  5
308
330
1F
100
AcDbEntity
  8
Layer0048
  6
Continuous
 62
     3
370
    25
100
AcDbLine
 10
-99.05000304430723
 20
-15.90000152587891
 30
0.0
 11
-98.0625030323863
 21
-15.90000152587891
 31
0.0
  0
LINE
  5
309
330
1F
100
AcDbEntity
  8
Layer0048
  6
Continuous
 62
     3
370
    25
100
AcDbLine
 10
-95.56249999254942
 20
-15.90000152587891
 30
0.0
 11
-94.57499998062849
 21
-15.90000152587891
 31
0.0
  0
LINE
  5
30A
330
1F
100
AcDbEntity
  8
Layer0048
  6
Continuous
 62
     3
370
    25
100
AcDbLine
 10
-92.0749969407916
 20
-15.90000152587891
 30
0.0
 11
-91.08749692887068
 21
-15.90000152587891
 31
0.0
  0
LINE
  5
30B
330
1F
100
AcDbEntity
  8
Layer0048
  6
Continuous
 62
     3
370
    25
100
AcDbLine
 10
-88.58750151842833
 20
-15.90000152587891
 30
0.0
 11
-87.6000015065074
 21
-15.90000152587891
 31
0.0
  0
LINE
  5
30C
330
1F
100
AcDbEntity
  8
Layer0048
  6
Continuous
 62
     3
370
    25
100
AcDbLine
 10
-85.09999846667051
 20
-15.90000152587891
 30
0.0
 11
-84.11249845474958
 21
-15.90000152587891
 31
0.0
  0
LINE
  5
30D
330
1F
100
AcDbEntity
  8
Layer0048
  6
Continuous
 62
     3
370
    25
100
AcDbLine
 10
-81.61250304430723
 20
-15.90000152587891
 30
0.0
 11
-80.6250030323863
 21
-15.90000152587891
 31
0.0
  0
LINE
  5
30E
330
1F
100
AcDbEntity
  8
Layer0048
  6
Continuous
 62
     3
370
    25
100
AcDbLine
 10
-78.12499999254942
 20
-15.90000152587891
 30
0.0
 11
-77.13749998062849
 21
-15.90000152587891
 31
0.0
  0
LINE
  5
30F
330
1F
100
AcDbEntity
  8
Layer0048
  6
Continuous
 62
     3
370
    25
100
AcDbLine
 10
-74.6374969407916
 20
-15.90000152587891
 30
0.0
 11
-73.64999692887068
 21
-15.90000152587891
 31
0.0
  0
LINE
  5
310
330
1F
100
AcDbEntity
  8
Layer0048
  6
Continuous
 62
     3
370
    25
100
AcDbLine
 10
-71.15000151842833
 20
-15.90000152587891
 30
0.0
 11
-70.1625015065074
 21
-15.90000152587891
 31
0.0
  0
LINE
  5
311
330
1F
100
AcDbEntity
  8
Layer0048
  6
Continuous
 62
     3
370
    25
100
AcDbLine
 10
-67.66249846667051
 20
-15.90000152587891
 30
0.0
 11
-66.67499845474958
 21
-15.90000152587891
 31
0.0
  0
LINE
  5
312
330
1F
100
AcDbEntity
  8
Layer0048
  6
Continuous
 62
     3
370
    25
100
AcDbLine
 10
-64.17500304430723
 20
-15.90000152587891
 30
0.0
 11
-63.1875030323863
 21
-15.90000152587891
 31
0.0
  0
LINE
  5
313
330
1F
100
AcDbEntity
  8
Layer0048
  6
Continuous
 62
     3
370
    25
100
AcDbLine
 10
-15.72500609606504
 20
52.60000610351562
 30
0.0
 11
-11.72500609606504
 21
52.60000610351562
 31
0.0
  0
LINE
  5
314
330
1F
100
AcDbEntity
  8
Layer0048
  6
Continuous
 62
     3
370
    25
100
AcDbLine
 10
-11.72500609606504
 20
52.60000610351562
 30
0.0
 11
-11.72500609606504
 21
52.97500610351562
 31
0.0
  0
LINE
  5
315
330
1F
100
AcDbEntity
  8
Layer0048
  6
Continuous
 62
     3
370
    25
100
AcDbLine
 10
-11.72500609606504
 20
52.97500610351562
 30
0.0
 11
-15.72500609606504
 21
53.35000610351562
 31
0.0
  0
LINE
  5
316
330
1F
100
AcDbEntity
  8
Layer0048
  6
Continuous
 62
     3
370
    25
100
AcDbLine
 10
-15.72500609606504
 20
53.35000610351562
 30
0.0
 11
-15.72500609606504
 21
52.60000610351562
 31
0.0
  0
LINE
  5
317
330
1F
100
AcDbEntity
  8
Layer0048
  6
Continuous
 62
     3
370
    25
100
AcDbLine
 10
-15.72500609606504
 20
-20.90000152587891
 30
0.0
 11
-11.72500609606504
 21
-20.90000152587891
 31
0.0
  0
LINE
  5
318
330
1F
100
AcDbEntity
  8
Layer0048
  6
Continuous
 62
     3
370
    25
100
AcDbLine
 10
-11.72500609606504
 20
-20.90000152587891
 30
0.0
 11
-11.72500609606504
 21
-21.27500152587891
 31
0.0
  0
LINE
  5
319
330
1F
100
AcDbEntity
  8
Layer0048
  6
Continuous
 62
     3
370
    25
100
AcDbLine
 10
-11.72500609606504
 20
-21.27500152587891
 30
0.0
 11
-15.72500609606504
 21
-21.65000152587891
 31
0.0
  0
LINE
  5
31A
330
1F
100
AcDbEntity
  8
Layer0048
  6
Continuous
 62
     3
370
    25
100
AcDbLine
 10
-15.72500609606504
 20
-21.65000152587891
 30
0.0
 11
-15.72500609606504
 21
-20.90000152587891
 31
0.0
  0
ARC
  5
31B
330
1F
100
AcDbEntity
  8
Layer0048
  6
Continuous
 62
     3
370
    25
100
AcDbCircle
 10
-13.47500609606504
 20
40.85000610351562
 30
0.0
 40
0.5
100
AcDbArc
 50
46.60000000000011
 51
133.4000000000003
  0
ARC
  5
31C
330
1F
100
AcDbEntity
  8
Layer0048
  6
Continuous
 62
     3
370
    25
100
AcDbCircle
 10
-13.47500609606504
 20
40.85000610351562
 30
0.0
 40
0.5
100
AcDbArc
 50
226.6000000000004
 51
313.4000000000007
  0
LINE
  5
31D
330
1F
100
AcDbEntity
  8
Layer0048
  6
Continuous
 62
     3
370
    25
100
AcDbLine
 10
-13.22500609606504
 20
41.22500610351562
 30
0.0
 11
-13.72500609606505
 21
41.22500610351562
 31
0.0
  0
ARC
  5
31E
330
1F
100
AcDbEntity
  8
Layer0048
  6
Continuous
 62
     3
370
    25
100
AcDbCircle
 10
-13.72500621861313
 20
40.85000610351565
 30
0.0
 40
0.375
100
AcDbArc
 50
90.0000000000002
 51
270.0000000000006
  0
LINE
  5
31F
330
1F
100
AcDbEntity
  8
Layer0048
  6
Continuous
 62
     3
370
    25
100
AcDbLine
 10
-13.72500658625739
 20
40.47500610351583
 30
0.0
 11
-13.22500658625739
 21
40.47500610351583
 31
0.0
  0
ARC
  5
320
330
1F
100
AcDbEntity
  8
Layer0048
  6
Continuous
 62
     3
370
    25
100
AcDbCircle
 10
-13.22500621861313
 20
40.85000610351565
 30
0.0
 40
0.375
100
AcDbArc
 50
270.0000000000006
 51
90.00000000000102
  0
LINE
  5
321
330
1F
100
AcDbEntity
  8
Layer0048
  6
Continuous
 62
     3
370
    25
100
AcDbLine
 10
-14.47500609606504
 20
40.85000610351562
 30
0.0
 11
-12.47500609606504
 21
40.85000610351562
 31
0.0
  0
LINE
  5
322
330
1F
100
AcDbEntity
  8
Layer0048
  6
Continuous
 62
     3
370
    25
100
AcDbLine
 10
-13.47500609606504
 20
41.60000610351562
 30
0.0
 11
-13.47500609606504
 21
40.10000610351562
 31
0.0
  0
ARC
  5
323
330
1F
100
AcDbEntity
  8
Layer0048
  6
Continuous
 62
     3
370
    25
100
AcDbCircle
 10
-13.47500609606504
 20
28.35000610351562
 30
0.0
 40
0.5
100
AcDbArc
 50
46.60000000000011
 51
133.4000000000003
  0
ARC
  5
324
330
1F
100
AcDbEntity
  8
Layer0048
  6
Continuous
 62
     3
370
    25
100
AcDbCircle
 10
-13.47500609606504
 20
28.35000610351562
 30
0.0
 40
0.5
100
AcDbArc
 50
226.6000000000004
 51
313.4000000000007
  0
LINE
  5
325
330
1F
100
AcDbEntity
  8
Layer0048
  6
Continuous
 62
     3
370
    25
100
AcDbLine
 10
-13.22500609606504
 20
28.72500610351562
 30
0.0
 11
-13.72500609606505
 21
28.72500610351562
 31
0.0
  0
ARC
  5
326
330
1F
100
AcDbEntity
  8
Layer0048
  6
Continuous
 62
     3
370
    25
100
AcDbCircle
 10
-13.72500621861313
 20
28.35000610351565
 30
0.0
 40
0.375
100
AcDbArc
 50
90.0000000000002
 51
270.0000000000006
  0
LINE
  5
327
330
1F
100
AcDbEntity
  8
Layer0048
  6
Continuous
 62
     3
370
    25
100
AcDbLine
 10
-13.72500658625739
 20
27.97500610351583
 30
0.0
 11
-13.22500658625739
 21
27.97500610351583
 31
0.0
  0
ARC
  5
328
330
1F
100
AcDbEntity
  8
Layer0048
  6
Continuous
 62
     3
370
    25
100
AcDbCircle
 10
-13.22500621861313
 20
28.35000610351565
 30
0.0
 40
0.375
100
AcDbArc
 50
270.0000000000006
 51
90.00000000000102
  0
LINE
  5
329
330
1F
100
AcDbEntity
  8
Layer0048
  6
Continuous
 62
     3
370
    25
100
AcDbLine
 10
-14.47500609606504
 20
28.35000610351562
 30
0.0
 11
-12.47500609606504
 21
28.35000610351562
 31
0.0
  0
LINE
  5
32A
330
1F
100
AcDbEntity
  8
Layer0048
  6
Continuous
 62
     3
370
    25
100
AcDbLine
 10
-13.47500609606504
 20
29.10000610351562
 30
0.0
 11
-13.47500609606504
 21
27.60000610351562
 31
0.0
  0
ARC
  5
32B
330
1F
100
AcDbEntity
  8
Layer0048
  6
Continuous
 62
     3
370
    25
100
AcDbCircle
 10
-13.47500609606504
 20
15.85000610351562
 30
0.0
 40
0.5
100
AcDbArc
 50
46.60000000000011
 51
133.4000000000003
  0
ARC
  5
32C
330
1F
100
AcDbEntity
  8
Layer0048
  6
Continuous
 62
     3
370
    25
100
AcDbCircle
 10
-13.47500609606504
 20
15.85000610351562
 30
0.0
 40
0.5
100
AcDbArc
 50
226.6000000000004
 51
313.4000000000007
  0
LINE
  5
32D
330
1F
100
AcDbEntity
  8
Layer0048
  6
Continuous
 62
     3
370
    25
100
AcDbLine
 10
-13.22500609606504
 20
16.22500610351562
 30
0.0
 11
-13.72500609606505
 21
16.22500610351562
 31
0.0
  0
ARC
  5
32E
330
1F
100
AcDbEntity
  8
Layer0048
  6
Continuous
 62
     3
370
    25
100
AcDbCircle
 10
-13.72500621861313
 20
15.85000610351565
 30
0.0
 40
0.375
100
AcDbArc
 50
90.0000000000002
 51
270.0000000000006
  0
LINE
  5
32F
330
1F
100
AcDbEntity
  8
Layer0048
  6
Continuous
 62
     3
370
    25
100
AcDbLine
 10
-13.72500658625739
 20
15.47500610351583
 30
0.0
 11
-13.22500658625739
 21
15.47500610351583
 31
0.0
  0
ARC
  5
330
330
1F
100
AcDbEntity
  8
Layer0048
  6
Continuous
 62
     3
370
    25
100
AcDbCircle
 10
-13.22500621861313
 20
15.85000610351565
 30
0.0
 40
0.375
100
AcDbArc
 50
270.0000000000006
 51
90.00000000000102
  0
LINE
  5
331
330
1F
100
AcDbEntity
  8
Layer0048
  6
Continuous
 62
     3
370
    25
100
AcDbLine
 10
-14.47500609606504
 20
15.85000610351562
 30
0.0
 11
-12.47500609606504
 21
15.85000610351562
 31
0.0
  0
LINE
  5
332
330
1F
100
AcDbEntity
  8
Layer0048
  6
Continuous
 62
     3
370
    25
100
AcDbLine
 10
-13.47500609606504
 20
16.60000610351562
 30
0.0
 11
-13.47500609606504
 21
15.10000610351562
 31
0.0
  0
ARC
  5
333
330
1F
100
AcDbEntity
  8
Layer0048
  6
Continuous
 62
     3
370
    25
100
AcDbCircle
 10
-13.47500609606504
 20
3.350006103515625
 30
0.0
 40
0.5
100
AcDbArc
 50
46.60000000000011
 51
133.4000000000003
  0
ARC
  5
334
330
1F
100
AcDbEntity
  8
Layer0048
  6
Continuous
 62
     3
370
    25
100
AcDbCircle
 10
-13.47500609606504
 20
3.350006103515625
 30
0.0
 40
0.5
100
AcDbArc
 50
226.6000000000004
 51
313.4000000000007
  0
LINE
  5
335
330
1F
100
AcDbEntity
  8
Layer0048
  6
Continuous
 62
     3
370
    25
100
AcDbLine
 10
-13.22500609606504
 20
3.725006103515625
 30
0.0
 11
-13.72500609606505
 21
3.725006103515625
 31
0.0
  0
ARC
  5
336
330
1F
100
AcDbEntity
  8
Layer0048
  6
Continuous
 62
     3
370
    25
100
AcDbCircle
 10
-13.72500621861313
 20
3.350006103515646
 30
0.0
 40
0.375
100
AcDbArc
 50
90.0000000000002
 51
270.0000000000006
  0
LINE
  5
337
330
1F
100
AcDbEntity
  8
Layer0048
  6
Continuous
 62
     3
370
    25
100
AcDbLine
 10
-13.72500658625739
 20
2.975006103515827
 30
0.0
 11
-13.22500658625739
 21
2.975006103515827
 31
0.0
  0
ARC
  5
338
330
1F
100
AcDbEntity
  8
Layer0048
  6
Continuous
 62
     3
370
    25
100
AcDbCircle
 10
-13.22500621861313
 20
3.350006103515646
 30
0.0
 40
0.375
100
AcDbArc
 50
270.0000000000006
 51
90.00000000000102
  0
LINE
  5
339
330
1F
100
AcDbEntity
  8
Layer0048
  6
Continuous
 62
     3
370
    25
100
AcDbLine
 10
-14.47500609606504
 20
3.350006103515625
 30
0.0
 11
-12.47500609606504
 21
3.350006103515625
 31
0.0
  0
LINE
  5
33A
330
1F
100
AcDbEntity
  8
Layer0048
  6
Continuous
 62
     3
370
    25
100
AcDbLine
 10
-13.47500609606504
 20
4.100006103515625
 30
0.0
 11
-13.47500609606504
 21
2.600006103515625
 31
0.0
  0
ARC
  5
33B
330
1F
100
AcDbEntity
  8
Layer0048
  6
Continuous
 62
     3
370
    25
100
AcDbCircle
 10
-13.47500609606504
 20
-9.150001525878906
 30
0.0
 40
0.5
100
AcDbArc
 50
46.60000000000011
 51
133.4000000000003
  0
ARC
  5
33C
330
1F
100
AcDbEntity
  8
Layer0048
  6
Continuous
 62
     3
370
    25
100
AcDbCircle
 10
-13.47500609606504
 20
-9.150001525878906
 30
0.0
 40
0.5
100
AcDbArc
 50
226.6000000000004
 51
313.4000000000007
  0
LINE
  5
33D
330
1F
100
AcDbEntity
  8
Layer0048
  6
Continuous
 62
     3
370
    25
100
AcDbLine
 10
-13.22500609606504
 20
-8.775001525878906
 30
0.0
 11
-13.72500609606505
 21
-8.775001525878906
 31
0.0
  0
ARC
  5
33E
330
1F
100
AcDbEntity
  8
Layer0048
  6
Continuous
 62
     3
370
    25
100
AcDbCircle
 10
-13.72500621861313
 20
-9.150001525878887
 30
0.0
 40
0.375
100
AcDbArc
 50
90.0000000000002
 51
270.0000000000006
  0
LINE
  5
33F
330
1F
100
AcDbEntity
  8
Layer0048
  6
Continuous
 62
     3
370
    25
100
AcDbLine
 10
-13.72500658625739
 20
-9.525001525878707
 30
0.0
 11
-13.22500658625739
 21
-9.525001525878707
 31
0.0
  0
ARC
  5
340
330
1F
100
AcDbEntity
  8
Layer0048
  6
Continuous
 62
     3
370
    25
100
AcDbCircle
 10
-13.22500621861313
 20
-9.150001525878887
 30
0.0
 40
0.375
100
AcDbArc
 50
270.0000000000006
 51
90.00000000000102
  0
LINE
  5
341
330
1F
100
AcDbEntity
  8
Layer0048
  6
Continuous
 62
     3
370
    25
100
AcDbLine
 10
-14.47500609606504
 20
-9.150001525878906
 30
0.0
 11
-12.47500609606504
 21
-9.150001525878906
 31
0.0
  0
LINE
  5
342
330
1F
100
AcDbEntity
  8
Layer0048
  6
Continuous
 62
     3
370
    25
100
AcDbLine
 10
-13.47500609606504
 20
-8.400001525878906
 30
0.0
 11
-13.47500609606504
 21
-9.90000152587891
 31
0.0
  0
LINE
  5
343
330
1F
100
AcDbEntity
  8
Layer0048
  6
Continuous
 62
     3
370
    25
100
AcDbLine
 10
-15.72500609606504
 20
52.60000610351562
 30
0.0
 11
-15.72500609606504
 21
-20.89999389648437
 31
0.0
  0
LINE
  5
344
330
1F
100
AcDbEntity
  8
Layer0048
  6
Continuous
 62
     3
370
    25
100
AcDbLine
 10
-15.72500609606504
 20
-20.89999389648437
 30
0.0
 11
-10.22500609606504
 21
-20.89999389648437
 31
0.0
  0
LINE
  5
345
330
1F
100
AcDbEntity
  8
Layer0048
  6
Continuous
 62
     3
370
    25
100
AcDbLine
 10
-10.22500609606504
 20
-20.89999389648437
 30
0.0
 11
-10.22500609606504
 21
52.60000610351562
 31
0.0
  0
LINE
  5
346
330
1F
100
AcDbEntity
  8
Layer0048
  6
Continuous
 62
     3
370
    25
100
AcDbLine
 10
-10.22500609606504
 20
52.60000610351562
 30
0.0
 11
-15.72500609606504
 21
52.60000610351562
 31
0.0
  0
LINE
  5
347
330
1F
100
AcDbEntity
  8
Layer0048
  6
Continuous
 62
     3
370
    25
100
AcDbLine
 10
-15.47500609606504
 20
52.60000610351562
 30
0.0
 11
-15.47500609606504
 21
-20.89999389648437
 31
0.0
  0
LINE
  5
348
330
1F
100
AcDbEntity
  8
Layer0048
  6
Continuous
 62
     3
370
    25
100
AcDbLine
 10
-14.60000609606504
 20
-20.89999389648437
 30
0.0
 11
-14.60000609606504
 21
52.60000610351562
 31
0.0
  0
LINE
  5
349
330
1F
100
AcDbEntity
  8
Layer0048
  6
Continuous
 62
     3
370
    25
100
AcDbLine
 10
-14.10000609606504
 20
52.60000610351562
 30
0.0
 11
-14.10000609606504
 21
-20.89999389648437
 31
0.0
  0
LINE
  5
34A
330
1F
100
AcDbEntity
  8
Layer0048
  6
Continuous
 62
     3
370
    25
100
AcDbLine
 10
-10.22500609606504
 20
52.22500610351562
 30
0.0
 11
-0.2250060960650444
 21
52.22500610351562
 31
0.0
  0
LINE
  5
34B
330
1F
100
AcDbEntity
  8
Layer0048
  6
Continuous
 62
     3
370
    25
100
AcDbLine
 10
-0.2250060960650444
 20
52.22500610351562
 30
0.0
 11
-0.2250060960650444
 21
47.22500610351562
 31
0.0
  0
LINE
  5
34C
330
1F
100
AcDbEntity
  8
Layer0048
  6
Continuous
 62
     3
370
    25
100
AcDbLine
 10
-0.2250060960650444
 20
47.22500610351562
 30
0.0
 11
-10.22500609606504
 21
47.22500610351562
 31
0.0
  0
LINE
  5
34D
330
1F
100
AcDbEntity
  8
Layer0048
  6
Continuous
 62
     3
370
    25
100
AcDbLine
 10
-10.22500609606504
 20
47.22500610351562
 30
0.0
 11
-10.22500609606504
 21
52.22500610351562
 31
0.0
  0
LINE
  5
34E
330
1F
100
AcDbEntity
  8
Layer0048
  6
Continuous
 62
     3
370
    25
100
AcDbLine
 10
-9.850006096065039
 20
51.85000610351562
 30
0.0
 11
-0.6000060960650444
 21
51.85000610351562
 31
0.0
  0
LINE
  5
34F
330
1F
100
AcDbEntity
  8
Layer0048
  6
Continuous
 62
     3
370
    25
100
AcDbLine
 10
-0.6000060960650444
 20
51.85000610351562
 30
0.0
 11
-0.6000060960650444
 21
47.60000610351562
 31
0.0
  0
LINE
  5
350
330
1F
100
AcDbEntity
  8
Layer0048
  6
Continuous
 62
     3
370
    25
100
AcDbLine
 10
-0.6000060960650444
 20
47.60000610351562
 30
0.0
 11
-9.850006096065039
 21
47.60000610351562
 31
0.0
  0
LINE
  5
351
330
1F
100
AcDbEntity
  8
Layer0048
  6
Continuous
 62
     3
370
    25
100
AcDbLine
 10
-9.850006096065039
 20
47.60000610351562
 30
0.0
 11
-9.850006096065039
 21
51.85000610351562
 31
0.0
  0
LINE
  5
352
330
1F
100
AcDbEntity
  8
Layer0048
  6
Continuous
 62
     3
370
    25
100
AcDbLine
 10
-10.22500609606504
 20
-20.52500152587891
 30
0.0
 11
-0.2250060960650444
 21
-20.52500152587891
 31
0.0
  0
LINE
  5
353
330
1F
100
AcDbEntity
  8
Layer0048
  6
Continuous
 62
     3
370
    25
100
AcDbLine
 10
-0.2250060960650444
 20
-20.52500152587891
 30
0.0
 11
-0.2250060960650444
 21
-15.52500152587891
 31
0.0
  0
LINE
  5
354
330
1F
100
AcDbEntity
  8
Layer0048
  6
Continuous
 62
     3
370
    25
100
AcDbLine
 10
-0.2250060960650444
 20
-15.52500152587891
 30
0.0
 11
-10.22500609606504
 21
-15.52500152587891
 31
0.0
  0
LINE
  5
355
330
1F
100
AcDbEntity
  8
Layer0048
  6
Continuous
 62
     3
370
    25
100
AcDbLine
 10
-10.22500609606504
 20
-15.52500152587891
 30
0.0
 11
-10.22500609606504
 21
-20.52500152587891
 31
0.0
  0
LINE
  5
356
330
1F
100
AcDbEntity
  8
Layer0048
  6
Continuous
 62
     3
370
    25
100
AcDbLine
 10
-9.850006096065039
 20
-20.15000152587891
 30
0.0
 11
-0.6000060960650444
 21
-20.15000152587891
 31
0.0
  0
LINE
  5
357
330
1F
100
AcDbEntity
  8
Layer0048
  6
Continuous
 62
     3
370
    25
100
AcDbLine
 10
-0.6000060960650444
 20
-20.15000152587891
 30
0.0
 11
-0.6000060960650444
 21
-15.90000152587891
 31
0.0
  0
LINE
  5
358
330
1F
100
AcDbEntity
  8
Layer0048
  6
Continuous
 62
     3
370
    25
100
AcDbLine
 10
-0.6000060960650444
 20
-15.90000152587891
 30
0.0
 11
-9.850006096065039
 21
-15.90000152587891
 31
0.0
  0
LINE
  5
359
330
1F
100
AcDbEntity
  8
Layer0048
  6
Continuous
 62
     3
370
    25
100
AcDbLine
 10
-9.850006096065039
 20
-15.90000152587891
 30
0.0
 11
-9.850006096065039
 21
-20.15000152587891
 31
0.0
  0
LINE
  5
35A
330
1F
100
AcDbEntity
  8
Layer0048
  6
Continuous
 62
     3
370
    25
100
AcDbLine
 10
-122.4749984666705
 20
-65.9000015258789
 30
0.0
 11
-122.4749984666705
 21
-66.1500015258789
 31
0.0
  0
LINE
  5
35B
330
1F
100
AcDbEntity
  8
Layer0048
  6
Continuous
 62
     3
370
    25
100
AcDbLine
 10
-122.4749984666705
 20
-66.1500015258789
 30
0.0
 11
-122.0999984666705
 21
-66.1500015258789
 31
0.0
  0
LINE
  5
35C
330
1F
100
AcDbEntity
  8
Layer0048
  6
Continuous
 62
     3
370
    25
100
AcDbLine
 10
-122.0999984666705
 20
-66.1500015258789
 30
0.0
 11
-121.5999984666705
 21
-67.0250015258789
 31
0.0
  0
LINE
  5
35D
330
1F
100
AcDbEntity
  8
Layer0048
  6
Continuous
 62
     3
370
    25
100
AcDbLine
 10
-121.5999984666705
 20
-67.0250015258789
 30
0.0
 11
-121.5999984666705
 21
-67.4000015258789
 31
0.0
  0
LINE
  5
35E
330
1F
100
AcDbEntity
  8
Layer0048
  6
Continuous
 62
     3
370
    25
100
AcDbLine
 10
-121.5999984666705
 20
-67.4000015258789
 30
0.0
 11
-121.4749984666705
 21
-67.5250015258789
 31
0.0
  0
LINE
  5
35F
330
1F
100
AcDbEntity
  8
Layer0048
  6
Continuous
 62
     3
370
    25
100
AcDbLine
 10
-121.4749984666705
 20
-67.5250015258789
 30
0.0
 11
-121.4749984666705
 21
-71.4000015258789
 31
0.0
  0
LINE
  5
360
330
1F
100
AcDbEntity
  8
Layer0048
  6
Continuous
 62
     3
370
    25
100
AcDbLine
 10
-121.4749984666705
 20
-71.4000015258789
 30
0.0
 11
-120.9749984666705
 21
-71.4000015258789
 31
0.0
  0
LINE
  5
361
330
1F
100
AcDbEntity
  8
Layer0048
  6
Continuous
 62
     3
370
    25
100
AcDbLine
 10
-120.9749984666705
 20
-71.4000015258789
 30
0.0
 11
-120.9749984666705
 21
-67.5250015258789
 31
0.0
  0
LINE
  5
362
330
1F
100
AcDbEntity
  8
Layer0048
  6
Continuous
 62
     3
370
    25
100
AcDbLine
 10
-120.9749984666705
 20
-67.5250015258789
 30
0.0
 11
-120.8499984666705
 21
-67.4000015258789
 31
0.0
  0
LINE
  5
363
330
1F
100
AcDbEntity
  8
Layer0048
  6
Continuous
 62
     3
370
    25
100
AcDbLine
 10
-120.8499984666705
 20
-67.4000015258789
 30
0.0
 11
-120.8499984666705
 21
-67.0250015258789
 31
0.0
  0
LINE
  5
364
330
1F
100
AcDbEntity
  8
Layer0048
  6
Continuous
 62
     3
370
    25
100
AcDbLine
 10
-120.8499984666705
 20
-67.0250015258789
 30
0.0
 11
-120.3499984666705
 21
-66.1500015258789
 31
0.0
  0
LINE
  5
365
330
1F
100
AcDbEntity
  8
Layer0048
  6
Continuous
 62
     3
370
    25
100
AcDbLine
 10
-120.3499984666705
 20
-66.1500015258789
 30
0.0
 11
-119.9749984666705
 21
-66.1500015258789
 31
0.0
  0
LINE
  5
366
330
1F
100
AcDbEntity
  8
Layer0048
  6
Continuous
 62
     3
370
    25
100
AcDbLine
 10
-119.9749984666705
 20
-66.1500015258789
 30
0.0
 11
-119.9749984666705
 21
-65.9000015258789
 31
0.0
  0
LINE
  5
367
330
1F
100
AcDbEntity
  8
Layer0048
  6
Continuous
 62
     3
370
    25
100
AcDbLine
 10
-119.9749984666705
 20
-65.9000015258789
 30
0.0
 11
-120.4749984666705
 21
-65.9000015258789
 31
0.0
  0
LINE
  5
368
330
1F
100
AcDbEntity
  8
Layer0048
  6
Continuous
 62
     3
370
    25
100
AcDbLine
 10
-120.4749984666705
 20
-65.9000015258789
 30
0.0
 11
-121.2249984666705
 21
-66.6500015258789
 31
0.0
  0
LINE
  5
369
330
1F
100
AcDbEntity
  8
Layer0048
  6
Continuous
 62
     3
370
    25
100
AcDbLine
 10
-121.2249984666705
 20
-66.6500015258789
 30
0.0
 11
-121.9749984666705
 21
-65.9000015258789
 31
0.0
  0
LINE
  5
36A
330
1F
100
AcDbEntity
  8
Layer0048
  6
Continuous
 62
     3
370
    25
100
AcDbLine
 10
-121.9749984666705
 20
-65.9000015258789
 30
0.0
 11
-122.4749984666705
 21
-65.9000015258789
 31
0.0
  0
CIRCLE
  5
36B
330
1F
100
AcDbEntity
  8
Layer0048
  6
Continuous
 62
     3
370
    25
100
AcDbCircle
 10
-121.2249985401993
 20
-66.33750152587889
 30
0.0
 40
0.2249999940395355
  0
LINE
  5
36C
330
1F
100
AcDbEntity
  8
Layer0048
  6
Continuous
 62
     3
370
    25
100
AcDbLine
 10
-118.9874992296099
 20
-65.9000015258789
 30
0.0
 11
-118.9874992296099
 21
-66.1500015258789
 31
0.0
  0
LINE
  5
36D
330
1F
100
AcDbEntity
  8
Layer0048
  6
Continuous
 62
     3
370
    25
100
AcDbLine
 10
-118.9874992296099
 20
-66.1500015258789
 30
0.0
 11
-118.6124992296099
 21
-66.1500015258789
 31
0.0
  0
LINE
  5
36E
330
1F
100
AcDbEntity
  8
Layer0048
  6
Continuous
 62
     3
370
    25
100
AcDbLine
 10
-118.6124992296099
 20
-66.1500015258789
 30
0.0
 11
-118.1124992296099
 21
-67.0250015258789
 31
0.0
  0
LINE
  5
36F
330
1F
100
AcDbEntity
  8
Layer0048
  6
Continuous
 62
     3
370
    25
100
AcDbLine
 10
-118.1124992296099
 20
-67.0250015258789
 30
0.0
 11
-118.1124992296099
 21
-67.4000015258789
 31
0.0
  0
LINE
  5
370
330
1F
100
AcDbEntity
  8
Layer0048
  6
Continuous
 62
     3
370
    25
100
AcDbLine
 10
-118.1124992296099
 20
-67.4000015258789
 30
0.0
 11
-117.9874992296099
 21
-67.5250015258789
 31
0.0
  0
LINE
  5
371
330
1F
100
AcDbEntity
  8
Layer0048
  6
Continuous
 62
     3
370
    25
100
AcDbLine
 10
-117.9874992296099
 20
-67.5250015258789
 30
0.0
 11
-117.9874992296099
 21
-71.4000015258789
 31
0.0
  0
LINE
  5
372
330
1F
100
AcDbEntity
  8
Layer0048
  6
Continuous
 62
     3
370
    25
100
AcDbLine
 10
-117.9874992296099
 20
-71.4000015258789
 30
0.0
 11
-117.4874992296099
 21
-71.4000015258789
 31
0.0
  0
LINE
  5
373
330
1F
100
AcDbEntity
  8
Layer0048
  6
Continuous
 62
     3
370
    25
100
AcDbLine
 10
-117.4874992296099
 20
-71.4000015258789
 30
0.0
 11
-117.4874992296099
 21
-67.5250015258789
 31
0.0
  0
LINE
  5
374
330
1F
100
AcDbEntity
  8
Layer0048
  6
Continuous
 62
     3
370
    25
100
AcDbLine
 10
-117.4874992296099
 20
-67.5250015258789
 30
0.0
 11
-117.3624992296099
 21
-67.4000015258789
 31
0.0
  0
LINE
  5
375
330
1F
100
AcDbEntity
  8
Layer0048
  6
Continuous
 62
     3
370
    25
100
AcDbLine
 10
-117.3624992296099
 20
-67.4000015258789
 30
0.0
 11
-117.3624992296099
 21
-67.0250015258789
 31
0.0
  0
LINE
  5
376
330
1F
100
AcDbEntity
  8
Layer0048
  6
Continuous
 62
     3
370
    25
100
AcDbLine
 10
-117.3624992296099
 20
-67.0250015258789
 30
0.0
 11
-116.8624992296099
 21
-66.1500015258789
 31
0.0
  0
LINE
  5
377
330
1F
100
AcDbEntity
  8
Layer0048
  6
Continuous
 62
     3
370
    25
100
AcDbLine
 10
-116.8624992296099
 20
-66.1500015258789
 30
0.0
 11
-116.4874992296099
 21
-66.1500015258789
 31
0.0
  0
LINE
  5
378
330
1F
100
AcDbEntity
  8
Layer0048
  6
Continuous
 62
     3
370
    25
100
AcDbLine
 10
-116.4874992296099
 20
-66.1500015258789
 30
0.0
 11
-116.4874992296099
 21
-65.9000015258789
 31
0.0
  0
LINE
  5
379
330
1F
100
AcDbEntity
  8
Layer0048
  6
Continuous
 62
     3
370
    25
100
AcDbLine
 10
-116.4874992296099
 20
-65.9000015258789
 30
0.0
 11
-116.9874992296099
 21
-65.9000015258789
 31
0.0
  0
LINE
  5
37A
330
1F
100
AcDbEntity
  8
Layer0048
  6
Continuous
 62
     3
370
    25
100
AcDbLine
 10
-116.9874992296099
 20
-65.9000015258789
 30
0.0
 11
-117.7374992296099
 21
-66.6500015258789
 31
0.0
  0
LINE
  5
37B
330
1F
100
AcDbEntity
  8
Layer0048
  6
Continuous
 62
     3
370
    25
100
AcDbLine
 10
-117.7374992296099
 20
-66.6500015258789
 30
0.0
 11
-118.4874992296099
 21
-65.9000015258789
 31
0.0
  0
LINE
  5
37C
330
1F
100
AcDbEntity
  8
Layer0048
  6
Continuous
 62
     3
370
    25
100
AcDbLine
 10
-118.4874992296099
 20
-65.9000015258789
 30
0.0
 11
-118.9874992296099
 21
-65.9000015258789
 31
0.0
  0
CIRCLE
  5
37D
330
1F
100
AcDbEntity
  8
Layer0048
  6
Continuous
 62
     3
370
    25
100
AcDbCircle
 10
-117.7374993031388
 20
-66.33750152587889
 30
0.0
 40
0.2249999940395355
  0
LINE
  5
37E
330
1F
100
AcDbEntity
  8
Layer0048
  6
Continuous
 62
     3
370
    25
100
AcDbLine
 10
-115.4999999925494
 20
-65.9000015258789
 30
0.0
 11
-115.4999999925494
 21
-66.1500015258789
 31
0.0
  0
LINE
  5
37F
330
1F
100
AcDbEntity
  8
Layer0048
  6
Continuous
 62
     3
370
    25
100
AcDbLine
 10
-115.4999999925494
 20
-66.1500015258789
 30
0.0
 11
-115.1249999925494
 21
-66.1500015258789
 31
0.0
  0
LINE
  5
380
330
1F
100
AcDbEntity
  8
Layer0048
  6
Continuous
 62
     3
370
    25
100
AcDbLine
 10
-115.1249999925494
 20
-66.1500015258789
 30
0.0
 11
-114.6249999925494
 21
-67.0250015258789
 31
0.0
  0
LINE
  5
381
330
1F
100
AcDbEntity
  8
Layer0048
  6
Continuous
 62
     3
370
    25
100
AcDbLine
 10
-114.6249999925494
 20
-67.0250015258789
 30
0.0
 11
-114.6249999925494
 21
-67.4000015258789
 31
0.0
  0
LINE
  5
382
330
1F
100
AcDbEntity
  8
Layer0048
  6
Continuous
 62
     3
370
    25
100
AcDbLine
 10
-114.6249999925494
 20
-67.4000015258789
 30
0.0
 11
-114.4999999925494
 21
-67.5250015258789
 31
0.0
  0
LINE
  5
383
330
1F
100
AcDbEntity
  8
Layer0048
  6
Continuous
 62
     3
370
    25
100
AcDbLine
 10
-114.4999999925494
 20
-67.5250015258789
 30
0.0
 11
-114.4999999925494
 21
-71.4000015258789
 31
0.0
  0
LINE
  5
384
330
1F
100
AcDbEntity
  8
Layer0048
  6
Continuous
 62
     3
370
    25
100
AcDbLine
 10
-114.4999999925494
 20
-71.4000015258789
 30
0.0
 11
-113.9999999925494
 21
-71.4000015258789
 31
0.0
  0
LINE
  5
385
330
1F
100
AcDbEntity
  8
Layer0048
  6
Continuous
 62
     3
370
    25
100
AcDbLine
 10
-113.9999999925494
 20
-71.4000015258789
 30
0.0
 11
-113.9999999925494
 21
-67.5250015258789
 31
0.0
  0
LINE
  5
386
330
1F
100
AcDbEntity
  8
Layer0048
  6
Continuous
 62
     3
370
    25
100
AcDbLine
 10
-113.9999999925494
 20
-67.5250015258789
 30
0.0
 11
-113.8749999925494
 21
-67.4000015258789
 31
0.0
  0
LINE
  5
387
330
1F
100
AcDbEntity
  8
Layer0048
  6
Continuous
 62
     3
370
    25
100
AcDbLine
 10
-113.8749999925494
 20
-67.4000015258789
 30
0.0
 11
-113.8749999925494
 21
-67.0250015258789
 31
0.0
  0
LINE
  5
388
330
1F
100
AcDbEntity
  8
Layer0048
  6
Continuous
 62
     3
370
    25
100
AcDbLine
 10
-113.8749999925494
 20
-67.0250015258789
 30
0.0
 11
-113.3749999925494
 21
-66.1500015258789
 31
0.0
  0
LINE
  5
389
330
1F
100
AcDbEntity
  8
Layer0048
  6
Continuous
 62
     3
370
    25
100
AcDbLine
 10
-113.3749999925494
 20
-66.1500015258789
 30
0.0
 11
-112.9999999925494
 21
-66.1500015258789
 31
0.0
  0
LINE
  5
38A
330
1F
100
AcDbEntity
  8
Layer0048
  6
Continuous
 62
     3
370
    25
100
AcDbLine
 10
-112.9999999925494
 20
-66.1500015258789
 30
0.0
 11
-112.9999999925494
 21
-65.9000015258789
 31
0.0
  0
LINE
  5
38B
330
1F
100
AcDbEntity
  8
Layer0048
  6
Continuous
 62
     3
370
    25
100
AcDbLine
 10
-112.9999999925494
 20
-65.9000015258789
 30
0.0
 11
-113.4999999925494
 21
-65.9000015258789
 31
0.0
  0
LINE
  5
38C
330
1F
100
AcDbEntity
  8
Layer0048
  6
Continuous
 62
     3
370
    25
100
AcDbLine
 10
-113.4999999925494
 20
-65.9000015258789
 30
0.0
 11
-114.2499999925494
 21
-66.6500015258789
 31
0.0
  0
LINE
  5
38D
330
1F
100
AcDbEntity
  8
Layer0048
  6
Continuous
 62
     3
370
    25
100
AcDbLine
 10
-114.2499999925494
 20
-66.6500015258789
 30
0.0
 11
-114.9999999925494
 21
-65.9000015258789
 31
0.0
  0
LINE
  5
38E
330
1F
100
AcDbEntity
  8
Layer0048
  6
Continuous
 62
     3
370
    25
100
AcDbLine
 10
-114.9999999925494
 20
-65.9000015258789
 30
0.0
 11
-115.4999999925494
 21
-65.9000015258789
 31
0.0
  0
CIRCLE
  5
38F
330
1F
100
AcDbEntity
  8
Layer0048
  6
Continuous
 62
     3
370
    25
100
AcDbCircle
 10
-114.2500000660782
 20
-66.33750152587889
 30
0.0
 40
0.2249999940395355
  0
LINE
  5
390
330
1F
100
AcDbEntity
  8
Layer0048
  6
Continuous
 62
     3
370
    25
100
AcDbLine
 10
-112.0124969407916
 20
-65.9000015258789
 30
0.0
 11
-112.0124969407916
 21
-66.1500015258789
 31
0.0
  0
LINE
  5
391
330
1F
100
AcDbEntity
  8
Layer0048
  6
Continuous
 62
     3
370
    25
100
AcDbLine
 10
-112.0124969407916
 20
-66.1500015258789
 30
0.0
 11
-111.6374969407916
 21
-66.1500015258789
 31
0.0
  0
LINE
  5
392
330
1F
100
AcDbEntity
  8
Layer0048
  6
Continuous
 62
     3
370
    25
100
AcDbLine
 10
-111.6374969407916
 20
-66.1500015258789
 30
0.0
 11
-111.1374969407916
 21
-67.0250015258789
 31
0.0
  0
LINE
  5
393
330
1F
100
AcDbEntity
  8
Layer0048
  6
Continuous
 62
     3
370
    25
100
AcDbLine
 10
-111.1374969407916
 20
-67.0250015258789
 30
0.0
 11
-111.1374969407916
 21
-67.4000015258789
 31
0.0
  0
LINE
  5
394
330
1F
100
AcDbEntity
  8
Layer0048
  6
Continuous
 62
     3
370
    25
100
AcDbLine
 10
-111.1374969407916
 20
-67.4000015258789
 30
0.0
 11
-111.0124969407916
 21
-67.5250015258789
 31
0.0
  0
LINE
  5
395
330
1F
100
AcDbEntity
  8
Layer0048
  6
Continuous
 62
     3
370
    25
100
AcDbLine
 10
-111.0124969407916
 20
-67.5250015258789
 30
0.0
 11
-111.0124969407916
 21
-71.4000015258789
 31
0.0
  0
LINE
  5
396
330
1F
100
AcDbEntity
  8
Layer0048
  6
Continuous
 62
     3
370
    25
100
AcDbLine
 10
-111.0124969407916
 20
-71.4000015258789
 30
0.0
 11
-110.5124969407916
 21
-71.4000015258789
 31
0.0
  0
LINE
  5
397
330
1F
100
AcDbEntity
  8
Layer0048
  6
Continuous
 62
     3
370
    25
100
AcDbLine
 10
-110.5124969407916
 20
-71.4000015258789
 30
0.0
 11
-110.5124969407916
 21
-67.5250015258789
 31
0.0
  0
LINE
  5
398
330
1F
100
AcDbEntity
  8
Layer0048
  6
Continuous
 62
     3
370
    25
100
AcDbLine
 10
-110.5124969407916
 20
-67.5250015258789
 30
0.0
 11
-110.3874969407916
 21
-67.4000015258789
 31
0.0
  0
LINE
  5
399
330
1F
100
AcDbEntity
  8
Layer0048
  6
Continuous
 62
     3
370
    25
100
AcDbLine
 10
-110.3874969407916
 20
-67.4000015258789
 30
0.0
 11
-110.3874969407916
 21
-67.0250015258789
 31
0.0
  0
LINE
  5
39A
330
1F
100
AcDbEntity
  8
Layer0048
  6
Continuous
 62
     3
370
    25
100
AcDbLine
 10
-110.3874969407916
 20
-67.0250015258789
 30
0.0
 11
-109.8874969407916
 21
-66.1500015258789
 31
0.0
  0
LINE
  5
39B
330
1F
100
AcDbEntity
  8
Layer0048
  6
Continuous
 62
     3
370
    25
100
AcDbLine
 10
-109.8874969407916
 20
-66.1500015258789
 30
0.0
 11
-109.5124969407916
 21
-66.1500015258789
 31
0.0
  0
LINE
  5
39C
330
1F
100
AcDbEntity
  8
Layer0048
  6
Continuous
 62
     3
370
    25
100
AcDbLine
 10
-109.5124969407916
 20
-66.1500015258789
 30
0.0
 11
-109.5124969407916
 21
-65.9000015258789
 31
0.0
  0
LINE
  5
39D
330
1F
100
AcDbEntity
  8
Layer0048
  6
Continuous
 62
     3
370
    25
100
AcDbLine
 10
-109.5124969407916
 20
-65.9000015258789
 30
0.0
 11
-110.0124969407916
 21
-65.9000015258789
 31
0.0
  0
LINE
  5
39E
330
1F
100
AcDbEntity
  8
Layer0048
  6
Continuous
 62
     3
370
    25
100
AcDbLine
 10
-110.0124969407916
 20
-65.9000015258789
 30
0.0
 11
-110.7624969407916
 21
-66.6500015258789
 31
0.0
  0
LINE
  5
39F
330
1F
100
AcDbEntity
  8
Layer0048
  6
Continuous
 62
     3
370
    25
100
AcDbLine
 10
-110.7624969407916
 20
-66.6500015258789
 30
0.0
 11
-111.5124969407916
 21
-65.9000015258789
 31
0.0
  0
LINE
  5
3A0
330
1F
100
AcDbEntity
  8
Layer0048
  6
Continuous
 62
     3
370
    25
100
AcDbLine
 10
-111.5124969407916
 20
-65.9000015258789
 30
0.0
 11
-112.0124969407916
 21
-65.9000015258789
 31
0.0
  0
CIRCLE
  5
3A1
330
1F
100
AcDbEntity
  8
Layer0048
  6
Continuous
 62
     3
370
    25
100
AcDbCircle
 10
-110.7624970143204
 20
-66.33750152587889
 30
0.0
 40
0.2249999940395355
  0
LINE
  5
3A2
330
1F
100
AcDbEntity
  8
Layer0048
  6
Continuous
 62
     3
370
    25
100
AcDbLine
 10
-108.5250015184283
 20
-65.9000015258789
 30
0.0
 11
-108.5250015184283
 21
-66.1500015258789
 31
0.0
  0
LINE
  5
3A3
330
1F
100
AcDbEntity
  8
Layer0048
  6
Continuous
 62
     3
370
    25
100
AcDbLine
 10
-108.5250015184283
 20
-66.1500015258789
 30
0.0
 11
-108.1500015184283
 21
-66.1500015258789
 31
0.0
  0
LINE
  5
3A4
330
1F
100
AcDbEntity
  8
Layer0048
  6
Continuous
 62
     3
370
    25
100
AcDbLine
 10
-108.1500015184283
 20
-66.1500015258789
 30
0.0
 11
-107.6500015184283
 21
-67.0250015258789
 31
0.0
  0
LINE
  5
3A5
330
1F
100
AcDbEntity
  8
Layer0048
  6
Continuous
 62
     3
370
    25
100
AcDbLine
 10
-107.6500015184283
 20
-67.0250015258789
 30
0.0
 11
-107.6500015184283
 21
-67.4000015258789
 31
0.0
  0
LINE
  5
3A6
330
1F
100
AcDbEntity
  8
Layer0048
  6
Continuous
 62
     3
370
    25
100
AcDbLine
 10
-107.6500015184283
 20
-67.4000015258789
 30
0.0
 11
-107.5250015184283
 21
-67.5250015258789
 31
0.0
  0
LINE
  5
3A7
330
1F
100
AcDbEntity
  8
Layer0048
  6
Continuous
 62
     3
370
    25
100
AcDbLine
 10
-107.5250015184283
 20
-67.5250015258789
 30
0.0
 11
-107.5250015184283
 21
-71.4000015258789
 31
0.0
  0
LINE
  5
3A8
330
1F
100
AcDbEntity
  8
Layer0048
  6
Continuous
 62
     3
370
    25
100
AcDbLine
 10
-107.5250015184283
 20
-71.4000015258789
 30
0.0
 11
-107.0250015184283
 21
-71.4000015258789
 31
0.0
  0
LINE
  5
3A9
330
1F
100
AcDbEntity
  8
Layer0048
  6
Continuous
 62
     3
370
    25
100
AcDbLine
 10
-107.0250015184283
 20
-71.4000015258789
 30
0.0
 11
-107.0250015184283
 21
-67.5250015258789
 31
0.0
  0
LINE
  5
3AA
330
1F
100
AcDbEntity
  8
Layer0048
  6
Continuous
 62
     3
370
    25
100
AcDbLine
 10
-107.0250015184283
 20
-67.5250015258789
 30
0.0
 11
-106.9000015184283
 21
-67.4000015258789
 31
0.0
  0
LINE
  5
3AB
330
1F
100
AcDbEntity
  8
Layer0048
  6
Continuous
 62
     3
370
    25
100
AcDbLine
 10
-106.9000015184283
 20
-67.4000015258789
 30
0.0
 11
-106.9000015184283
 21
-67.0250015258789
 31
0.0
  0
LINE
  5
3AC
330
1F
100
AcDbEntity
  8
Layer0048
  6
Continuous
 62
     3
370
    25
100
AcDbLine
 10
-106.9000015184283
 20
-67.0250015258789
 30
0.0
 11
-106.4000015184283
 21
-66.1500015258789
 31
0.0
  0
LINE
  5
3AD
330
1F
100
AcDbEntity
  8
Layer0048
  6
Continuous
 62
     3
370
    25
100
AcDbLine
 10
-106.4000015184283
 20
-66.1500015258789
 30
0.0
 11
-106.0250015184283
 21
-66.1500015258789
 31
0.0
  0
LINE
  5
3AE
330
1F
100
AcDbEntity
  8
Layer0048
  6
Continuous
 62
     3
370
    25
100
AcDbLine
 10
-106.0250015184283
 20
-66.1500015258789
 30
0.0
 11
-106.0250015184283
 21
-65.9000015258789
 31
0.0
  0
LINE
  5
3AF
330
1F
100
AcDbEntity
  8
Layer0048
  6
Continuous
 62
     3
370
    25
100
AcDbLine
 10
-106.0250015184283
 20
-65.9000015258789
 30
0.0
 11
-106.5250015184283
 21
-65.9000015258789
 31
0.0
  0
LINE
  5
3B0
330
1F
100
AcDbEntity
  8
Layer0048
  6
Continuous
 62
     3
370
    25
100
AcDbLine
 10
-106.5250015184283
 20
-65.9000015258789
 30
0.0
 11
-107.2750015184283
 21
-66.6500015258789
 31
0.0
  0
LINE
  5
3B1
330
1F
100
AcDbEntity
  8
Layer0048
  6
Continuous
 62
     3
370
    25
100
AcDbLine
 10
-107.2750015184283
 20
-66.6500015258789
 30
0.0
 11
-108.0250015184283
 21
-65.9000015258789
 31
0.0
  0
LINE
  5
3B2
330
1F
100
AcDbEntity
  8
Layer0048
  6
Continuous
 62
     3
370
    25
100
AcDbLine
 10
-108.0250015184283
 20
-65.9000015258789
 30
0.0
 11
-108.5250015184283
 21
-65.9000015258789
 31
0.0
  0
CIRCLE
  5
3B3
330
1F
100
AcDbEntity
  8
Layer0048
  6
Continuous
 62
     3
370
    25
100
AcDbCircle
 10
-107.2750015919572
 20
-66.33750152587889
 30
0.0
 40
0.2249999940395355
  0
LINE
  5
3B4
330
1F
100
AcDbEntity
  8
Layer0048
  6
Continuous
 62
     3
370
    25
100
AcDbLine
 10
-105.0374984666705
 20
-65.9000015258789
 30
0.0
 11
-105.0374984666705
 21
-66.1500015258789
 31
0.0
  0
LINE
  5
3B5
330
1F
100
AcDbEntity
  8
Layer0048
  6
Continuous
 62
     3
370
    25
100
AcDbLine
 10
-105.0374984666705
 20
-66.1500015258789
 30
0.0
 11
-104.6624984666705
 21
-66.1500015258789
 31
0.0
  0
LINE
  5
3B6
330
1F
100
AcDbEntity
  8
Layer0048
  6
Continuous
 62
     3
370
    25
100
AcDbLine
 10
-104.6624984666705
 20
-66.1500015258789
 30
0.0
 11
-104.1624984666705
 21
-67.0250015258789
 31
0.0
  0
LINE
  5
3B7
330
1F
100
AcDbEntity
  8
Layer0048
  6
Continuous
 62
     3
370
    25
100
AcDbLine
 10
-104.1624984666705
 20
-67.0250015258789
 30
0.0
 11
-104.1624984666705
 21
-67.4000015258789
 31
0.0
  0
LINE
  5
3B8
330
1F
100
AcDbEntity
  8
Layer0048
  6
Continuous
 62
     3
370
    25
100
AcDbLine
 10
-104.1624984666705
 20
-67.4000015258789
 30
0.0
 11
-104.0374984666705
 21
-67.5250015258789
 31
0.0
  0
LINE
  5
3B9
330
1F
100
AcDbEntity
  8
Layer0048
  6
Continuous
 62
     3
370
    25
100
AcDbLine
 10
-104.0374984666705
 20
-67.5250015258789
 30
0.0
 11
-104.0374984666705
 21
-71.4000015258789
 31
0.0
  0
LINE
  5
3BA
330
1F
100
AcDbEntity
  8
Layer0048
  6
Continuous
 62
     3
370
    25
100
AcDbLine
 10
-104.0374984666705
 20
-71.4000015258789
 30
0.0
 11
-103.5374984666705
 21
-71.4000015258789
 31
0.0
  0
LINE
  5
3BB
330
1F
100
AcDbEntity
  8
Layer0048
  6
Continuous
 62
     3
370
    25
100
AcDbLine
 10
-103.5374984666705
 20
-71.4000015258789
 30
0.0
 11
-103.5374984666705
 21
-67.5250015258789
 31
0.0
  0
LINE
  5
3BC
330
1F
100
AcDbEntity
  8
Layer0048
  6
Continuous
 62
     3
370
    25
100
AcDbLine
 10
-103.5374984666705
 20
-67.5250015258789
 30
0.0
 11
-103.4124984666705
 21
-67.4000015258789
 31
0.0
  0
LINE
  5
3BD
330
1F
100
AcDbEntity
  8
Layer0048
  6
Continuous
 62
     3
370
    25
100
AcDbLine
 10
-103.4124984666705
 20
-67.4000015258789
 30
0.0
 11
-103.4124984666705
 21
-67.0250015258789
 31
0.0
  0
LINE
  5
3BE
330
1F
100
AcDbEntity
  8
Layer0048
  6
Continuous
 62
     3
370
    25
100
AcDbLine
 10
-103.4124984666705
 20
-67.0250015258789
 30
0.0
 11
-102.9124984666705
 21
-66.1500015258789
 31
0.0
  0
LINE
  5
3BF
330
1F
100
AcDbEntity
  8
Layer0048
  6
Continuous
 62
     3
370
    25
100
AcDbLine
 10
-102.9124984666705
 20
-66.1500015258789
 30
0.0
 11
-102.5374984666705
 21
-66.1500015258789
 31
0.0
  0
LINE
  5
3C0
330
1F
100
AcDbEntity
  8
Layer0048
  6
Continuous
 62
     3
370
    25
100
AcDbLine
 10
-102.5374984666705
 20
-66.1500015258789
 30
0.0
 11
-102.5374984666705
 21
-65.9000015258789
 31
0.0
  0
LINE
  5
3C1
330
1F
100
AcDbEntity
  8
Layer0048
  6
Continuous
 62
     3
370
    25
100
AcDbLine
 10
-102.5374984666705
 20
-65.9000015258789
 30
0.0
 11
-103.0374984666705
 21
-65.9000015258789
 31
0.0
  0
LINE
  5
3C2
330
1F
100
AcDbEntity
  8
Layer0048
  6
Continuous
 62
     3
370
    25
100
AcDbLine
 10
-103.0374984666705
 20
-65.9000015258789
 30
0.0
 11
-103.7874984666705
 21
-66.6500015258789
 31
0.0
  0
LINE
  5
3C3
330
1F
100
AcDbEntity
  8
Layer0048
  6
Continuous
 62
     3
370
    25
100
AcDbLine
 10
-103.7874984666705
 20
-66.6500015258789
 30
0.0
 11
-104.5374984666705
 21
-65.9000015258789
 31
0.0
  0
LINE
  5
3C4
330
1F
100
AcDbEntity
  8
Layer0048
  6
Continuous
 62
     3
370
    25
100
AcDbLine
 10
-104.5374984666705
 20
-65.9000015258789
 30
0.0
 11
-105.0374984666705
 21
-65.9000015258789
 31
0.0
  0
CIRCLE
  5
3C5
330
1F
100
AcDbEntity
  8
Layer0048
  6
Continuous
 62
     3
370
    25
100
AcDbCircle
 10
-103.7874985401993
 20
-66.33750152587889
 30
0.0
 40
0.2249999940395355
  0
LINE
  5
3C6
330
1F
100
AcDbEntity
  8
Layer0048
  6
Continuous
 62
     3
370
    25
100
AcDbLine
 10
-101.5500030443072
 20
-65.9000015258789
 30
0.0
 11
-101.5500030443072
 21
-66.1500015258789
 31
0.0
  0
LINE
  5
3C7
330
1F
100
AcDbEntity
  8
Layer0048
  6
Continuous
 62
     3
370
    25
100
AcDbLine
 10
-101.5500030443072
 20
-66.1500015258789
 30
0.0
 11
-101.1750030443072
 21
-66.1500015258789
 31
0.0
  0
LINE
  5
3C8
330
1F
100
AcDbEntity
  8
Layer0048
  6
Continuous
 62
     3
370
    25
100
AcDbLine
 10
-101.1750030443072
 20
-66.1500015258789
 30
0.0
 11
-100.6750030443072
 21
-67.0250015258789
 31
0.0
  0
LINE
  5
3C9
330
1F
100
AcDbEntity
  8
Layer0048
  6
Continuous
 62
     3
370
    25
100
AcDbLine
 10
-100.6750030443072
 20
-67.0250015258789
 30
0.0
 11
-100.6750030443072
 21
-67.4000015258789
 31
0.0
  0
LINE
  5
3CA
330
1F
100
AcDbEntity
  8
Layer0048
  6
Continuous
 62
     3
370
    25
100
AcDbLine
 10
-100.6750030443072
 20
-67.4000015258789
 30
0.0
 11
-100.5500030443072
 21
-67.5250015258789
 31
0.0
  0
LINE
  5
3CB
330
1F
100
AcDbEntity
  8
Layer0048
  6
Continuous
 62
     3
370
    25
100
AcDbLine
 10
-100.5500030443072
 20
-67.5250015258789
 30
0.0
 11
-100.5500030443072
 21
-71.4000015258789
 31
0.0
  0
LINE
  5
3CC
330
1F
100
AcDbEntity
  8
Layer0048
  6
Continuous
 62
     3
370
    25
100
AcDbLine
 10
-100.5500030443072
 20
-71.4000015258789
 30
0.0
 11
-100.0500030443072
 21
-71.4000015258789
 31
0.0
  0
LINE
  5
3CD
330
1F
100
AcDbEntity
  8
Layer0048
  6
Continuous
 62
     3
370
    25
100
AcDbLine
 10
-100.0500030443072
 20
-71.4000015258789
 30
0.0
 11
-100.0500030443072
 21
-67.5250015258789
 31
0.0
  0
LINE
  5
3CE
330
1F
100
AcDbEntity
  8
Layer0048
  6
Continuous
 62
     3
370
    25
100
AcDbLine
 10
-100.0500030443072
 20
-67.5250015258789
 30
0.0
 11
-99.92500304430722
 21
-67.4000015258789
 31
0.0
  0
LINE
  5
3CF
330
1F
100
AcDbEntity
  8
Layer0048
  6
Continuous
 62
     3
370
    25
100
AcDbLine
 10
-99.92500304430722
 20
-67.4000015258789
 30
0.0
 11
-99.92500304430722
 21
-67.0250015258789
 31
0.0
  0
LINE
  5
3D0
330
1F
100
AcDbEntity
  8
Layer0048
  6
Continuous
 62
     3
370
    25
100
AcDbLine
 10
-99.92500304430722
 20
-67.0250015258789
 30
0.0
 11
-99.42500304430723
 21
-66.1500015258789
 31
0.0
  0
LINE
  5
3D1
330
1F
100
AcDbEntity
  8
Layer0048
  6
Continuous
 62
     3
370
    25
100
AcDbLine
 10
-99.42500304430723
 20
-66.1500015258789
 30
0.0
 11
-99.05000304430723
 21
-66.1500015258789
 31
0.0
  0
LINE
  5
3D2
330
1F
100
AcDbEntity
  8
Layer0048
  6
Continuous
 62
     3
370
    25
100
AcDbLine
 10
-99.05000304430723
 20
-66.1500015258789
 30
0.0
 11
-99.05000304430723
 21
-65.9000015258789
 31
0.0
  0
LINE
  5
3D3
330
1F
100
AcDbEntity
  8
Layer0048
  6
Continuous
 62
     3
370
    25
100
AcDbLine
 10
-99.05000304430723
 20
-65.9000015258789
 30
0.0
 11
-99.55000304430722
 21
-65.9000015258789
 31
0.0
  0
LINE
  5
3D4
330
1F
100
AcDbEntity
  8
Layer0048
  6
Continuous
 62
     3
370
    25
100
AcDbLine
 10
-99.55000304430722
 20
-65.9000015258789
 30
0.0
 11
-100.3000030443072
 21
-66.6500015258789
 31
0.0
  0
LINE
  5
3D5
330
1F
100
AcDbEntity
  8
Layer0048
  6
Continuous
 62
     3
370
    25
100
AcDbLine
 10
-100.3000030443072
 20
-66.6500015258789
 30
0.0
 11
-101.0500030443072
 21
-65.9000015258789
 31
0.0
  0
LINE
  5
3D6
330
1F
100
AcDbEntity
  8
Layer0048
  6
Continuous
 62
     3
370
    25
100
AcDbLine
 10
-101.0500030443072
 20
-65.9000015258789
 30
0.0
 11
-101.5500030443072
 21
-65.9000015258789
 31
0.0
  0
CIRCLE
  5
3D7
330
1F
100
AcDbEntity
  8
Layer0048
  6
Continuous
 62
     3
370
    25
100
AcDbCircle
 10
-100.3000031178361
 20
-66.33750152587889
 30
0.0
 40
0.2249999940395355
  0
LINE
  5
3D8
330
1F
100
AcDbEntity
  8
Layer0048
  6
Continuous
 62
     3
370
    25
100
AcDbLine
 10
-98.06249999254942
 20
-65.9000015258789
 30
0.0
 11
-98.06249999254942
 21
-66.1500015258789
 31
0.0
  0
LINE
  5
3D9
330
1F
100
AcDbEntity
  8
Layer0048
  6
Continuous
 62
     3
370
    25
100
AcDbLine
 10
-98.06249999254942
 20
-66.1500015258789
 30
0.0
 11
-97.68749999254942
 21
-66.1500015258789
 31
0.0
  0
LINE
  5
3DA
330
1F
100
AcDbEntity
  8
Layer0048
  6
Continuous
 62
     3
370
    25
100
AcDbLine
 10
-97.68749999254942
 20
-66.1500015258789
 30
0.0
 11
-97.18749999254942
 21
-67.0250015258789
 31
0.0
  0
LINE
  5
3DB
330
1F
100
AcDbEntity
  8
Layer0048
  6
Continuous
 62
     3
370
    25
100
AcDbLine
 10
-97.18749999254942
 20
-67.0250015258789
 30
0.0
 11
-97.18749999254942
 21
-67.4000015258789
 31
0.0
  0
LINE
  5
3DC
330
1F
100
AcDbEntity
  8
Layer0048
  6
Continuous
 62
     3
370
    25
100
AcDbLine
 10
-97.18749999254942
 20
-67.4000015258789
 30
0.0
 11
-97.06249999254942
 21
-67.5250015258789
 31
0.0
  0
LINE
  5
3DD
330
1F
100
AcDbEntity
  8
Layer0048
  6
Continuous
 62
     3
370
    25
100
AcDbLine
 10
-97.06249999254942
 20
-67.5250015258789
 30
0.0
 11
-97.06249999254942
 21
-71.4000015258789
 31
0.0
  0
LINE
  5
3DE
330
1F
100
AcDbEntity
  8
Layer0048
  6
Continuous
 62
     3
370
    25
100
AcDbLine
 10
-97.06249999254942
 20
-71.4000015258789
 30
0.0
 11
-96.56249999254942
 21
-71.4000015258789
 31
0.0
  0
LINE
  5
3DF
330
1F
100
AcDbEntity
  8
Layer0048
  6
Continuous
 62
     3
370
    25
100
AcDbLine
 10
-96.56249999254942
 20
-71.4000015258789
 30
0.0
 11
-96.56249999254942
 21
-67.5250015258789
 31
0.0
  0
LINE
  5
3E0
330
1F
100
AcDbEntity
  8
Layer0048
  6
Continuous
 62
     3
370
    25
100
AcDbLine
 10
-96.56249999254942
 20
-67.5250015258789
 30
0.0
 11
-96.43749999254942
 21
-67.4000015258789
 31
0.0
  0
LINE
  5
3E1
330
1F
100
AcDbEntity
  8
Layer0048
  6
Continuous
 62
     3
370
    25
100
AcDbLine
 10
-96.43749999254942
 20
-67.4000015258789
 30
0.0
 11
-96.43749999254942
 21
-67.0250015258789
 31
0.0
  0
LINE
  5
3E2
330
1F
100
AcDbEntity
  8
Layer0048
  6
Continuous
 62
     3
370
    25
100
AcDbLine
 10
-96.43749999254942
 20
-67.0250015258789
 30
0.0
 11
-95.93749999254942
 21
-66.1500015258789
 31
0.0
  0
LINE
  5
3E3
330
1F
100
AcDbEntity
  8
Layer0048
  6
Continuous
 62
     3
370
    25
100
AcDbLine
 10
-95.93749999254942
 20
-66.1500015258789
 30
0.0
 11
-95.56249999254942
 21
-66.1500015258789
 31
0.0
  0
LINE
  5
3E4
330
1F
100
AcDbEntity
  8
Layer0048
  6
Continuous
 62
     3
370
    25
100
AcDbLine
 10
-95.56249999254942
 20
-66.1500015258789
 30
0.0
 11
-95.56249999254942
 21
-65.9000015258789
 31
0.0
  0
LINE
  5
3E5
330
1F
100
AcDbEntity
  8
Layer0048
  6
Continuous
 62
     3
370
    25
100
AcDbLine
 10
-95.56249999254942
 20
-65.9000015258789
 30
0.0
 11
-96.06249999254942
 21
-65.9000015258789
 31
0.0
  0
LINE
  5
3E6
330
1F
100
AcDbEntity
  8
Layer0048
  6
Continuous
 62
     3
370
    25
100
AcDbLine
 10
-96.06249999254942
 20
-65.9000015258789
 30
0.0
 11
-96.81249999254942
 21
-66.6500015258789
 31
0.0
  0
LINE
  5
3E7
330
1F
100
AcDbEntity
  8
Layer0048
  6
Continuous
 62
     3
370
    25
100
AcDbLine
 10
-96.81249999254942
 20
-66.6500015258789
 30
0.0
 11
-97.56249999254942
 21
-65.9000015258789
 31
0.0
  0
LINE
  5
3E8
330
1F
100
AcDbEntity
  8
Layer0048
  6
Continuous
 62
     3
370
    25
100
AcDbLine
 10
-97.56249999254942
 20
-65.9000015258789
 30
0.0
 11
-98.06249999254942
 21
-65.9000015258789
 31
0.0
  0
CIRCLE
  5
3E9
330
1F
100
AcDbEntity
  8
Layer0048
  6
Continuous
 62
     3
370
    25
100
AcDbCircle
 10
-96.81250006607827
 20
-66.33750152587889
 30
0.0
 40
0.2249999940395355
  0
LINE
  5
3EA
330
1F
100
AcDbEntity
  8
Layer0048
  6
Continuous
 62
     3
370
    25
100
AcDbLine
 10
-94.5749969407916
 20
-65.9000015258789
 30
0.0
 11
-94.5749969407916
 21
-66.1500015258789
 31
0.0
  0
LINE
  5
3EB
330
1F
100
AcDbEntity
  8
Layer0048
  6
Continuous
 62
     3
370
    25
100
AcDbLine
 10
-94.5749969407916
 20
-66.1500015258789
 30
0.0
 11
-94.1999969407916
 21
-66.1500015258789
 31
0.0
  0
LINE
  5
3EC
330
1F
100
AcDbEntity
  8
Layer0048
  6
Continuous
 62
     3
370
    25
100
AcDbLine
 10
-94.1999969407916
 20
-66.1500015258789
 30
0.0
 11
-93.6999969407916
 21
-67.0250015258789
 31
0.0
  0
LINE
  5
3ED
330
1F
100
AcDbEntity
  8
Layer0048
  6
Continuous
 62
     3
370
    25
100
AcDbLine
 10
-93.6999969407916
 20
-67.0250015258789
 30
0.0
 11
-93.6999969407916
 21
-67.4000015258789
 31
0.0
  0
LINE
  5
3EE
330
1F
100
AcDbEntity
  8
Layer0048
  6
Continuous
 62
     3
370
    25
100
AcDbLine
 10
-93.6999969407916
 20
-67.4000015258789
 30
0.0
 11
-93.5749969407916
 21
-67.5250015258789
 31
0.0
  0
LINE
  5
3EF
330
1F
100
AcDbEntity
  8
Layer0048
  6
Continuous
 62
     3
370
    25
100
AcDbLine
 10
-93.5749969407916
 20
-67.5250015258789
 30
0.0
 11
-93.5749969407916
 21
-71.4000015258789
 31
0.0
  0
LINE
  5
3F0
330
1F
100
AcDbEntity
  8
Layer0048
  6
Continuous
 62
     3
370
    25
100
AcDbLine
 10
-93.5749969407916
 20
-71.4000015258789
 30
0.0
 11
-93.0749969407916
 21
-71.4000015258789
 31
0.0
  0
LINE
  5
3F1
330
1F
100
AcDbEntity
  8
Layer0048
  6
Continuous
 62
     3
370
    25
100
AcDbLine
 10
-93.0749969407916
 20
-71.4000015258789
 30
0.0
 11
-93.0749969407916
 21
-67.5250015258789
 31
0.0
  0
LINE
  5
3F2
330
1F
100
AcDbEntity
  8
Layer0048
  6
Continuous
 62
     3
370
    25
100
AcDbLine
 10
-93.0749969407916
 20
-67.5250015258789
 30
0.0
 11
-92.9499969407916
 21
-67.4000015258789
 31
0.0
  0
LINE
  5
3F3
330
1F
100
AcDbEntity
  8
Layer0048
  6
Continuous
 62
     3
370
    25
100
AcDbLine
 10
-92.9499969407916
 20
-67.4000015258789
 30
0.0
 11
-92.9499969407916
 21
-67.0250015258789
 31
0.0
  0
LINE
  5
3F4
330
1F
100
AcDbEntity
  8
Layer0048
  6
Continuous
 62
     3
370
    25
100
AcDbLine
 10
-92.9499969407916
 20
-67.0250015258789
 30
0.0
 11
-92.4499969407916
 21
-66.1500015258789
 31
0.0
  0
LINE
  5
3F5
330
1F
100
AcDbEntity
  8
Layer0048
  6
Continuous
 62
     3
370
    25
100
AcDbLine
 10
-92.4499969407916
 20
-66.1500015258789
 30
0.0
 11
-92.0749969407916
 21
-66.1500015258789
 31
0.0
  0
LINE
  5
3F6
330
1F
100
AcDbEntity
  8
Layer0048
  6
Continuous
 62
     3
370
    25
100
AcDbLine
 10
-92.0749969407916
 20
-66.1500015258789
 30
0.0
 11
-92.0749969407916
 21
-65.9000015258789
 31
0.0
  0
LINE
  5
3F7
330
1F
100
AcDbEntity
  8
Layer0048
  6
Continuous
 62
     3
370
    25
100
AcDbLine
 10
-92.0749969407916
 20
-65.9000015258789
 30
0.0
 11
-92.5749969407916
 21
-65.9000015258789
 31
0.0
  0
LINE
  5
3F8
330
1F
100
AcDbEntity
  8
Layer0048
  6
Continuous
 62
     3
370
    25
100
AcDbLine
 10
-92.5749969407916
 20
-65.9000015258789
 30
0.0
 11
-93.3249969407916
 21
-66.6500015258789
 31
0.0
  0
LINE
  5
3F9
330
1F
100
AcDbEntity
  8
Layer0048
  6
Continuous
 62
     3
370
    25
100
AcDbLine
 10
-93.3249969407916
 20
-66.6500015258789
 30
0.0
 11
-94.0749969407916
 21
-65.9000015258789
 31
0.0
  0
LINE
  5
3FA
330
1F
100
AcDbEntity
  8
Layer0048
  6
Continuous
 62
     3
370
    25
100
AcDbLine
 10
-94.0749969407916
 20
-65.9000015258789
 30
0.0
 11
-94.5749969407916
 21
-65.9000015258789
 31
0.0
  0
CIRCLE
  5
3FB
330
1F
100
AcDbEntity
  8
Layer0048
  6
Continuous
 62
     3
370
    25
100
AcDbCircle
 10
-93.32499701432046
 20
-66.33750152587889
 30
0.0
 40
0.2249999940395355
  0
LINE
  5
3FC
330
1F
100
AcDbEntity
  8
Layer0048
  6
Continuous
 62
     3
370
    25
100
AcDbLine
 10
-91.08750151842833
 20
-65.9000015258789
 30
0.0
 11
-91.08750151842833
 21
-66.1500015258789
 31
0.0
  0
LINE
  5
3FD
330
1F
100
AcDbEntity
  8
Layer0048
  6
Continuous
 62
     3
370
    25
100
AcDbLine
 10
-91.08750151842833
 20
-66.1500015258789
 30
0.0
 11
-90.71250151842833
 21
-66.1500015258789
 31
0.0
  0
LINE
  5
3FE
330
1F
100
AcDbEntity
  8
Layer0048
  6
Continuous
 62
     3
370
    25
100
AcDbLine
 10
-90.71250151842833
 20
-66.1500015258789
 30
0.0
 11
-90.21250151842833
 21
-67.0250015258789
 31
0.0
  0
LINE
  5
3FF
330
1F
100
AcDbEntity
  8
Layer0048
  6
Continuous
 62
     3
370
    25
100
AcDbLine
 10
-90.21250151842833
 20
-67.0250015258789
 30
0.0
 11
-90.21250151842833
 21
-67.4000015258789
 31
0.0
  0
LINE
  5
400
330
1F
100
AcDbEntity
  8
Layer0048
  6
Continuous
 62
     3
370
    25
100
AcDbLine
 10
-90.21250151842833
 20
-67.4000015258789
 30
0.0
 11
-90.08750151842833
 21
-67.5250015258789
 31
0.0
  0
LINE
  5
401
330
1F
100
AcDbEntity
  8
Layer0048
  6
Continuous
 62
     3
370
    25
100
AcDbLine
 10
-90.08750151842833
 20
-67.5250015258789
 30
0.0
 11
-90.08750151842833
 21
-71.4000015258789
 31
0.0
  0
LINE
  5
402
330
1F
100
AcDbEntity
  8
Layer0048
  6
Continuous
 62
     3
370
    25
100
AcDbLine
 10
-90.08750151842833
 20
-71.4000015258789
 30
0.0
 11
-89.58750151842833
 21
-71.4000015258789
 31
0.0
  0
LINE
  5
403
330
1F
100
AcDbEntity
  8
Layer0048
  6
Continuous
 62
     3
370
    25
100
AcDbLine
 10
-89.58750151842833
 20
-71.4000015258789
 30
0.0
 11
-89.58750151842833
 21
-67.5250015258789
 31
0.0
  0
LINE
  5
404
330
1F
100
AcDbEntity
  8
Layer0048
  6
Continuous
 62
     3
370
    25
100
AcDbLine
 10
-89.58750151842833
 20
-67.5250015258789
 30
0.0
 11
-89.46250151842833
 21
-67.4000015258789
 31
0.0
  0
LINE
  5
405
330
1F
100
AcDbEntity
  8
Layer0048
  6
Continuous
 62
     3
370
    25
100
AcDbLine
 10
-89.46250151842833
 20
-67.4000015258789
 30
0.0
 11
-89.46250151842833
 21
-67.0250015258789
 31
0.0
  0
LINE
  5
406
330
1F
100
AcDbEntity
  8
Layer0048
  6
Continuous
 62
     3
370
    25
100
AcDbLine
 10
-89.46250151842833
 20
-67.0250015258789
 30
0.0
 11
-88.96250151842833
 21
-66.1500015258789
 31
0.0
  0
LINE
  5
407
330
1F
100
AcDbEntity
  8
Layer0048
  6
Continuous
 62
     3
370
    25
100
AcDbLine
 10
-88.96250151842833
 20
-66.1500015258789
 30
0.0
 11
-88.58750151842833
 21
-66.1500015258789
 31
0.0
  0
LINE
  5
408
330
1F
100
AcDbEntity
  8
Layer0048
  6
Continuous
 62
     3
370
    25
100
AcDbLine
 10
-88.58750151842833
 20
-66.1500015258789
 30
0.0
 11
-88.58750151842833
 21
-65.9000015258789
 31
0.0
  0
LINE
  5
409
330
1F
100
AcDbEntity
  8
Layer0048
  6
Continuous
 62
     3
370
    25
100
AcDbLine
 10
-88.58750151842833
 20
-65.9000015258789
 30
0.0
 11
-89.08750151842833
 21
-65.9000015258789
 31
0.0
  0
LINE
  5
40A
330
1F
100
AcDbEntity
  8
Layer0048
  6
Continuous
 62
     3
370
    25
100
AcDbLine
 10
-89.08750151842833
 20
-65.9000015258789
 30
0.0
 11
-89.83750151842833
 21
-66.6500015258789
 31
0.0
  0
LINE
  5
40B
330
1F
100
AcDbEntity
  8
Layer0048
  6
Continuous
 62
     3
370
    25
100
AcDbLine
 10
-89.83750151842833
 20
-66.6500015258789
 30
0.0
 11
-90.58750151842833
 21
-65.9000015258789
 31
0.0
  0
LINE
  5
40C
330
1F
100
AcDbEntity
  8
Layer0048
  6
Continuous
 62
     3
370
    25
100
AcDbLine
 10
-90.58750151842833
 20
-65.9000015258789
 30
0.0
 11
-91.08750151842833
 21
-65.9000015258789
 31
0.0
  0
CIRCLE
  5
40D
330
1F
100
AcDbEntity
  8
Layer0048
  6
Continuous
 62
     3
370
    25
100
AcDbCircle
 10
-89.83750159195718
 20
-66.33750152587889
 30
0.0
 40
0.2249999940395355
  0
LINE
  5
40E
330
1F
100
AcDbEntity
  8
Layer0048
  6
Continuous
 62
     3
370
    25
100
AcDbLine
 10
-87.59999846667051
 20
-65.9000015258789
 30
0.0
 11
-87.59999846667051
 21
-66.1500015258789
 31
0.0
  0
LINE
  5
40F
330
1F
100
AcDbEntity
  8
Layer0048
  6
Continuous
 62
     3
370
    25
100
AcDbLine
 10
-87.59999846667051
 20
-66.1500015258789
 30
0.0
 11
-87.22499846667051
 21
-66.1500015258789
 31
0.0
  0
LINE
  5
410
330
1F
100
AcDbEntity
  8
Layer0048
  6
Continuous
 62
     3
370
    25
100
AcDbLine
 10
-87.22499846667051
 20
-66.1500015258789
 30
0.0
 11
-86.72499846667051
 21
-67.0250015258789
 31
0.0
  0
LINE
  5
411
330
1F
100
AcDbEntity
  8
Layer0048
  6
Continuous
 62
     3
370
    25
100
AcDbLine
 10
-86.72499846667051
 20
-67.0250015258789
 30
0.0
 11
-86.72499846667051
 21
-67.4000015258789
 31
0.0
  0
LINE
  5
412
330
1F
100
AcDbEntity
  8
Layer0048
  6
Continuous
 62
     3
370
    25
100
AcDbLine
 10
-86.72499846667051
 20
-67.4000015258789
 30
0.0
 11
-86.59999846667051
 21
-67.5250015258789
 31
0.0
  0
LINE
  5
413
330
1F
100
AcDbEntity
  8
Layer0048
  6
Continuous
 62
     3
370
    25
100
AcDbLine
 10
-86.59999846667051
 20
-67.5250015258789
 30
0.0
 11
-86.59999846667051
 21
-71.4000015258789
 31
0.0
  0
LINE
  5
414
330
1F
100
AcDbEntity
  8
Layer0048
  6
Continuous
 62
     3
370
    25
100
AcDbLine
 10
-86.59999846667051
 20
-71.4000015258789
 30
0.0
 11
-86.09999846667051
 21
-71.4000015258789
 31
0.0
  0
LINE
  5
415
330
1F
100
AcDbEntity
  8
Layer0048
  6
Continuous
 62
     3
370
    25
100
AcDbLine
 10
-86.09999846667051
 20
-71.4000015258789
 30
0.0
 11
-86.09999846667051
 21
-67.5250015258789
 31
0.0
  0
LINE
  5
416
330
1F
100
AcDbEntity
  8
Layer0048
  6
Continuous
 62
     3
370
    25
100
AcDbLine
 10
-86.09999846667051
 20
-67.5250015258789
 30
0.0
 11
-85.97499846667051
 21
-67.4000015258789
 31
0.0
  0
LINE
  5
417
330
1F
100
AcDbEntity
  8
Layer0048
  6
Continuous
 62
     3
370
    25
100
AcDbLine
 10
-85.97499846667051
 20
-67.4000015258789
 30
0.0
 11
-85.97499846667051
 21
-67.0250015258789
 31
0.0
  0
LINE
  5
418
330
1F
100
AcDbEntity
  8
Layer0048
  6
Continuous
 62
     3
370
    25
100
AcDbLine
 10
-85.97499846667051
 20
-67.0250015258789
 30
0.0
 11
-85.47499846667051
 21
-66.1500015258789
 31
0.0
  0
LINE
  5
419
330
1F
100
AcDbEntity
  8
Layer0048
  6
Continuous
 62
     3
370
    25
100
AcDbLine
 10
-85.47499846667051
 20
-66.1500015258789
 30
0.0
 11
-85.09999846667051
 21
-66.1500015258789
 31
0.0
  0
LINE
  5
41A
330
1F
100
AcDbEntity
  8
Layer0048
  6
Continuous
 62
     3
370
    25
100
AcDbLine
 10
-85.09999846667051
 20
-66.1500015258789
 30
0.0
 11
-85.09999846667051
 21
-65.9000015258789
 31
0.0
  0
LINE
  5
41B
330
1F
100
AcDbEntity
  8
Layer0048
  6
Continuous
 62
     3
370
    25
100
AcDbLine
 10
-85.09999846667051
 20
-65.9000015258789
 30
0.0
 11
-85.59999846667051
 21
-65.9000015258789
 31
0.0
  0
LINE
  5
41C
330
1F
100
AcDbEntity
  8
Layer0048
  6
Continuous
 62
     3
370
    25
100
AcDbLine
 10
-85.59999846667051
 20
-65.9000015258789
 30
0.0
 11
-86.34999846667051
 21
-66.6500015258789
 31
0.0
  0
LINE
  5
41D
330
1F
100
AcDbEntity
  8
Layer0048
  6
Continuous
 62
     3
370
    25
100
AcDbLine
 10
-86.34999846667051
 20
-66.6500015258789
 30
0.0
 11
-87.09999846667051
 21
-65.9000015258789
 31
0.0
  0
LINE
  5
41E
330
1F
100
AcDbEntity
  8
Layer0048
  6
Continuous
 62
     3
370
    25
100
AcDbLine
 10
-87.09999846667051
 20
-65.9000015258789
 30
0.0
 11
-87.59999846667051
 21
-65.9000015258789
 31
0.0
  0
CIRCLE
  5
41F
330
1F
100
AcDbEntity
  8
Layer0048
  6
Continuous
 62
     3
370
    25
100
AcDbCircle
 10
-86.34999854019937
 20
-66.33750152587889
 30
0.0
 40
0.2249999940395355
  0
LINE
  5
420
330
1F
100
AcDbEntity
  8
Layer0048
  6
Continuous
 62
     3
370
    25
100
AcDbLine
 10
-84.11250304430723
 20
-65.9000015258789
 30
0.0
 11
-84.11250304430723
 21
-66.1500015258789
 31
0.0
  0
LINE
  5
421
330
1F
100
AcDbEntity
  8
Layer0048
  6
Continuous
 62
     3
370
    25
100
AcDbLine
 10
-84.11250304430723
 20
-66.1500015258789
 30
0.0
 11
-83.73750304430723
 21
-66.1500015258789
 31
0.0
  0
LINE
  5
422
330
1F
100
AcDbEntity
  8
Layer0048
  6
Continuous
 62
     3
370
    25
100
AcDbLine
 10
-83.73750304430723
 20
-66.1500015258789
 30
0.0
 11
-83.23750304430723
 21
-67.0250015258789
 31
0.0
  0
LINE
  5
423
330
1F
100
AcDbEntity
  8
Layer0048
  6
Continuous
 62
     3
370
    25
100
AcDbLine
 10
-83.23750304430723
 20
-67.0250015258789
 30
0.0
 11
-83.23750304430723
 21
-67.4000015258789
 31
0.0
  0
LINE
  5
424
330
1F
100
AcDbEntity
  8
Layer0048
  6
Continuous
 62
     3
370
    25
100
AcDbLine
 10
-83.23750304430723
 20
-67.4000015258789
 30
0.0
 11
-83.11250304430723
 21
-67.5250015258789
 31
0.0
  0
LINE
  5
425
330
1F
100
AcDbEntity
  8
Layer0048
  6
Continuous
 62
     3
370
    25
100
AcDbLine
 10
-83.11250304430723
 20
-67.5250015258789
 30
0.0
 11
-83.11250304430723
 21
-71.4000015258789
 31
0.0
  0
LINE
  5
426
330
1F
100
AcDbEntity
  8
Layer0048
  6
Continuous
 62
     3
370
    25
100
AcDbLine
 10
-83.11250304430723
 20
-71.4000015258789
 30
0.0
 11
-82.61250304430723
 21
-71.4000015258789
 31
0.0
  0
LINE
  5
427
330
1F
100
AcDbEntity
  8
Layer0048
  6
Continuous
 62
     3
370
    25
100
AcDbLine
 10
-82.61250304430723
 20
-71.4000015258789
 30
0.0
 11
-82.61250304430723
 21
-67.5250015258789
 31
0.0
  0
LINE
  5
428
330
1F
100
AcDbEntity
  8
Layer0048
  6
Continuous
 62
     3
370
    25
100
AcDbLine
 10
-82.61250304430723
 20
-67.5250015258789
 30
0.0
 11
-82.48750304430723
 21
-67.4000015258789
 31
0.0
  0
LINE
  5
429
330
1F
100
AcDbEntity
  8
Layer0048
  6
Continuous
 62
     3
370
    25
100
AcDbLine
 10
-82.48750304430723
 20
-67.4000015258789
 30
0.0
 11
-82.48750304430723
 21
-67.0250015258789
 31
0.0
  0
LINE
  5
42A
330
1F
100
AcDbEntity
  8
Layer0048
  6
Continuous
 62
     3
370
    25
100
AcDbLine
 10
-82.48750304430723
 20
-67.0250015258789
 30
0.0
 11
-81.98750304430723
 21
-66.1500015258789
 31
0.0
  0
LINE
  5
42B
330
1F
100
AcDbEntity
  8
Layer0048
  6
Continuous
 62
     3
370
    25
100
AcDbLine
 10
-81.98750304430723
 20
-66.1500015258789
 30
0.0
 11
-81.61250304430723
 21
-66.1500015258789
 31
0.0
  0
LINE
  5
42C
330
1F
100
AcDbEntity
  8
Layer0048
  6
Continuous
 62
     3
370
    25
100
AcDbLine
 10
-81.61250304430723
 20
-66.1500015258789
 30
0.0
 11
-81.61250304430723
 21
-65.9000015258789
 31
0.0
  0
LINE
  5
42D
330
1F
100
AcDbEntity
  8
Layer0048
  6
Continuous
 62
     3
370
    25
100
AcDbLine
 10
-81.61250304430723
 20
-65.9000015258789
 30
0.0
 11
-82.11250304430723
 21
-65.9000015258789
 31
0.0
  0
LINE
  5
42E
330
1F
100
AcDbEntity
  8
Layer0048
  6
Continuous
 62
     3
370
    25
100
AcDbLine
 10
-82.11250304430723
 20
-65.9000015258789
 30
0.0
 11
-82.86250304430723
 21
-66.6500015258789
 31
0.0
  0
LINE
  5
42F
330
1F
100
AcDbEntity
  8
Layer0048
  6
Continuous
 62
     3
370
    25
100
AcDbLine
 10
-82.86250304430723
 20
-66.6500015258789
 30
0.0
 11
-83.61250304430723
 21
-65.9000015258789
 31
0.0
  0
LINE
  5
430
330
1F
100
AcDbEntity
  8
Layer0048
  6
Continuous
 62
     3
370
    25
100
AcDbLine
 10
-83.61250304430723
 20
-65.9000015258789
 30
0.0
 11
-84.11250304430723
 21
-65.9000015258789
 31
0.0
  0
CIRCLE
  5
431
330
1F
100
AcDbEntity
  8
Layer0048
  6
Continuous
 62
     3
370
    25
100
AcDbCircle
 10
-82.86250311783608
 20
-66.33750152587889
 30
0.0
 40
0.2249999940395355
  0
LINE
  5
432
330
1F
100
AcDbEntity
  8
Layer0048
  6
Continuous
 62
     3
370
    25
100
AcDbLine
 10
-80.62499999254942
 20
-65.9000015258789
 30
0.0
 11
-80.62499999254942
 21
-66.1500015258789
 31
0.0
  0
LINE
  5
433
330
1F
100
AcDbEntity
  8
Layer0048
  6
Continuous
 62
     3
370
    25
100
AcDbLine
 10
-80.62499999254942
 20
-66.1500015258789
 30
0.0
 11
-80.24999999254942
 21
-66.1500015258789
 31
0.0
  0
LINE
  5
434
330
1F
100
AcDbEntity
  8
Layer0048
  6
Continuous
 62
     3
370
    25
100
AcDbLine
 10
-80.24999999254942
 20
-66.1500015258789
 30
0.0
 11
-79.74999999254942
 21
-67.0250015258789
 31
0.0
  0
LINE
  5
435
330
1F
100
AcDbEntity
  8
Layer0048
  6
Continuous
 62
     3
370
    25
100
AcDbLine
 10
-79.74999999254942
 20
-67.0250015258789
 30
0.0
 11
-79.74999999254942
 21
-67.4000015258789
 31
0.0
  0
LINE
  5
436
330
1F
100
AcDbEntity
  8
Layer0048
  6
Continuous
 62
     3
370
    25
100
AcDbLine
 10
-79.74999999254942
 20
-67.4000015258789
 30
0.0
 11
-79.62499999254942
 21
-67.5250015258789
 31
0.0
  0
LINE
  5
437
330
1F
100
AcDbEntity
  8
Layer0048
  6
Continuous
 62
     3
370
    25
100
AcDbLine
 10
-79.62499999254942
 20
-67.5250015258789
 30
0.0
 11
-79.62499999254942
 21
-71.4000015258789
 31
0.0
  0
LINE
  5
438
330
1F
100
AcDbEntity
  8
Layer0048
  6
Continuous
 62
     3
370
    25
100
AcDbLine
 10
-79.62499999254942
 20
-71.4000015258789
 30
0.0
 11
-79.12499999254942
 21
-71.4000015258789
 31
0.0
  0
LINE
  5
439
330
1F
100
AcDbEntity
  8
Layer0048
  6
Continuous
 62
     3
370
    25
100
AcDbLine
 10
-79.12499999254942
 20
-71.4000015258789
 30
0.0
 11
-79.12499999254942
 21
-67.5250015258789
 31
0.0
  0
LINE
  5
43A
330
1F
100
AcDbEntity
  8
Layer0048
  6
Continuous
 62
     3
370
    25
100
AcDbLine
 10
-79.12499999254942
 20
-67.5250015258789
 30
0.0
 11
-78.99999999254942
 21
-67.4000015258789
 31
0.0
  0
LINE
  5
43B
330
1F
100
AcDbEntity
  8
Layer0048
  6
Continuous
 62
     3
370
    25
100
AcDbLine
 10
-78.99999999254942
 20
-67.4000015258789
 30
0.0
 11
-78.99999999254942
 21
-67.0250015258789
 31
0.0
  0
LINE
  5
43C
330
1F
100
AcDbEntity
  8
Layer0048
  6
Continuous
 62
     3
370
    25
100
AcDbLine
 10
-78.99999999254942
 20
-67.0250015258789
 30
0.0
 11
-78.49999999254942
 21
-66.1500015258789
 31
0.0
  0
LINE
  5
43D
330
1F
100
AcDbEntity
  8
Layer0048
  6
Continuous
 62
     3
370
    25
100
AcDbLine
 10
-78.49999999254942
 20
-66.1500015258789
 30
0.0
 11
-78.12499999254942
 21
-66.1500015258789
 31
0.0
  0
LINE
  5
43E
330
1F
100
AcDbEntity
  8
Layer0048
  6
Continuous
 62
     3
370
    25
100
AcDbLine
 10
-78.12499999254942
 20
-66.1500015258789
 30
0.0
 11
-78.12499999254942
 21
-65.9000015258789
 31
0.0
  0
LINE
  5
43F
330
1F
100
AcDbEntity
  8
Layer0048
  6
Continuous
 62
     3
370
    25
100
AcDbLine
 10
-78.12499999254942
 20
-65.9000015258789
 30
0.0
 11
-78.62499999254942
 21
-65.9000015258789
 31
0.0
  0
LINE
  5
440
330
1F
100
AcDbEntity
  8
Layer0048
  6
Continuous
 62
     3
370
    25
100
AcDbLine
 10
-78.62499999254942
 20
-65.9000015258789
 30
0.0
 11
-79.37499999254942
 21
-66.6500015258789
 31
0.0
  0
LINE
  5
441
330
1F
100
AcDbEntity
  8
Layer0048
  6
Continuous
 62
     3
370
    25
100
AcDbLine
 10
-79.37499999254942
 20
-66.6500015258789
 30
0.0
 11
-80.12499999254942
 21
-65.9000015258789
 31
0.0
  0
LINE
  5
442
330
1F
100
AcDbEntity
  8
Layer0048
  6
Continuous
 62
     3
370
    25
100
AcDbLine
 10
-80.12499999254942
 20
-65.9000015258789
 30
0.0
 11
-80.62499999254942
 21
-65.9000015258789
 31
0.0
  0
CIRCLE
  5
443
330
1F
100
AcDbEntity
  8
Layer0048
  6
Continuous
 62
     3
370
    25
100
AcDbCircle
 10
-79.37500006607827
 20
-66.33750152587889
 30
0.0
 40
0.2249999940395355
  0
LINE
  5
444
330
1F
100
AcDbEntity
  8
Layer0048
  6
Continuous
 62
     3
370
    25
100
AcDbLine
 10
-77.1374969407916
 20
-65.9000015258789
 30
0.0
 11
-77.1374969407916
 21
-66.1500015258789
 31
0.0
  0
LINE
  5
445
330
1F
100
AcDbEntity
  8
Layer0048
  6
Continuous
 62
     3
370
    25
100
AcDbLine
 10
-77.1374969407916
 20
-66.1500015258789
 30
0.0
 11
-76.7624969407916
 21
-66.1500015258789
 31
0.0
  0
LINE
  5
446
330
1F
100
AcDbEntity
  8
Layer0048
  6
Continuous
 62
     3
370
    25
100
AcDbLine
 10
-76.7624969407916
 20
-66.1500015258789
 30
0.0
 11
-76.2624969407916
 21
-67.0250015258789
 31
0.0
  0
LINE
  5
447
330
1F
100
AcDbEntity
  8
Layer0048
  6
Continuous
 62
     3
370
    25
100
AcDbLine
 10
-76.2624969407916
 20
-67.0250015258789
 30
0.0
 11
-76.2624969407916
 21
-67.4000015258789
 31
0.0
  0
LINE
  5
448
330
1F
100
AcDbEntity
  8
Layer0048
  6
Continuous
 62
     3
370
    25
100
AcDbLine
 10
-76.2624969407916
 20
-67.4000015258789
 30
0.0
 11
-76.1374969407916
 21
-67.5250015258789
 31
0.0
  0
LINE
  5
449
330
1F
100
AcDbEntity
  8
Layer0048
  6
Continuous
 62
     3
370
    25
100
AcDbLine
 10
-76.1374969407916
 20
-67.5250015258789
 30
0.0
 11
-76.1374969407916
 21
-71.4000015258789
 31
0.0
  0
LINE
  5
44A
330
1F
100
AcDbEntity
  8
Layer0048
  6
Continuous
 62
     3
370
    25
100
AcDbLine
 10
-76.1374969407916
 20
-71.4000015258789
 30
0.0
 11
-75.6374969407916
 21
-71.4000015258789
 31
0.0
  0
LINE
  5
44B
330
1F
100
AcDbEntity
  8
Layer0048
  6
Continuous
 62
     3
370
    25
100
AcDbLine
 10
-75.6374969407916
 20
-71.4000015258789
 30
0.0
 11
-75.6374969407916
 21
-67.5250015258789
 31
0.0
  0
LINE
  5
44C
330
1F
100
AcDbEntity
  8
Layer0048
  6
Continuous
 62
     3
370
    25
100
AcDbLine
 10
-75.6374969407916
 20
-67.5250015258789
 30
0.0
 11
-75.5124969407916
 21
-67.4000015258789
 31
0.0
  0
LINE
  5
44D
330
1F
100
AcDbEntity
  8
Layer0048
  6
Continuous
 62
     3
370
    25
100
AcDbLine
 10
-75.5124969407916
 20
-67.4000015258789
 30
0.0
 11
-75.5124969407916
 21
-67.0250015258789
 31
0.0
  0
LINE
  5
44E
330
1F
100
AcDbEntity
  8
Layer0048
  6
Continuous
 62
     3
370
    25
100
AcDbLine
 10
-75.5124969407916
 20
-67.0250015258789
 30
0.0
 11
-75.0124969407916
 21
-66.1500015258789
 31
0.0
  0
LINE
  5
44F
330
1F
100
AcDbEntity
  8
Layer0048
  6
Continuous
 62
     3
370
    25
100
AcDbLine
 10
-75.0124969407916
 20
-66.1500015258789
 30
0.0
 11
-74.6374969407916
 21
-66.1500015258789
 31
0.0
  0
LINE
  5
450
330
1F
100
AcDbEntity
  8
Layer0048
  6
Continuous
 62
     3
370
    25
100
AcDbLine
 10
-74.6374969407916
 20
-66.1500015258789
 30
0.0
 11
-74.6374969407916
 21
-65.9000015258789
 31
0.0
  0
LINE
  5
451
330
1F
100
AcDbEntity
  8
Layer0048
  6
Continuous
 62
     3
370
    25
100
AcDbLine
 10
-74.6374969407916
 20
-65.9000015258789
 30
0.0
 11
-75.1374969407916
 21
-65.9000015258789
 31
0.0
  0
LINE
  5
452
330
1F
100
AcDbEntity
  8
Layer0048
  6
Continuous
 62
     3
370
    25
100
AcDbLine
 10
-75.1374969407916
 20
-65.9000015258789
 30
0.0
 11
-75.8874969407916
 21
-66.6500015258789
 31
0.0
  0
LINE
  5
453
330
1F
100
AcDbEntity
  8
Layer0048
  6
Continuous
 62
     3
370
    25
100
AcDbLine
 10
-75.8874969407916
 20
-66.6500015258789
 30
0.0
 11
-76.6374969407916
 21
-65.9000015258789
 31
0.0
  0
LINE
  5
454
330
1F
100
AcDbEntity
  8
Layer0048
  6
Continuous
 62
     3
370
    25
100
AcDbLine
 10
-76.6374969407916
 20
-65.9000015258789
 30
0.0
 11
-77.1374969407916
 21
-65.9000015258789
 31
0.0
  0
CIRCLE
  5
455
330
1F
100
AcDbEntity
  8
Layer0048
  6
Continuous
 62
     3
370
    25
100
AcDbCircle
 10
-75.88749701432046
 20
-66.33750152587889
 30
0.0
 40
0.2249999940395355
  0
LINE
  5
456
330
1F
100
AcDbEntity
  8
Layer0048
  6
Continuous
 62
     3
370
    25
100
AcDbLine
 10
-73.65000151842833
 20
-65.9000015258789
 30
0.0
 11
-73.65000151842833
 21
-66.1500015258789
 31
0.0
  0
LINE
  5
457
330
1F
100
AcDbEntity
  8
Layer0048
  6
Continuous
 62
     3
370
    25
100
AcDbLine
 10
-73.65000151842833
 20
-66.1500015258789
 30
0.0
 11
-73.27500151842833
 21
-66.1500015258789
 31
0.0
  0
LINE
  5
458
330
1F
100
AcDbEntity
  8
Layer0048
  6
Continuous
 62
     3
370
    25
100
AcDbLine
 10
-73.27500151842833
 20
-66.1500015258789
 30
0.0
 11
-72.77500151842833
 21
-67.0250015258789
 31
0.0
  0
LINE
  5
459
330
1F
100
AcDbEntity
  8
Layer0048
  6
Continuous
 62
     3
370
    25
100
AcDbLine
 10
-72.77500151842833
 20
-67.0250015258789
 30
0.0
 11
-72.77500151842833
 21
-67.4000015258789
 31
0.0
  0
LINE
  5
45A
330
1F
100
AcDbEntity
  8
Layer0048
  6
Continuous
 62
     3
370
    25
100
AcDbLine
 10
-72.77500151842833
 20
-67.4000015258789
 30
0.0
 11
-72.65000151842833
 21
-67.5250015258789
 31
0.0
  0
LINE
  5
45B
330
1F
100
AcDbEntity
  8
Layer0048
  6
Continuous
 62
     3
370
    25
100
AcDbLine
 10
-72.65000151842833
 20
-67.5250015258789
 30
0.0
 11
-72.65000151842833
 21
-71.4000015258789
 31
0.0
  0
LINE
  5
45C
330
1F
100
AcDbEntity
  8
Layer0048
  6
Continuous
 62
     3
370
    25
100
AcDbLine
 10
-72.65000151842833
 20
-71.4000015258789
 30
0.0
 11
-72.15000151842833
 21
-71.4000015258789
 31
0.0
  0
LINE
  5
45D
330
1F
100
AcDbEntity
  8
Layer0048
  6
Continuous
 62
     3
370
    25
100
AcDbLine
 10
-72.15000151842833
 20
-71.4000015258789
 30
0.0
 11
-72.15000151842833
 21
-67.5250015258789
 31
0.0
  0
LINE
  5
45E
330
1F
100
AcDbEntity
  8
Layer0048
  6
Continuous
 62
     3
370
    25
100
AcDbLine
 10
-72.15000151842833
 20
-67.5250015258789
 30
0.0
 11
-72.02500151842833
 21
-67.4000015258789
 31
0.0
  0
LINE
  5
45F
330
1F
100
AcDbEntity
  8
Layer0048
  6
Continuous
 62
     3
370
    25
100
AcDbLine
 10
-72.02500151842833
 20
-67.4000015258789
 30
0.0
 11
-72.02500151842833
 21
-67.0250015258789
 31
0.0
  0
LINE
  5
460
330
1F
100
AcDbEntity
  8
Layer0048
  6
Continuous
 62
     3
370
    25
100
AcDbLine
 10
-72.02500151842833
 20
-67.0250015258789
 30
0.0
 11
-71.52500151842833
 21
-66.1500015258789
 31
0.0
  0
LINE
  5
461
330
1F
100
AcDbEntity
  8
Layer0048
  6
Continuous
 62
     3
370
    25
100
AcDbLine
 10
-71.52500151842833
 20
-66.1500015258789
 30
0.0
 11
-71.15000151842833
 21
-66.1500015258789
 31
0.0
  0
LINE
  5
462
330
1F
100
AcDbEntity
  8
Layer0048
  6
Continuous
 62
     3
370
    25
100
AcDbLine
 10
-71.15000151842833
 20
-66.1500015258789
 30
0.0
 11
-71.15000151842833
 21
-65.9000015258789
 31
0.0
  0
LINE
  5
463
330
1F
100
AcDbEntity
  8
Layer0048
  6
Continuous
 62
     3
370
    25
100
AcDbLine
 10
-71.15000151842833
 20
-65.9000015258789
 30
0.0
 11
-71.65000151842833
 21
-65.9000015258789
 31
0.0
  0
LINE
  5
464
330
1F
100
AcDbEntity
  8
Layer0048
  6
Continuous
 62
     3
370
    25
100
AcDbLine
 10
-71.65000151842833
 20
-65.9000015258789
 30
0.0
 11
-72.40000151842833
 21
-66.6500015258789
 31
0.0
  0
LINE
  5
465
330
1F
100
AcDbEntity
  8
Layer0048
  6
Continuous
 62
     3
370
    25
100
AcDbLine
 10
-72.40000151842833
 20
-66.6500015258789
 30
0.0
 11
-73.15000151842833
 21
-65.9000015258789
 31
0.0
  0
LINE
  5
466
330
1F
100
AcDbEntity
  8
Layer0048
  6
Continuous
 62
     3
370
    25
100
AcDbLine
 10
-73.15000151842833
 20
-65.9000015258789
 30
0.0
 11
-73.65000151842833
 21
-65.9000015258789
 31
0.0
  0
CIRCLE
  5
467
330
1F
100
AcDbEntity
  8
Layer0048
  6
Continuous
 62
     3
370
    25
100
AcDbCircle
 10
-72.40000159195718
 20
-66.33750152587889
 30
0.0
 40
0.2249999940395355
  0
LINE
  5
468
330
1F
100
AcDbEntity
  8
Layer0048
  6
Continuous
 62
     3
370
    25
100
AcDbLine
 10
-70.16249846667051
 20
-65.9000015258789
 30
0.0
 11
-70.16249846667051
 21
-66.1500015258789
 31
0.0
  0
LINE
  5
469
330
1F
100
AcDbEntity
  8
Layer0048
  6
Continuous
 62
     3
370
    25
100
AcDbLine
 10
-70.16249846667051
 20
-66.1500015258789
 30
0.0
 11
-69.78749846667051
 21
-66.1500015258789
 31
0.0
  0
LINE
  5
46A
330
1F
100
AcDbEntity
  8
Layer0048
  6
Continuous
 62
     3
370
    25
100
AcDbLine
 10
-69.78749846667051
 20
-66.1500015258789
 30
0.0
 11
-69.28749846667051
 21
-67.0250015258789
 31
0.0
  0
LINE
  5
46B
330
1F
100
AcDbEntity
  8
Layer0048
  6
Continuous
 62
     3
370
    25
100
AcDbLine
 10
-69.28749846667051
 20
-67.0250015258789
 30
0.0
 11
-69.28749846667051
 21
-67.4000015258789
 31
0.0
  0
LINE
  5
46C
330
1F
100
AcDbEntity
  8
Layer0048
  6
Continuous
 62
     3
370
    25
100
AcDbLine
 10
-69.28749846667051
 20
-67.4000015258789
 30
0.0
 11
-69.16249846667051
 21
-67.5250015258789
 31
0.0
  0
LINE
  5
46D
330
1F
100
AcDbEntity
  8
Layer0048
  6
Continuous
 62
     3
370
    25
100
AcDbLine
 10
-69.16249846667051
 20
-67.5250015258789
 30
0.0
 11
-69.16249846667051
 21
-71.4000015258789
 31
0.0
  0
LINE
  5
46E
330
1F
100
AcDbEntity
  8
Layer0048
  6
Continuous
 62
     3
370
    25
100
AcDbLine
 10
-69.16249846667051
 20
-71.4000015258789
 30
0.0
 11
-68.66249846667051
 21
-71.4000015258789
 31
0.0
  0
LINE
  5
46F
330
1F
100
AcDbEntity
  8
Layer0048
  6
Continuous
 62
     3
370
    25
100
AcDbLine
 10
-68.66249846667051
 20
-71.4000015258789
 30
0.0
 11
-68.66249846667051
 21
-67.5250015258789
 31
0.0
  0
LINE
  5
470
330
1F
100
AcDbEntity
  8
Layer0048
  6
Continuous
 62
     3
370
    25
100
AcDbLine
 10
-68.66249846667051
 20
-67.5250015258789
 30
0.0
 11
-68.53749846667051
 21
-67.4000015258789
 31
0.0
  0
LINE
  5
471
330
1F
100
AcDbEntity
  8
Layer0048
  6
Continuous
 62
     3
370
    25
100
AcDbLine
 10
-68.53749846667051
 20
-67.4000015258789
 30
0.0
 11
-68.53749846667051
 21
-67.0250015258789
 31
0.0
  0
LINE
  5
472
330
1F
100
AcDbEntity
  8
Layer0048
  6
Continuous
 62
     3
370
    25
100
AcDbLine
 10
-68.53749846667051
 20
-67.0250015258789
 30
0.0
 11
-68.03749846667051
 21
-66.1500015258789
 31
0.0
  0
LINE
  5
473
330
1F
100
AcDbEntity
  8
Layer0048
  6
Continuous
 62
     3
370
    25
100
AcDbLine
 10
-68.03749846667051
 20
-66.1500015258789
 30
0.0
 11
-67.66249846667051
 21
-66.1500015258789
 31
0.0
  0
LINE
  5
474
330
1F
100
AcDbEntity
  8
Layer0048
  6
Continuous
 62
     3
370
    25
100
AcDbLine
 10
-67.66249846667051
 20
-66.1500015258789
 30
0.0
 11
-67.66249846667051
 21
-65.9000015258789
 31
0.0
  0
LINE
  5
475
330
1F
100
AcDbEntity
  8
Layer0048
  6
Continuous
 62
     3
370
    25
100
AcDbLine
 10
-67.66249846667051
 20
-65.9000015258789
 30
0.0
 11
-68.16249846667051
 21
-65.9000015258789
 31
0.0
  0
LINE
  5
476
330
1F
100
AcDbEntity
  8
Layer0048
  6
Continuous
 62
     3
370
    25
100
AcDbLine
 10
-68.16249846667051
 20
-65.9000015258789
 30
0.0
 11
-68.91249846667051
 21
-66.6500015258789
 31
0.0
  0
LINE
  5
477
330
1F
100
AcDbEntity
  8
Layer0048
  6
Continuous
 62
     3
370
    25
100
AcDbLine
 10
-68.91249846667051
 20
-66.6500015258789
 30
0.0
 11
-69.66249846667051
 21
-65.9000015258789
 31
0.0
  0
LINE
  5
478
330
1F
100
AcDbEntity
  8
Layer0048
  6
Continuous
 62
     3
370
    25
100
AcDbLine
 10
-69.66249846667051
 20
-65.9000015258789
 30
0.0
 11
-70.16249846667051
 21
-65.9000015258789
 31
0.0
  0
CIRCLE
  5
479
330
1F
100
AcDbEntity
  8
Layer0048
  6
Continuous
 62
     3
370
    25
100
AcDbCircle
 10
-68.91249854019937
 20
-66.33750152587889
 30
0.0
 40
0.2249999940395355
  0
LINE
  5
47A
330
1F
100
AcDbEntity
  8
Layer0048
  6
Continuous
 62
     3
370
    25
100
AcDbLine
 10
-66.67500304430723
 20
-65.9000015258789
 30
0.0
 11
-66.67500304430723
 21
-66.1500015258789
 31
0.0
  0
LINE
  5
47B
330
1F
100
AcDbEntity
  8
Layer0048
  6
Continuous
 62
     3
370
    25
100
AcDbLine
 10
-66.67500304430723
 20
-66.1500015258789
 30
0.0
 11
-66.30000304430723
 21
-66.1500015258789
 31
0.0
  0
LINE
  5
47C
330
1F
100
AcDbEntity
  8
Layer0048
  6
Continuous
 62
     3
370
    25
100
AcDbLine
 10
-66.30000304430723
 20
-66.1500015258789
 30
0.0
 11
-65.80000304430723
 21
-67.0250015258789
 31
0.0
  0
LINE
  5
47D
330
1F
100
AcDbEntity
  8
Layer0048
  6
Continuous
 62
     3
370
    25
100
AcDbLine
 10
-65.80000304430723
 20
-67.0250015258789
 30
0.0
 11
-65.80000304430723
 21
-67.4000015258789
 31
0.0
  0
LINE
  5
47E
330
1F
100
AcDbEntity
  8
Layer0048
  6
Continuous
 62
     3
370
    25
100
AcDbLine
 10
-65.80000304430723
 20
-67.4000015258789
 30
0.0
 11
-65.67500304430723
 21
-67.5250015258789
 31
0.0
  0
LINE
  5
47F
330
1F
100
AcDbEntity
  8
Layer0048
  6
Continuous
 62
     3
370
    25
100
AcDbLine
 10
-65.67500304430723
 20
-67.5250015258789
 30
0.0
 11
-65.67500304430723
 21
-71.4000015258789
 31
0.0
  0
LINE
  5
480
330
1F
100
AcDbEntity
  8
Layer0048
  6
Continuous
 62
     3
370
    25
100
AcDbLine
 10
-65.67500304430723
 20
-71.4000015258789
 30
0.0
 11
-65.17500304430723
 21
-71.4000015258789
 31
0.0
  0
LINE
  5
481
330
1F
100
AcDbEntity
  8
Layer0048
  6
Continuous
 62
     3
370
    25
100
AcDbLine
 10
-65.17500304430723
 20
-71.4000015258789
 30
0.0
 11
-65.17500304430723
 21
-67.5250015258789
 31
0.0
  0
LINE
  5
482
330
1F
100
AcDbEntity
  8
Layer0048
  6
Continuous
 62
     3
370
    25
100
AcDbLine
 10
-65.17500304430723
 20
-67.5250015258789
 30
0.0
 11
-65.05000304430723
 21
-67.4000015258789
 31
0.0
  0
LINE
  5
483
330
1F
100
AcDbEntity
  8
Layer0048
  6
Continuous
 62
     3
370
    25
100
AcDbLine
 10
-65.05000304430723
 20
-67.4000015258789
 30
0.0
 11
-65.05000304430723
 21
-67.0250015258789
 31
0.0
  0
LINE
  5
484
330
1F
100
AcDbEntity
  8
Layer0048
  6
Continuous
 62
     3
370
    25
100
AcDbLine
 10
-65.05000304430723
 20
-67.0250015258789
 30
0.0
 11
-64.55000304430723
 21
-66.1500015258789
 31
0.0
  0
LINE
  5
485
330
1F
100
AcDbEntity
  8
Layer0048
  6
Continuous
 62
     3
370
    25
100
AcDbLine
 10
-64.55000304430723
 20
-66.1500015258789
 30
0.0
 11
-64.17500304430723
 21
-66.1500015258789
 31
0.0
  0
LINE
  5
486
330
1F
100
AcDbEntity
  8
Layer0048
  6
Continuous
 62
     3
370
    25
100
AcDbLine
 10
-64.17500304430723
 20
-66.1500015258789
 30
0.0
 11
-64.17500304430723
 21
-65.9000015258789
 31
0.0
  0
LINE
  5
487
330
1F
100
AcDbEntity
  8
Layer0048
  6
Continuous
 62
     3
370
    25
100
AcDbLine
 10
-64.17500304430723
 20
-65.9000015258789
 30
0.0
 11
-64.67500304430723
 21
-65.9000015258789
 31
0.0
  0
LINE
  5
488
330
1F
100
AcDbEntity
  8
Layer0048
  6
Continuous
 62
     3
370
    25
100
AcDbLine
 10
-64.67500304430723
 20
-65.9000015258789
 30
0.0
 11
-65.42500304430723
 21
-66.6500015258789
 31
0.0
  0
LINE
  5
489
330
1F
100
AcDbEntity
  8
Layer0048
  6
Continuous
 62
     3
370
    25
100
AcDbLine
 10
-65.42500304430723
 20
-66.6500015258789
 30
0.0
 11
-66.17500304430723
 21
-65.9000015258789
 31
0.0
  0
LINE
  5
48A
330
1F
100
AcDbEntity
  8
Layer0048
  6
Continuous
 62
     3
370
    25
100
AcDbLine
 10
-66.17500304430723
 20
-65.9000015258789
 30
0.0
 11
-66.67500304430723
 21
-65.9000015258789
 31
0.0
  0
CIRCLE
  5
48B
330
1F
100
AcDbEntity
  8
Layer0048
  6
Continuous
 62
     3
370
    25
100
AcDbCircle
 10
-65.42500311783608
 20
-66.33750152587889
 30
0.0
 40
0.2249999940395355
  0
LINE
  5
48C
330
1F
100
AcDbEntity
  8
Layer0048
  6
Continuous
 62
     3
370
    25
100
AcDbLine
 10
-63.22499846667051
 20
-65.9000015258789
 30
0.0
 11
-63.22499846667051
 21
-66.1500015258789
 31
0.0
  0
LINE
  5
48D
330
1F
100
AcDbEntity
  8
Layer0048
  6
Continuous
 62
     3
370
    25
100
AcDbLine
 10
-63.22499846667051
 20
-66.1500015258789
 30
0.0
 11
-62.84999846667051
 21
-66.1500015258789
 31
0.0
  0
LINE
  5
48E
330
1F
100
AcDbEntity
  8
Layer0048
  6
Continuous
 62
     3
370
    25
100
AcDbLine
 10
-62.84999846667051
 20
-66.1500015258789
 30
0.0
 11
-62.34999846667051
 21
-67.0250015258789
 31
0.0
  0
LINE
  5
48F
330
1F
100
AcDbEntity
  8
Layer0048
  6
Continuous
 62
     3
370
    25
100
AcDbLine
 10
-62.34999846667051
 20
-67.0250015258789
 30
0.0
 11
-62.34999846667051
 21
-67.4000015258789
 31
0.0
  0
LINE
  5
490
330
1F
100
AcDbEntity
  8
Layer0048
  6
Continuous
 62
     3
370
    25
100
AcDbLine
 10
-62.34999846667051
 20
-67.4000015258789
 30
0.0
 11
-62.22499846667051
 21
-67.5250015258789
 31
0.0
  0
LINE
  5
491
330
1F
100
AcDbEntity
  8
Layer0048
  6
Continuous
 62
     3
370
    25
100
AcDbLine
 10
-62.22499846667051
 20
-67.5250015258789
 30
0.0
 11
-62.22499846667051
 21
-71.4000015258789
 31
0.0
  0
LINE
  5
492
330
1F
100
AcDbEntity
  8
Layer0048
  6
Continuous
 62
     3
370
    25
100
AcDbLine
 10
-62.22499846667051
 20
-71.4000015258789
 30
0.0
 11
-61.72499846667051
 21
-71.4000015258789
 31
0.0
  0
LINE
  5
493
330
1F
100
AcDbEntity
  8
Layer0048
  6
Continuous
 62
     3
370
    25
100
AcDbLine
 10
-61.72499846667051
 20
-71.4000015258789
 30
0.0
 11
-61.72499846667051
 21
-67.5250015258789
 31
0.0
  0
LINE
  5
494
330
1F
100
AcDbEntity
  8
Layer0048
  6
Continuous
 62
     3
370
    25
100
AcDbLine
 10
-61.72499846667051
 20
-67.5250015258789
 30
0.0
 11
-61.59999846667051
 21
-67.4000015258789
 31
0.0
  0
LINE
  5
495
330
1F
100
AcDbEntity
  8
Layer0048
  6
Continuous
 62
     3
370
    25
100
AcDbLine
 10
-61.59999846667051
 20
-67.4000015258789
 30
0.0
 11
-61.59999846667051
 21
-67.0250015258789
 31
0.0
  0
LINE
  5
496
330
1F
100
AcDbEntity
  8
Layer0048
  6
Continuous
 62
     3
370
    25
100
AcDbLine
 10
-61.59999846667051
 20
-67.0250015258789
 30
0.0
 11
-61.09999846667051
 21
-66.1500015258789
 31
0.0
  0
LINE
  5
497
330
1F
100
AcDbEntity
  8
Layer0048
  6
Continuous
 62
     3
370
    25
100
AcDbLine
 10
-61.09999846667051
 20
-66.1500015258789
 30
0.0
 11
-60.72499846667051
 21
-66.1500015258789
 31
0.0
  0
LINE
  5
498
330
1F
100
AcDbEntity
  8
Layer0048
  6
Continuous
 62
     3
370
    25
100
AcDbLine
 10
-60.72499846667051
 20
-66.1500015258789
 30
0.0
 11
-60.72499846667051
 21
-65.9000015258789
 31
0.0
  0
LINE
  5
499
330
1F
100
AcDbEntity
  8
Layer0048
  6
Continuous
 62
     3
370
    25
100
AcDbLine
 10
-60.72499846667051
 20
-65.9000015258789
 30
0.0
 11
-61.22499846667051
 21
-65.9000015258789
 31
0.0
  0
LINE
  5
49A
330
1F
100
AcDbEntity
  8
Layer0048
  6
Continuous
 62
     3
370
    25
100
AcDbLine
 10
-61.22499846667051
 20
-65.9000015258789
 30
0.0
 11
-61.97499846667051
 21
-66.6500015258789
 31
0.0
  0
LINE
  5
49B
330
1F
100
AcDbEntity
  8
Layer0048
  6
Continuous
 62
     3
370
    25
100
AcDbLine
 10
-61.97499846667051
 20
-66.6500015258789
 30
0.0
 11
-62.72499846667051
 21
-65.9000015258789
 31
0.0
  0
LINE
  5
49C
330
1F
100
AcDbEntity
  8
Layer0048
  6
Continuous
 62
     3
370
    25
100
AcDbLine
 10
-62.72499846667051
 20
-65.9000015258789
 30
0.0
 11
-63.22499846667051
 21
-65.9000015258789
 31
0.0
  0
CIRCLE
  5
49D
330
1F
100
AcDbEntity
  8
Layer0048
  6
Continuous
 62
     3
370
    25
100
AcDbCircle
 10
-61.97499854019936
 20
-66.33750152587889
 30
0.0
 40
0.2249999940395355
  0
LINE
  5
49E
330
1F
100
AcDbEntity
  8
Layer0048
  6
Continuous
 62
     3
370
    25
100
AcDbLine
 10
-122.4749984666705
 20
-65.9000015258789
 30
0.0
 11
-60.72499846667051
 21
-65.9000015258789
 31
0.0
  0
LINE
  5
49F
330
1F
100
AcDbEntity
  8
Layer0048
  6
Continuous
 62
     3
370
    25
100
AcDbLine
 10
-122.4749984666705
 20
-65.9000015258789
 30
0.0
 11
-122.4749984666705
 21
-66.1500015258789
 31
0.0
  0
LINE
  5
4A0
330
1F
100
AcDbEntity
  8
Layer0048
  6
Continuous
 62
     3
370
    25
100
AcDbLine
 10
-120.9437484666705
 20
-69.9000015258789
 30
0.0
 11
-118.0187485143542
 21
-69.9000015258789
 31
0.0
  0
LINE
  5
4A1
330
1F
100
AcDbEntity
  8
Layer0048
  6
Continuous
 62
     3
370
    25
100
AcDbLine
 10
-117.4562530443072
 20
-69.9000015258789
 30
0.0
 11
-114.5312530919909
 21
-69.9000015258789
 31
0.0
  0
LINE
  5
4A2
330
1F
100
AcDbEntity
  8
Layer0048
  6
Continuous
 62
     3
370
    25
100
AcDbLine
 10
-113.9687499925494
 20
-69.9000015258789
 30
0.0
 11
-111.0437500402331
 21
-69.9000015258789
 31
0.0
  0
LINE
  5
4A3
330
1F
100
AcDbEntity
  8
Layer0048
  6
Continuous
 62
     3
370
    25
100
AcDbLine
 10
-110.4812469407916
 20
-69.9000015258789
 30
0.0
 11
-107.5562469884753
 21
-69.9000015258789
 31
0.0
  0
LINE
  5
4A4
330
1F
100
AcDbEntity
  8
Layer0048
  6
Continuous
 62
     3
370
    25
100
AcDbLine
 10
-106.9937515184283
 20
-69.9000015258789
 30
0.0
 11
-104.068751566112
 21
-69.9000015258789
 31
0.0
  0
LINE
  5
4A5
330
1F
100
AcDbEntity
  8
Layer0048
  6
Continuous
 62
     3
370
    25
100
AcDbLine
 10
-103.5062484666705
 20
-69.9000015258789
 30
0.0
 11
-100.5812485143542
 21
-69.9000015258789
 31
0.0
  0
LINE
  5
4A6
330
1F
100
AcDbEntity
  8
Layer0048
  6
Continuous
 62
     3
370
    25
100
AcDbLine
 10
-100.0187530443072
 20
-69.9000015258789
 30
0.0
 11
-97.09375309199095
 21
-69.9000015258789
 31
0.0
  0
LINE
  5
4A7
330
1F
100
AcDbEntity
  8
Layer0048
  6
Continuous
 62
     3
370
    25
100
AcDbLine
 10
-96.53124999254942
 20
-69.9000015258789
 30
0.0
 11
-93.60625004023314
 21
-69.9000015258789
 31
0.0
  0
LINE
  5
4A8
330
1F
100
AcDbEntity
  8
Layer0048
  6
Continuous
 62
     3
370
    25
100
AcDbLine
 10
-93.0437469407916
 20
-69.9000015258789
 30
0.0
 11
-90.11874698847532
 21
-69.9000015258789
 31
0.0
  0
LINE
  5
4A9
330
1F
100
AcDbEntity
  8
Layer0048
  6
Continuous
 62
     3
370
    25
100
AcDbLine
 10
-89.55625151842833
 20
-69.9000015258789
 30
0.0
 11
-86.63125156611204
 21
-69.9000015258789
 31
0.0
  0
LINE
  5
4AA
330
1F
100
AcDbEntity
  8
Layer0048
  6
Continuous
 62
     3
370
    25
100
AcDbLine
 10
-86.06874846667051
 20
-69.9000015258789
 30
0.0
 11
-83.14374851435423
 21
-69.9000015258789
 31
0.0
  0
LINE
  5
4AB
330
1F
100
AcDbEntity
  8
Layer0048
  6
Continuous
 62
     3
370
    25
100
AcDbLine
 10
-82.58125304430723
 20
-69.9000015258789
 30
0.0
 11
-79.65625309199095
 21
-69.9000015258789
 31
0.0
  0
LINE
  5
4AC
330
1F
100
AcDbEntity
  8
Layer0048
  6
Continuous
 62
     3
370
    25
100
AcDbLine
 10
-79.09374999254942
 20
-69.9000015258789
 30
0.0
 11
-76.16875004023314
 21
-69.9000015258789
 31
0.0
  0
LINE
  5
4AD
330
1F
100
AcDbEntity
  8
Layer0048
  6
Continuous
 62
     3
370
    25
100
AcDbLine
 10
-75.6062469407916
 20
-69.9000015258789
 30
0.0
 11
-72.68124698847532
 21
-69.9000015258789
 31
0.0
  0
LINE
  5
4AE
330
1F
100
AcDbEntity
  8
Layer0048
  6
Continuous
 62
     3
370
    25
100
AcDbLine
 10
-72.11875151842833
 20
-69.9000015258789
 30
0.0
 11
-69.19375156611204
 21
-69.9000015258789
 31
0.0
  0
LINE
  5
4AF
330
1F
100
AcDbEntity
  8
Layer0048
  6
Continuous
 62
     3
370
    25
100
AcDbLine
 10
-68.63124846667051
 20
-69.9000015258789
 30
0.0
 11
-65.70624851435423
 21
-69.9000015258789
 31
0.0
  0
LINE
  5
4B0
330
1F
100
AcDbEntity
  8
Layer0048
  6
Continuous
 62
     3
370
    25
100
AcDbLine
 10
-65.14375304430723
 20
-69.9000015258789
 30
0.0
 11
-62.25625299662352
 21
-69.9000015258789
 31
0.0
  0
LINE
  5
4B1
330
1F
100
AcDbEntity
  8
Layer0048
  6
Continuous
 62
     3
370
    25
100
AcDbLine
 10
-120.9437484666705
 20
-67.5250015258789
 30
0.0
 11
-120.8187484666705
 21
-67.4000015258789
 31
0.0
  0
LINE
  5
4B2
330
1F
100
AcDbEntity
  8
Layer0048
  6
Continuous
 62
     3
370
    25
100
AcDbLine
 10
-120.8187484666705
 20
-67.4000015258789
 30
0.0
 11
-118.1437485143542
 21
-67.4000015258789
 31
0.0
  0
LINE
  5
4B3
330
1F
100
AcDbEntity
  8
Layer0048
  6
Continuous
 62
     3
370
    25
100
AcDbLine
 10
-118.1437485143542
 20
-67.4000015258789
 30
0.0
 11
-118.0187485143542
 21
-67.5250015258789
 31
0.0
  0
LINE
  5
4B4
330
1F
100
AcDbEntity
  8
Layer0048
  6
Continuous
 62
     3
370
    25
100
AcDbLine
 10
-118.0187485143542
 20
-68.7750015258789
 30
0.0
 11
-118.1437485143542
 21
-68.9000015258789
 31
0.0
  0
LINE
  5
4B5
330
1F
100
AcDbEntity
  8
Layer0048
  6
Continuous
 62
     3
370
    25
100
AcDbLine
 10
-118.1437485143542
 20
-68.9000015258789
 30
0.0
 11
-120.8187484666705
 21
-68.9000015258789
 31
0.0
  0
LINE
  5
4B6
330
1F
100
AcDbEntity
  8
Layer0048
  6
Continuous
 62
     3
370
    25
100
AcDbLine
 10
-120.8187484666705
 20
-68.9000015258789
 30
0.0
 11
-120.9437484666705
 21
-68.7750015258789
 31
0.0
  0
LINE
  5
4B7
330
1F
100
AcDbEntity
  8
Layer0048
  6
Continuous
 62
     3
370
    25
100
AcDbLine
 10
-117.4562530443072
 20
-67.5250015258789
 30
0.0
 11
-117.3312530443072
 21
-67.4000015258789
 31
0.0
  0
LINE
  5
4B8
330
1F
100
AcDbEntity
  8
Layer0048
  6
Continuous
 62
     3
370
    25
100
AcDbLine
 10
-117.3312530443072
 20
-67.4000015258789
 30
0.0
 11
-114.6562530919909
 21
-67.4000015258789
 31
0.0
  0
LINE
  5
4B9
330
1F
100
AcDbEntity
  8
Layer0048
  6
Continuous
 62
     3
370
    25
100
AcDbLine
 10
-114.6562530919909
 20
-67.4000015258789
 30
0.0
 11
-114.5312530919909
 21
-67.5250015258789
 31
0.0
  0
LINE
  5
4BA
330
1F
100
AcDbEntity
  8
Layer0048
  6
Continuous
 62
     3
370
    25
100
AcDbLine
 10
-114.5312530919909
 20
-68.7750015258789
 30
0.0
 11
-114.6562530919909
 21
-68.9000015258789
 31
0.0
  0
LINE
  5
4BB
330
1F
100
AcDbEntity
  8
Layer0048
  6
Continuous
 62
     3
370
    25
100
AcDbLine
 10
-114.6562530919909
 20
-68.9000015258789
 30
0.0
 11
-117.3312530443072
 21
-68.9000015258789
 31
0.0
  0
LINE
  5
4BC
330
1F
100
AcDbEntity
  8
Layer0048
  6
Continuous
 62
     3
370
    25
100
AcDbLine
 10
-117.3312530443072
 20
-68.9000015258789
 30
0.0
 11
-117.4562530443072
 21
-68.7750015258789
 31
0.0
  0
LINE
  5
4BD
330
1F
100
AcDbEntity
  8
Layer0048
  6
Continuous
 62
     3
370
    25
100
AcDbLine
 10
-113.9687499925494
 20
-67.5250015258789
 30
0.0
 11
-113.8437499925494
 21
-67.4000015258789
 31
0.0
  0
LINE
  5
4BE
330
1F
100
AcDbEntity
  8
Layer0048
  6
Continuous
 62
     3
370
    25
100
AcDbLine
 10
-113.8437499925494
 20
-67.4000015258789
 30
0.0
 11
-111.1687500402331
 21
-67.4000015258789
 31
0.0
  0
LINE
  5
4BF
330
1F
100
AcDbEntity
  8
Layer0048
  6
Continuous
 62
     3
370
    25
100
AcDbLine
 10
-111.1687500402331
 20
-67.4000015258789
 30
0.0
 11
-111.0437500402331
 21
-67.5250015258789
 31
0.0
  0
LINE
  5
4C0
330
1F
100
AcDbEntity
  8
Layer0048
  6
Continuous
 62
     3
370
    25
100
AcDbLine
 10
-111.0437500402331
 20
-68.7750015258789
 30
0.0
 11
-111.1687500402331
 21
-68.9000015258789
 31
0.0
  0
LINE
  5
4C1
330
1F
100
AcDbEntity
  8
Layer0048
  6
Continuous
 62
     3
370
    25
100
AcDbLine
 10
-111.1687500402331
 20
-68.9000015258789
 30
0.0
 11
-113.8437499925494
 21
-68.9000015258789
 31
0.0
  0
LINE
  5
4C2
330
1F
100
AcDbEntity
  8
Layer0048
  6
Continuous
 62
     3
370
    25
100
AcDbLine
 10
-113.8437499925494
 20
-68.9000015258789
 30
0.0
 11
-113.9687499925494
 21
-68.7750015258789
 31
0.0
  0
LINE
  5
4C3
330
1F
100
AcDbEntity
  8
Layer0048
  6
Continuous
 62
     3
370
    25
100
AcDbLine
 10
-110.4812469407916
 20
-67.5250015258789
 30
0.0
 11
-110.3562469407916
 21
-67.4000015258789
 31
0.0
  0
LINE
  5
4C4
330
1F
100
AcDbEntity
  8
Layer0048
  6
Continuous
 62
     3
370
    25
100
AcDbLine
 10
-110.3562469407916
 20
-67.4000015258789
 30
0.0
 11
-107.6812469884753
 21
-67.4000015258789
 31
0.0
  0
LINE
  5
4C5
330
1F
100
AcDbEntity
  8
Layer0048
  6
Continuous
 62
     3
370
    25
100
AcDbLine
 10
-107.6812469884753
 20
-67.4000015258789
 30
0.0
 11
-107.5562469884753
 21
-67.5250015258789
 31
0.0
  0
LINE
  5
4C6
330
1F
100
AcDbEntity
  8
Layer0048
  6
Continuous
 62
     3
370
    25
100
AcDbLine
 10
-107.5562469884753
 20
-68.7750015258789
 30
0.0
 11
-107.6812469884753
 21
-68.9000015258789
 31
0.0
  0
LINE
  5
4C7
330
1F
100
AcDbEntity
  8
Layer0048
  6
Continuous
 62
     3
370
    25
100
AcDbLine
 10
-107.6812469884753
 20
-68.9000015258789
 30
0.0
 11
-110.3562469407916
 21
-68.9000015258789
 31
0.0
  0
LINE
  5
4C8
330
1F
100
AcDbEntity
  8
Layer0048
  6
Continuous
 62
     3
370
    25
100
AcDbLine
 10
-110.3562469407916
 20
-68.9000015258789
 30
0.0
 11
-110.4812469407916
 21
-68.7750015258789
 31
0.0
  0
LINE
  5
4C9
330
1F
100
AcDbEntity
  8
Layer0048
  6
Continuous
 62
     3
370
    25
100
AcDbLine
 10
-106.9937515184283
 20
-67.5250015258789
 30
0.0
 11
-106.8687515184283
 21
-67.4000015258789
 31
0.0
  0
LINE
  5
4CA
330
1F
100
AcDbEntity
  8
Layer0048
  6
Continuous
 62
     3
370
    25
100
AcDbLine
 10
-106.8687515184283
 20
-67.4000015258789
 30
0.0
 11
-104.193751566112
 21
-67.4000015258789
 31
0.0
  0
LINE
  5
4CB
330
1F
100
AcDbEntity
  8
Layer0048
  6
Continuous
 62
     3
370
    25
100
AcDbLine
 10
-104.193751566112
 20
-67.4000015258789
 30
0.0
 11
-104.068751566112
 21
-67.5250015258789
 31
0.0
  0
LINE
  5
4CC
330
1F
100
AcDbEntity
  8
Layer0048
  6
Continuous
 62
     3
370
    25
100
AcDbLine
 10
-104.068751566112
 20
-68.7750015258789
 30
0.0
 11
-104.193751566112
 21
-68.9000015258789
 31
0.0
  0
LINE
  5
4CD
330
1F
100
AcDbEntity
  8
Layer0048
  6
Continuous
 62
     3
370
    25
100
AcDbLine
 10
-104.193751566112
 20
-68.9000015258789
 30
0.0
 11
-106.8687515184283
 21
-68.9000015258789
 31
0.0
  0
LINE
  5
4CE
330
1F
100
AcDbEntity
  8
Layer0048
  6
Continuous
 62
     3
370
    25
100
AcDbLine
 10
-106.8687515184283
 20
-68.9000015258789
 30
0.0
 11
-106.9937515184283
 21
-68.7750015258789
 31
0.0
  0
LINE
  5
4CF
330
1F
100
AcDbEntity
  8
Layer0048
  6
Continuous
 62
     3
370
    25
100
AcDbLine
 10
-103.5062484666705
 20
-67.5250015258789
 30
0.0
 11
-103.3812484666705
 21
-67.4000015258789
 31
0.0
  0
LINE
  5
4D0
330
1F
100
AcDbEntity
  8
Layer0048
  6
Continuous
 62
     3
370
    25
100
AcDbLine
 10
-103.3812484666705
 20
-67.4000015258789
 30
0.0
 11
-100.7062485143542
 21
-67.4000015258789
 31
0.0
  0
LINE
  5
4D1
330
1F
100
AcDbEntity
  8
Layer0048
  6
Continuous
 62
     3
370
    25
100
AcDbLine
 10
-100.7062485143542
 20
-67.4000015258789
 30
0.0
 11
-100.5812485143542
 21
-67.5250015258789
 31
0.0
  0
LINE
  5
4D2
330
1F
100
AcDbEntity
  8
Layer0048
  6
Continuous
 62
     3
370
    25
100
AcDbLine
 10
-100.5812485143542
 20
-68.7750015258789
 30
0.0
 11
-100.7062485143542
 21
-68.9000015258789
 31
0.0
  0
LINE
  5
4D3
330
1F
100
AcDbEntity
  8
Layer0048
  6
Continuous
 62
     3
370
    25
100
AcDbLine
 10
-100.7062485143542
 20
-68.9000015258789
 30
0.0
 11
-103.3812484666705
 21
-68.9000015258789
 31
0.0
  0
LINE
  5
4D4
330
1F
100
AcDbEntity
  8
Layer0048
  6
Continuous
 62
     3
370
    25
100
AcDbLine
 10
-103.3812484666705
 20
-68.9000015258789
 30
0.0
 11
-103.5062484666705
 21
-68.7750015258789
 31
0.0
  0
LINE
  5
4D5
330
1F
100
AcDbEntity
  8
Layer0048
  6
Continuous
 62
     3
370
    25
100
AcDbLine
 10
-100.0187530443072
 20
-67.5250015258789
 30
0.0
 11
-99.89375304430722
 21
-67.4000015258789
 31
0.0
  0
LINE
  5
4D6
330
1F
100
AcDbEntity
  8
Layer0048
  6
Continuous
 62
     3
370
    25
100
AcDbLine
 10
-99.89375304430722
 20
-67.4000015258789
 30
0.0
 11
-97.21875309199095
 21
-67.4000015258789
 31
0.0
  0
LINE
  5
4D7
330
1F
100
AcDbEntity
  8
Layer0048
  6
Continuous
 62
     3
370
    25
100
AcDbLine
 10
-97.21875309199095
 20
-67.4000015258789
 30
0.0
 11
-97.09375309199095
 21
-67.5250015258789
 31
0.0
  0
LINE
  5
4D8
330
1F
100
AcDbEntity
  8
Layer0048
  6
Continuous
 62
     3
370
    25
100
AcDbLine
 10
-97.09375309199095
 20
-68.7750015258789
 30
0.0
 11
-97.21875309199095
 21
-68.9000015258789
 31
0.0
  0
LINE
  5
4D9
330
1F
100
AcDbEntity
  8
Layer0048
  6
Continuous
 62
     3
370
    25
100
AcDbLine
 10
-97.21875309199095
 20
-68.9000015258789
 30
0.0
 11
-99.89375304430722
 21
-68.9000015258789
 31
0.0
  0
LINE
  5
4DA
330
1F
100
AcDbEntity
  8
Layer0048
  6
Continuous
 62
     3
370
    25
100
AcDbLine
 10
-99.89375304430722
 20
-68.9000015258789
 30
0.0
 11
-100.0187530443072
 21
-68.7750015258789
 31
0.0
  0
LINE
  5
4DB
330
1F
100
AcDbEntity
  8
Layer0048
  6
Continuous
 62
     3
370
    25
100
AcDbLine
 10
-96.53124999254942
 20
-67.5250015258789
 30
0.0
 11
-96.40624999254942
 21
-67.4000015258789
 31
0.0
  0
LINE
  5
4DC
330
1F
100
AcDbEntity
  8
Layer0048
  6
Continuous
 62
     3
370
    25
100
AcDbLine
 10
-96.40624999254942
 20
-67.4000015258789
 30
0.0
 11
-93.73125004023314
 21
-67.4000015258789
 31
0.0
  0
LINE
  5
4DD
330
1F
100
AcDbEntity
  8
Layer0048
  6
Continuous
 62
     3
370
    25
100
AcDbLine
 10
-93.73125004023314
 20
-67.4000015258789
 30
0.0
 11
-93.60625004023314
 21
-67.5250015258789
 31
0.0
  0
LINE
  5
4DE
330
1F
100
AcDbEntity
  8
Layer0048
  6
Continuous
 62
     3
370
    25
100
AcDbLine
 10
-93.60625004023314
 20
-68.7750015258789
 30
0.0
 11
-93.73125004023314
 21
-68.9000015258789
 31
0.0
  0
LINE
  5
4DF
330
1F
100
AcDbEntity
  8
Layer0048
  6
Continuous
 62
     3
370
    25
100
AcDbLine
 10
-93.73125004023314
 20
-68.9000015258789
 30
0.0
 11
-96.40624999254942
 21
-68.9000015258789
 31
0.0
  0
LINE
  5
4E0
330
1F
100
AcDbEntity
  8
Layer0048
  6
Continuous
 62
     3
370
    25
100
AcDbLine
 10
-96.40624999254942
 20
-68.9000015258789
 30
0.0
 11
-96.53124999254942
 21
-68.7750015258789
 31
0.0
  0
LINE
  5
4E1
330
1F
100
AcDbEntity
  8
Layer0048
  6
Continuous
 62
     3
370
    25
100
AcDbLine
 10
-93.0437469407916
 20
-67.5250015258789
 30
0.0
 11
-92.9187469407916
 21
-67.4000015258789
 31
0.0
  0
LINE
  5
4E2
330
1F
100
AcDbEntity
  8
Layer0048
  6
Continuous
 62
     3
370
    25
100
AcDbLine
 10
-92.9187469407916
 20
-67.4000015258789
 30
0.0
 11
-90.24374698847532
 21
-67.4000015258789
 31
0.0
  0
LINE
  5
4E3
330
1F
100
AcDbEntity
  8
Layer0048
  6
Continuous
 62
     3
370
    25
100
AcDbLine
 10
-90.24374698847532
 20
-67.4000015258789
 30
0.0
 11
-90.11874698847532
 21
-67.5250015258789
 31
0.0
  0
LINE
  5
4E4
330
1F
100
AcDbEntity
  8
Layer0048
  6
Continuous
 62
     3
370
    25
100
AcDbLine
 10
-90.11874698847532
 20
-68.7750015258789
 30
0.0
 11
-90.24374698847532
 21
-68.9000015258789
 31
0.0
  0
LINE
  5
4E5
330
1F
100
AcDbEntity
  8
Layer0048
  6
Continuous
 62
     3
370
    25
100
AcDbLine
 10
-90.24374698847532
 20
-68.9000015258789
 30
0.0
 11
-92.9187469407916
 21
-68.9000015258789
 31
0.0
  0
LINE
  5
4E6
330
1F
100
AcDbEntity
  8
Layer0048
  6
Continuous
 62
     3
370
    25
100
AcDbLine
 10
-92.9187469407916
 20
-68.9000015258789
 30
0.0
 11
-93.0437469407916
 21
-68.7750015258789
 31
0.0
  0
LINE
  5
4E7
330
1F
100
AcDbEntity
  8
Layer0048
  6
Continuous
 62
     3
370
    25
100
AcDbLine
 10
-89.55625151842833
 20
-67.5250015258789
 30
0.0
 11
-89.43125151842833
 21
-67.4000015258789
 31
0.0
  0
LINE
  5
4E8
330
1F
100
AcDbEntity
  8
Layer0048
  6
Continuous
 62
     3
370
    25
100
AcDbLine
 10
-89.43125151842833
 20
-67.4000015258789
 30
0.0
 11
-86.75625156611204
 21
-67.4000015258789
 31
0.0
  0
LINE
  5
4E9
330
1F
100
AcDbEntity
  8
Layer0048
  6
Continuous
 62
     3
370
    25
100
AcDbLine
 10
-86.75625156611204
 20
-67.4000015258789
 30
0.0
 11
-86.63125156611204
 21
-67.5250015258789
 31
0.0
  0
LINE
  5
4EA
330
1F
100
AcDbEntity
  8
Layer0048
  6
Continuous
 62
     3
370
    25
100
AcDbLine
 10
-86.63125156611204
 20
-68.7750015258789
 30
0.0
 11
-86.75625156611204
 21
-68.9000015258789
 31
0.0
  0
LINE
  5
4EB
330
1F
100
AcDbEntity
  8
Layer0048
  6
Continuous
 62
     3
370
    25
100
AcDbLine
 10
-86.75625156611204
 20
-68.9000015258789
 30
0.0
 11
-89.43125151842833
 21
-68.9000015258789
 31
0.0
  0
LINE
  5
4EC
330
1F
100
AcDbEntity
  8
Layer0048
  6
Continuous
 62
     3
370
    25
100
AcDbLine
 10
-89.43125151842833
 20
-68.9000015258789
 30
0.0
 11
-89.55625151842833
 21
-68.7750015258789
 31
0.0
  0
LINE
  5
4ED
330
1F
100
AcDbEntity
  8
Layer0048
  6
Continuous
 62
     3
370
    25
100
AcDbLine
 10
-86.06874846667051
 20
-67.5250015258789
 30
0.0
 11
-85.94374846667051
 21
-67.4000015258789
 31
0.0
  0
LINE
  5
4EE
330
1F
100
AcDbEntity
  8
Layer0048
  6
Continuous
 62
     3
370
    25
100
AcDbLine
 10
-85.94374846667051
 20
-67.4000015258789
 30
0.0
 11
-83.26874851435423
 21
-67.4000015258789
 31
0.0
  0
LINE
  5
4EF
330
1F
100
AcDbEntity
  8
Layer0048
  6
Continuous
 62
     3
370
    25
100
AcDbLine
 10
-83.26874851435423
 20
-67.4000015258789
 30
0.0
 11
-83.14374851435423
 21
-67.5250015258789
 31
0.0
  0
LINE
  5
4F0
330
1F
100
AcDbEntity
  8
Layer0048
  6
Continuous
 62
     3
370
    25
100
AcDbLine
 10
-83.14374851435423
 20
-68.7750015258789
 30
0.0
 11
-83.26874851435423
 21
-68.9000015258789
 31
0.0
  0
LINE
  5
4F1
330
1F
100
AcDbEntity
  8
Layer0048
  6
Continuous
 62
     3
370
    25
100
AcDbLine
 10
-83.26874851435423
 20
-68.9000015258789
 30
0.0
 11
-85.94374846667051
 21
-68.9000015258789
 31
0.0
  0
LINE
  5
4F2
330
1F
100
AcDbEntity
  8
Layer0048
  6
Continuous
 62
     3
370
    25
100
AcDbLine
 10
-85.94374846667051
 20
-68.9000015258789
 30
0.0
 11
-86.06874846667051
 21
-68.7750015258789
 31
0.0
  0
LINE
  5
4F3
330
1F
100
AcDbEntity
  8
Layer0048
  6
Continuous
 62
     3
370
    25
100
AcDbLine
 10
-82.58125304430723
 20
-67.5250015258789
 30
0.0
 11
-82.45625304430723
 21
-67.4000015258789
 31
0.0
  0
LINE
  5
4F4
330
1F
100
AcDbEntity
  8
Layer0048
  6
Continuous
 62
     3
370
    25
100
AcDbLine
 10
-82.45625304430723
 20
-67.4000015258789
 30
0.0
 11
-79.78125309199095
 21
-67.4000015258789
 31
0.0
  0
LINE
  5
4F5
330
1F
100
AcDbEntity
  8
Layer0048
  6
Continuous
 62
     3
370
    25
100
AcDbLine
 10
-79.78125309199095
 20
-67.4000015258789
 30
0.0
 11
-79.65625309199095
 21
-67.5250015258789
 31
0.0
  0
LINE
  5
4F6
330
1F
100
AcDbEntity
  8
Layer0048
  6
Continuous
 62
     3
370
    25
100
AcDbLine
 10
-79.65625309199095
 20
-68.7750015258789
 30
0.0
 11
-79.78125309199095
 21
-68.9000015258789
 31
0.0
  0
LINE
  5
4F7
330
1F
100
AcDbEntity
  8
Layer0048
  6
Continuous
 62
     3
370
    25
100
AcDbLine
 10
-79.78125309199095
 20
-68.9000015258789
 30
0.0
 11
-82.45625304430723
 21
-68.9000015258789
 31
0.0
  0
LINE
  5
4F8
330
1F
100
AcDbEntity
  8
Layer0048
  6
Continuous
 62
     3
370
    25
100
AcDbLine
 10
-82.45625304430723
 20
-68.9000015258789
 30
0.0
 11
-82.58125304430723
 21
-68.7750015258789
 31
0.0
  0
LINE
  5
4F9
330
1F
100
AcDbEntity
  8
Layer0048
  6
Continuous
 62
     3
370
    25
100
AcDbLine
 10
-79.09374999254942
 20
-67.5250015258789
 30
0.0
 11
-78.96874999254942
 21
-67.4000015258789
 31
0.0
  0
LINE
  5
4FA
330
1F
100
AcDbEntity
  8
Layer0048
  6
Continuous
 62
     3
370
    25
100
AcDbLine
 10
-78.96874999254942
 20
-67.4000015258789
 30
0.0
 11
-76.29375004023314
 21
-67.4000015258789
 31
0.0
  0
LINE
  5
4FB
330
1F
100
AcDbEntity
  8
Layer0048
  6
Continuous
 62
     3
370
    25
100
AcDbLine
 10
-76.29375004023314
 20
-67.4000015258789
 30
0.0
 11
-76.16875004023314
 21
-67.5250015258789
 31
0.0
  0
LINE
  5
4FC
330
1F
100
AcDbEntity
  8
Layer0048
  6
Continuous
 62
     3
370
    25
100
AcDbLine
 10
-76.16875004023314
 20
-68.7750015258789
 30
0.0
 11
-76.29375004023314
 21
-68.9000015258789
 31
0.0
  0
LINE
  5
4FD
330
1F
100
AcDbEntity
  8
Layer0048
  6
Continuous
 62
     3
370
    25
100
AcDbLine
 10
-76.29375004023314
 20
-68.9000015258789
 30
0.0
 11
-78.96874999254942
 21
-68.9000015258789
 31
0.0
  0
LINE
  5
4FE
330
1F
100
AcDbEntity
  8
Layer0048
  6
Continuous
 62
     3
370
    25
100
AcDbLine
 10
-78.96874999254942
 20
-68.9000015258789
 30
0.0
 11
-79.09374999254942
 21
-68.7750015258789
 31
0.0
  0
LINE
  5
4FF
330
1F
100
AcDbEntity
  8
Layer0048
  6
Continuous
 62
     3
370
    25
100
AcDbLine
 10
-75.6062469407916
 20
-67.5250015258789
 30
0.0
 11
-75.4812469407916
 21
-67.4000015258789
 31
0.0
  0
LINE
  5
500
330
1F
100
AcDbEntity
  8
Layer0048
  6
Continuous
 62
     3
370
    25
100
AcDbLine
 10
-75.4812469407916
 20
-67.4000015258789
 30
0.0
 11
-72.80624698847532
 21
-67.4000015258789
 31
0.0
  0
LINE
  5
501
330
1F
100
AcDbEntity
  8
Layer0048
  6
Continuous
 62
     3
370
    25
100
AcDbLine
 10
-72.80624698847532
 20
-67.4000015258789
 30
0.0
 11
-72.68124698847532
 21
-67.5250015258789
 31
0.0
  0
LINE
  5
502
330
1F
100
AcDbEntity
  8
Layer0048
  6
Continuous
 62
     3
370
    25
100
AcDbLine
 10
-72.68124698847532
 20
-68.7750015258789
 30
0.0
 11
-72.80624698847532
 21
-68.9000015258789
 31
0.0
  0
LINE
  5
503
330
1F
100
AcDbEntity
  8
Layer0048
  6
Continuous
 62
     3
370
    25
100
AcDbLine
 10
-72.80624698847532
 20
-68.9000015258789
 30
0.0
 11
-75.4812469407916
 21
-68.9000015258789
 31
0.0
  0
LINE
  5
504
330
1F
100
AcDbEntity
  8
Layer0048
  6
Continuous
 62
     3
370
    25
100
AcDbLine
 10
-75.4812469407916
 20
-68.9000015258789
 30
0.0
 11
-75.6062469407916
 21
-68.7750015258789
 31
0.0
  0
LINE
  5
505
330
1F
100
AcDbEntity
  8
Layer0048
  6
Continuous
 62
     3
370
    25
100
AcDbLine
 10
-72.11875151842833
 20
-67.5250015258789
 30
0.0
 11
-71.99375151842833
 21
-67.4000015258789
 31
0.0
  0
LINE
  5
506
330
1F
100
AcDbEntity
  8
Layer0048
  6
Continuous
 62
     3
370
    25
100
AcDbLine
 10
-71.99375151842833
 20
-67.4000015258789
 30
0.0
 11
-69.31875156611204
 21
-67.4000015258789
 31
0.0
  0
LINE
  5
507
330
1F
100
AcDbEntity
  8
Layer0048
  6
Continuous
 62
     3
370
    25
100
AcDbLine
 10
-69.31875156611204
 20
-67.4000015258789
 30
0.0
 11
-69.19375156611204
 21
-67.5250015258789
 31
0.0
  0
LINE
  5
508
330
1F
100
AcDbEntity
  8
Layer0048
  6
Continuous
 62
     3
370
    25
100
AcDbLine
 10
-69.19375156611204
 20
-68.7750015258789
 30
0.0
 11
-69.31875156611204
 21
-68.9000015258789
 31
0.0
  0
LINE
  5
509
330
1F
100
AcDbEntity
  8
Layer0048
  6
Continuous
 62
     3
370
    25
100
AcDbLine
 10
-69.31875156611204
 20
-68.9000015258789
 30
0.0
 11
-71.99375151842833
 21
-68.9000015258789
 31
0.0
  0
LINE
  5
50A
330
1F
100
AcDbEntity
  8
Layer0048
  6
Continuous
 62
     3
370
    25
100
AcDbLine
 10
-71.99375151842833
 20
-68.9000015258789
 30
0.0
 11
-72.11875151842833
 21
-68.7750015258789
 31
0.0
  0
LINE
  5
50B
330
1F
100
AcDbEntity
  8
Layer0048
  6
Continuous
 62
     3
370
    25
100
AcDbLine
 10
-68.63124846667051
 20
-67.5250015258789
 30
0.0
 11
-68.50624846667051
 21
-67.4000015258789
 31
0.0
  0
LINE
  5
50C
330
1F
100
AcDbEntity
  8
Layer0048
  6
Continuous
 62
     3
370
    25
100
AcDbLine
 10
-68.50624846667051
 20
-67.4000015258789
 30
0.0
 11
-65.83124851435423
 21
-67.4000015258789
 31
0.0
  0
LINE
  5
50D
330
1F
100
AcDbEntity
  8
Layer0048
  6
Continuous
 62
     3
370
    25
100
AcDbLine
 10
-65.83124851435423
 20
-67.4000015258789
 30
0.0
 11
-65.70624851435423
 21
-67.5250015258789
 31
0.0
  0
LINE
  5
50E
330
1F
100
AcDbEntity
  8
Layer0048
  6
Continuous
 62
     3
370
    25
100
AcDbLine
 10
-65.70624851435423
 20
-68.7750015258789
 30
0.0
 11
-65.83124851435423
 21
-68.9000015258789
 31
0.0
  0
LINE
  5
50F
330
1F
100
AcDbEntity
  8
Layer0048
  6
Continuous
 62
     3
370
    25
100
AcDbLine
 10
-65.83124851435423
 20
-68.9000015258789
 30
0.0
 11
-68.50624846667051
 21
-68.9000015258789
 31
0.0
  0
LINE
  5
510
330
1F
100
AcDbEntity
  8
Layer0048
  6
Continuous
 62
     3
370
    25
100
AcDbLine
 10
-68.50624846667051
 20
-68.9000015258789
 30
0.0
 11
-68.63124846667051
 21
-68.7750015258789
 31
0.0
  0
LINE
  5
511
330
1F
100
AcDbEntity
  8
Layer0048
  6
Continuous
 62
     3
370
    25
100
AcDbLine
 10
-65.14375304430723
 20
-67.5250015258789
 30
0.0
 11
-65.01875304430723
 21
-67.4000015258789
 31
0.0
  0
LINE
  5
512
330
1F
100
AcDbEntity
  8
Layer0048
  6
Continuous
 62
     3
370
    25
100
AcDbLine
 10
-65.01875304430723
 20
-67.4000015258789
 30
0.0
 11
-62.38125299662352
 21
-67.4000015258789
 31
0.0
  0
LINE
  5
513
330
1F
100
AcDbEntity
  8
Layer0048
  6
Continuous
 62
     3
370
    25
100
AcDbLine
 10
-62.38125299662352
 20
-67.4000015258789
 30
0.0
 11
-62.25625299662352
 21
-67.5250015258789
 31
0.0
  0
LINE
  5
514
330
1F
100
AcDbEntity
  8
Layer0048
  6
Continuous
 62
     3
370
    25
100
AcDbLine
 10
-62.25625299662352
 20
-68.7750015258789
 30
0.0
 11
-62.38125299662352
 21
-68.9000015258789
 31
0.0
  0
LINE
  5
515
330
1F
100
AcDbEntity
  8
Layer0048
  6
Continuous
 62
     3
370
    25
100
AcDbLine
 10
-62.38125299662352
 20
-68.9000015258789
 30
0.0
 11
-65.01875304430723
 21
-68.9000015258789
 31
0.0
  0
LINE
  5
516
330
1F
100
AcDbEntity
  8
Layer0048
  6
Continuous
 62
     3
370
    25
100
AcDbLine
 10
-65.01875304430723
 20
-68.9000015258789
 30
0.0
 11
-65.14375304430723
 21
-68.7750015258789
 31
0.0
  0
LINE
  5
517
330
1F
100
AcDbEntity
  8
Layer0048
  6
Continuous
 62
     3
370
    25
100
AcDbLine
 10
-121.4749984666705
 20
-71.4000015258789
 30
0.0
 11
-61.72499846667051
 21
-71.4000015258789
 31
0.0
  0
LINE
  5
518
330
1F
100
AcDbEntity
  8
Layer0048
  6
Continuous
 62
     3
370
    25
100
AcDbLine
 10
-61.72499846667051
 20
-71.4000015258789
 30
0.0
 11
-61.72499846667051
 21
-81.4000015258789
 31
0.0
  0
LINE
  5
519
330
1F
100
AcDbEntity
  8
Layer0048
  6
Continuous
 62
     3
370
    25
100
AcDbLine
 10
-61.72499846667051
 20
-81.4000015258789
 30
0.0
 11
-121.4749984666705
 21
-81.4000015258789
 31
0.0
  0
LINE
  5
51A
330
1F
100
AcDbEntity
  8
Layer0048
  6
Continuous
 62
     3
370
    25
100
AcDbLine
 10
-121.4749984666705
 20
-81.4000015258789
 30
0.0
 11
-121.4749984666705
 21
-71.4000015258789
 31
0.0
  0
LINE
  5
51B
330
1F
100
AcDbEntity
  8
Layer0048
  6
Continuous
 62
     3
370
    25
100
AcDbLine
 10
-61.56874847924336
 20
-67.40000154823065
 30
0.0
 11
-61.31874847551807
 21
-67.40000154823065
 31
0.0
  0
LINE
  5
51C
330
1F
100
AcDbEntity
  8
Layer0048
  6
Continuous
 62
     3
370
    25
100
AcDbLine
 10
-61.31874847551807
 20
-67.40000154823065
 30
0.0
 11
-61.31874847551807
 21
-68.90000157058239
 31
0.0
  0
LINE
  5
51D
330
1F
100
AcDbEntity
  8
Layer0048
  6
Continuous
 62
     3
370
    25
100
AcDbLine
 10
-61.31874847551807
 20
-68.90000157058239
 30
0.0
 11
-61.56874847924336
 21
-68.90000157058239
 31
0.0
  0
LINE
  5
51E
330
1F
100
AcDbEntity
  8
Layer0048
  6
Continuous
 62
     3
370
    25
100
AcDbLine
 10
-61.69374848110601
 20
-67.5250015500933
 30
0.0
 11
-61.56874847924336
 21
-67.40000154823065
 31
0.0
  0
LINE
  5
51F
330
1F
100
AcDbEntity
  8
Layer0048
  6
Continuous
 62
     3
370
    25
100
AcDbLine
 10
-61.56874847924336
 20
-68.90000157058239
 30
0.0
 11
-61.69374848110601
 21
-68.77500156871974
 31
0.0
  0
LINE
  5
520
330
1F
100
AcDbEntity
  8
Layer0048
  6
Continuous
 62
     3
370
    25
100
AcDbLine
 10
-121.6312484540977
 20
-67.40000154823065
 30
0.0
 11
-121.881248457823
 21
-67.40000154823065
 31
0.0
  0
LINE
  5
521
330
1F
100
AcDbEntity
  8
Layer0048
  6
Continuous
 62
     3
370
    25
100
AcDbLine
 10
-121.881248457823
 20
-67.40000154823065
 30
0.0
 11
-121.881248457823
 21
-68.90000157058239
 31
0.0
  0
LINE
  5
522
330
1F
100
AcDbEntity
  8
Layer0048
  6
Continuous
 62
     3
370
    25
100
AcDbLine
 10
-121.881248457823
 20
-68.90000157058239
 30
0.0
 11
-121.6312484540977
 21
-68.90000157058239
 31
0.0
  0
LINE
  5
523
330
1F
100
AcDbEntity
  8
Layer0048
  6
Continuous
 62
     3
370
    25
100
AcDbLine
 10
-121.506248452235
 20
-67.5250015500933
 30
0.0
 11
-121.6312484540977
 21
-67.40000154823065
 31
0.0
  0
LINE
  5
524
330
1F
100
AcDbEntity
  8
Layer0048
  6
Continuous
 62
     3
370
    25
100
AcDbLine
 10
-121.6312484540977
 20
-68.90000157058239
 30
0.0
 11
-121.506248452235
 21
-68.77500156871974
 31
0.0
  0
LINE
  5
525
330
1F
100
AcDbEntity
  8
Layer0048
  6
Continuous
 62
     3
370
    25
100
AcDbLine
 10
-122.4749984666705
 20
-66.1500015258789
 30
0.0
 11
-121.881248457823
 21
-68.44838865690144
 31
0.0
  0
LINE
  5
526
330
1F
100
AcDbEntity
  8
Layer0048
  6
Continuous
 62
     3
370
    25
100
AcDbLine
 10
-121.7645817884554
 20
-68.90000157058239
 30
0.0
 11
-121.5720822960275
 21
-69.64516089611007
 31
0.0
  0
LINE
  5
527
330
1F
100
AcDbEntity
  8
Layer0048
  6
Continuous
 62
     3
370
    25
100
AcDbLine
 10
-61.69374846667051
 20
-69.9000015258789
 30
0.0
 11
-61.43541514488558
 21
-68.90000157058242
 31
0.0
  0
LINE
  5
528
330
1F
100
AcDbEntity
  8
Layer0048
  6
Continuous
 62
     3
370
    25
100
AcDbLine
 10
-61.31874847551807
 20
-68.44838865690176
 30
0.0
 11
-60.72499846667051
 21
-66.1500015258789
 31
0.0
  0
LINE
  5
529
330
1F
100
AcDbEntity
  8
Layer0048
  6
DASHED2
 62
     3
370
    25
100
AcDbLine
 10
-121.4749984666705
 20
-71.80000153183937
 30
0.0
 11
-61.72499846667051
 21
-71.80000153183937
 31
0.0
  0
LINE
  5
52A
330
1F
100
AcDbEntity
  8
Layer0048
  6
DASHED2
 62
     3
370
    25
100
AcDbLine
 10
-121.4749984666705
 20
-81.0
 30
0.0
 11
-61.72499846667051
 21
-81.0
 31
0.0
  0
LINE
  5
52B
330
1F
100
AcDbEntity
  8
Layer0054
  6
Continuous
 62
     4
370
    25
100
AcDbLine
 10
-119.9749984666705
 20
35.03750610351562
 30
0.0
 11
-119.6749984622001
 21
36.49750616341829
 31
0.0
  0
LINE
  5
52C
330
1F
100
AcDbEntity
  8
Layer0054
  6
Continuous
 62
     4
370
    25
100
AcDbLine
 10
-119.9749984666705
 20
35.03750610351562
 30
0.0
 11
-118.9749984517693
 21
36.1375061199069
 31
0.0
  0
LINE
  5
52D
330
1F
100
AcDbEntity
  8
Layer0054
  6
Continuous
 62
     4
370
    25
100
AcDbLine
 10
-119.9749984666705
 20
35.03750610351562
 30
0.0
 11
-96.59999811835587
 21
81.78750680014491
 31
0.0
  0
LINE
  5
52E
330
1F
100
AcDbEntity
  8
Layer0054
  6
Continuous
 62
     4
370
    25
100
AcDbLine
 10
-96.59999811835587
 20
81.78750680014491
 30
0.0
 11
-50.59999743290246
 21
81.78750680014491
 31
0.0
  0
LINE
  5
52F
330
1F
100
AcDbEntity
  8
Layer0054
  6
Continuous
 62
     4
370
    25
100
AcDbLine
 10
-112.5062484666705
 20
41.28750610351562
 30
0.0
 11
-112.2062484622001
 21
42.74750616341829
 31
0.0
  0
LINE
  5
530
330
1F
100
AcDbEntity
  8
Layer0054
  6
Continuous
 62
     4
370
    25
100
AcDbLine
 10
-112.5062484666705
 20
41.28750610351562
 30
0.0
 11
-111.5062484517693
 21
42.3875061199069
 31
0.0
  0
LINE
  5
531
330
1F
100
AcDbEntity
  8
Layer0054
  6
Continuous
 62
     4
370
    25
100
AcDbLine
 10
-112.5062484666705
 20
41.28750610351562
 30
0.0
 11
-94.44374819751829
 21
77.41250664182007
 31
0.0
  0
LINE
  5
532
330
1F
100
AcDbEntity
  8
Layer0054
  6
Continuous
 62
     4
370
    25
100
AcDbLine
 10
-94.44374819751829
 20
77.41250664182007
 30
0.0
 11
-50.4437475418672
 21
77.41250664182007
 31
0.0
  0
LINE
  5
533
330
1F
100
AcDbEntity
  8
Layer0054
  6
Continuous
 62
     4
370
    25
100
AcDbLine
 10
-102.0437469407916
 20
53.35000610351562
 30
0.0
 11
-101.7437469363212
 21
54.81000616341829
 31
0.0
  0
LINE
  5
534
330
1F
100
AcDbEntity
  8
Layer0054
  6
Continuous
 62
     4
370
    25
100
AcDbLine
 10
-102.0437469407916
 20
53.35000610351562
 30
0.0
 11
-101.0437469258904
 21
54.4500061199069
 31
0.0
  0
LINE
  5
535
330
1F
100
AcDbEntity
  8
Layer0054
  6
Continuous
 62
     4
370
    25
100
AcDbLine
 10
-102.0437469407916
 20
53.35000610351562
 30
0.0
 11
-92.41874679736793
 21
72.60000639036298
 31
0.0
  0
LINE
  5
536
330
1F
100
AcDbEntity
  8
Layer0054
  6
Continuous
 62
     4
370
    25
100
AcDbLine
 10
-92.41874679736793
 20
72.60000639036298
 30
0.0
 11
-48.41874614171684
 21
72.60000639036298
 31
0.0
  0
LINE
  5
537
330
1F
100
AcDbEntity
  8
Layer0054
  6
Continuous
 62
     4
370
    25
100
AcDbLine
 10
-93.3249969407916
 20
-61.40000146627426
 30
0.0
 11
-94.82499696314335
 21
-61.0000014603138
 31
0.0
  0
LINE
  5
538
330
1F
100
AcDbEntity
  8
Layer0054
  6
Continuous
 62
     4
370
    25
100
AcDbLine
 10
-94.82499696314335
 20
-61.80000147223473
 30
0.0
 11
-93.3249969407916
 21
-61.40000146627426
 31
0.0
  0
LINE
  5
539
330
1F
100
AcDbEntity
  8
Layer0054
  6
Continuous
 62
     4
370
    25
100
AcDbLine
 10
-93.3249969407916
 20
-61.40000146627426
 30
0.0
 11
-96.32499698549509
 21
-61.40000146627426
 31
0.0
  0
LINE
  5
53A
330
1F
100
AcDbEntity
  8
Layer0054
  6
Continuous
 62
     4
370
    25
100
AcDbLine
 10
-93.3249969407916
 20
-61.40000146627426
 30
0.0
 11
-89.83749688882381
 21
-61.40000146627426
 31
0.0
  0
LINE
  5
53B
330
1F
100
AcDbEntity
  8
Layer0054
  6
Continuous
 62
     4
370
    25
100
AcDbLine
 10
-89.83749688882381
 20
-61.40000146627426
 30
0.0
 11
-88.33749686647207
 21
-61.0000014603138
 31
0.0
  0
LINE
  5
53C
330
1F
100
AcDbEntity
  8
Layer0054
  6
Continuous
 62
     4
370
    25
100
AcDbLine
 10
-88.33749686647207
 20
-61.80000147223473
 30
0.0
 11
-89.83749688882381
 21
-61.40000146627426
 31
0.0
  0
LINE
  5
53D
330
1F
100
AcDbEntity
  8
Layer0054
  6
Continuous
 62
     4
370
    25
100
AcDbLine
 10
-89.83749688882381
 20
-61.40000146627426
 30
0.0
 11
-77.83749671000987
 21
-61.40000146627426
 31
0.0
  0
LINE
  5
53E
330
1F
100
AcDbEntity
  8
Layer0054
  6
Continuous
 62
     4
370
    25
100
AcDbLine
 10
-122.4749984666705
 20
-54.40000136196613
 30
0.0
 11
-120.9749984443188
 21
-54.00000135600567
 31
0.0
  0
LINE
  5
53F
330
1F
100
AcDbEntity
  8
Layer0054
  6
Continuous
 62
     4
370
    25
100
AcDbLine
 10
-120.9749984443188
 20
-54.8000013679266
 30
0.0
 11
-122.4749984666705
 21
-54.40000136196613
 31
0.0
  0
LINE
  5
540
330
1F
100
AcDbEntity
  8
Layer0054
  6
Continuous
 62
     4
370
    25
100
AcDbLine
 10
-122.4749984666705
 20
-54.40000136196613
 30
0.0
 11
-60.72499754652381
 21
-54.40000136196613
 31
0.0
  0
LINE
  5
541
330
1F
100
AcDbEntity
  8
Layer0054
  6
Continuous
 62
     4
370
    25
100
AcDbLine
 10
-60.72499754652381
 20
-54.40000136196613
 30
0.0
 11
-62.22499756887555
 21
-54.00000135600567
 31
0.0
  0
LINE
  5
542
330
1F
100
AcDbEntity
  8
Layer0054
  6
Continuous
 62
     4
370
    25
100
AcDbLine
 10
-62.22499756887555
 20
-54.8000013679266
 30
0.0
 11
-60.72499754652381
 21
-54.40000136196613
 31
0.0
  0
LINE
  5
543
330
1F
100
AcDbEntity
  8
Layer0054
  6
Continuous
 62
     4
370
    25
100
AcDbLine
 10
-106.3000031337142
 20
-53.40000133961439
 30
0.0
 11
-109.3000031784177
 21
-47.40000125020742
 31
0.0
  0
LINE
  5
544
330
1F
100
AcDbEntity
  8
Layer0054
  6
Continuous
 62
     4
370
    25
100
AcDbLine
 10
-131.3000035062432
 20
-47.40000125020742
 30
0.0
 11
-109.3000031784177
 21
-47.40000125020742
 31
0.0
  0
LINE
  5
545
330
1F
100
AcDbEntity
  8
Layer0054
  6
Continuous
 62
     4
370
    25
100
AcDbLine
 10
-49.52499829605222
 20
-54.54000128865242
 30
0.0
 11
-30.52499801293015
 21
-54.54000128865242
 31
0.0
  0
LINE
  5
546
330
1F
100
AcDbEntity
  8
Layer0054
  6
Continuous
 62
     4
370
    25
100
AcDbLine
 10
-16.22500609606504
 20
53.35000610351562
 30
0.0
 11
-21.22500617057085
 21
53.35000610351562
 31
0.0
  0
LINE
  5
547
330
1F
100
AcDbEntity
  8
Layer0054
  6
Continuous
 62
     4
370
    25
100
AcDbLine
 10
-20.22500615566969
 20
53.35000610351562
 30
0.0
 11
-20.62500616163015
 21
51.85000608116388
 31
0.0
  0
LINE
  5
548
330
1F
100
AcDbEntity
  8
Layer0054
  6
Continuous
 62
     4
370
    25
100
AcDbLine
 10
-19.82500614970923
 20
51.85000608116388
 30
0.0
 11
-20.22500615566969
 21
53.35000610351562
 31
0.0
  0
LINE
  5
549
330
1F
100
AcDbEntity
  8
Layer0054
  6
Continuous
 62
     4
370
    25
100
AcDbLine
 10
-20.22500615566969
 20
53.35000610351562
 30
0.0
 11
-20.22500615566969
 21
40.85000591725111
 31
0.0
  0
LINE
  5
54A
330
1F
100
AcDbEntity
  8
Layer0054
  6
Continuous
 62
     4
370
    25
100
AcDbLine
 10
-20.22500615566969
 20
40.85000591725111
 30
0.0
 11
-20.62500616163015
 21
42.35000593960285
 31
0.0
  0
LINE
  5
54B
330
1F
100
AcDbEntity
  8
Layer0054
  6
Continuous
 62
     4
370
    25
100
AcDbLine
 10
-19.82500614970923
 20
42.35000593960285
 30
0.0
 11
-20.22500615566969
 21
40.85000591725111
 31
0.0
  0
LINE
  5
54C
330
1F
100
AcDbEntity
  8
Layer0054
  6
Continuous
 62
     4
370
    25
100
AcDbLine
 10
-21.22500617057085
 20
40.85000591725111
 30
0.0
 11
-16.22500609606504
 21
40.85000591725111
 31
0.0
  0
LINE
  5
54D
330
1F
100
AcDbEntity
  8
Layer0054
  6
Continuous
 62
     4
370
    25
100
AcDbLine
 10
-20.22500615566969
 20
40.85000610351562
 30
0.0
 11
-20.62500616163015
 21
39.35000608116388
 31
0.0
  0
LINE
  5
54E
330
1F
100
AcDbEntity
  8
Layer0054
  6
Continuous
 62
     4
370
    25
100
AcDbLine
 10
-19.82500614970923
 20
39.35000608116388
 30
0.0
 11
-20.22500615566969
 21
40.85000610351562
 31
0.0
  0
LINE
  5
54F
330
1F
100
AcDbEntity
  8
Layer0054
  6
Continuous
 62
     4
370
    25
100
AcDbLine
 10
-20.22500615566969
 20
40.85000610351562
 30
0.0
 11
-20.22500615566969
 21
28.35000591725111
 31
0.0
  0
LINE
  5
550
330
1F
100
AcDbEntity
  8
Layer0054
  6
Continuous
 62
     4
370
    25
100
AcDbLine
 10
-20.22500615566969
 20
28.35000591725111
 30
0.0
 11
-20.62500616163015
 21
29.85000593960285
 31
0.0
  0
LINE
  5
551
330
1F
100
AcDbEntity
  8
Layer0054
  6
Continuous
 62
     4
370
    25
100
AcDbLine
 10
-19.82500614970923
 20
29.85000593960285
 30
0.0
 11
-20.22500615566969
 21
28.35000591725111
 31
0.0
  0
LINE
  5
552
330
1F
100
AcDbEntity
  8
Layer0054
  6
Continuous
 62
     4
370
    25
100
AcDbLine
 10
-21.22500617057085
 20
28.35000591725111
 30
0.0
 11
-16.22500609606504
 21
28.35000591725111
 31
0.0
  0
LINE
  5
553
330
1F
100
AcDbEntity
  8
Layer0054
  6
Continuous
 62
     4
370
    25
100
AcDbLine
 10
-16.22500609606504
 20
53.35000610351562
 30
0.0
 11
-28.22500627487898
 21
53.35000610351562
 31
0.0
  0
LINE
  5
554
330
1F
100
AcDbEntity
  8
Layer0054
  6
Continuous
 62
     4
370
    25
100
AcDbLine
 10
-27.22500625997782
 20
53.35000610351562
 30
0.0
 11
-27.62500626593828
 21
51.85000608116388
 31
0.0
  0
LINE
  5
555
330
1F
100
AcDbEntity
  8
Layer0054
  6
Continuous
 62
     4
370
    25
100
AcDbLine
 10
-26.82500625401735
 20
51.85000608116388
 30
0.0
 11
-27.22500625997782
 21
53.35000610351562
 31
0.0
  0
LINE
  5
556
330
1F
100
AcDbEntity
  8
Layer0054
  6
Continuous
 62
     4
370
    25
100
AcDbLine
 10
-27.22500625997782
 20
53.35000610351562
 30
0.0
 11
-27.22500625997782
 21
-21.64999501407146
 31
0.0
  0
LINE
  5
557
330
1F
100
AcDbEntity
  8
Layer0054
  6
Continuous
 62
     4
370
    25
100
AcDbLine
 10
-27.22500625997782
 20
-21.64999501407146
 30
0.0
 11
-27.62500626593828
 21
-20.14999499171972
 31
0.0
  0
LINE
  5
558
330
1F
100
AcDbEntity
  8
Layer0054
  6
Continuous
 62
     4
370
    25
100
AcDbLine
 10
-26.82500625401735
 20
-20.14999499171972
 30
0.0
 11
-27.22500625997782
 21
-21.64999501407146
 31
0.0
  0
LINE
  5
559
330
1F
100
AcDbEntity
  8
Layer0054
  6
Continuous
 62
     4
370
    25
100
AcDbLine
 10
-28.22500627487898
 20
-21.64999501407146
 30
0.0
 11
-16.22500609606504
 21
-21.64999501407146
 31
0.0
  0
LINE
  5
55A
330
1F
100
AcDbEntity
  8
Layer0054
  6
Continuous
 62
     4
370
    25
100
AcDbLine
 10
0.2749939039349556
 20
52.22500610351562
 30
0.0
 11
12.27499408274889
 21
52.22500610351562
 31
0.0
  0
LINE
  5
55B
330
1F
100
AcDbEntity
  8
Layer0054
  6
Continuous
 62
     4
370
    25
100
AcDbLine
 10
11.27499406784773
 20
52.22500610351562
 30
0.0
 11
10.87499406188726
 21
50.72500608116388
 31
0.0
  0
LINE
  5
55C
330
1F
100
AcDbEntity
  8
Layer0054
  6
Continuous
 62
     4
370
    25
100
AcDbLine
 10
11.67499407380819
 20
50.72500608116388
 30
0.0
 11
11.27499406784773
 21
52.22500610351562
 31
0.0
  0
LINE
  5
55D
330
1F
100
AcDbEntity
  8
Layer0054
  6
Continuous
 62
     4
370
    25
100
AcDbLine
 10
11.27499406784773
 20
52.22500610351562
 30
0.0
 11
11.27499406784773
 21
-20.52499498054385
 31
0.0
  0
LINE
  5
55E
330
1F
100
AcDbEntity
  8
Layer0054
  6
Continuous
 62
     4
370
    25
100
AcDbLine
 10
11.27499406784773
 20
-20.52499498054385
 30
0.0
 11
10.87499406188726
 21
-19.02499495819211
 31
0.0
  0
LINE
  5
55F
330
1F
100
AcDbEntity
  8
Layer0054
  6
Continuous
 62
     4
370
    25
100
AcDbLine
 10
11.67499407380819
 20
-19.02499495819211
 30
0.0
 11
11.27499406784773
 21
-20.52499498054385
 31
0.0
  0
LINE
  5
560
330
1F
100
AcDbEntity
  8
Layer0054
  6
Continuous
 62
     4
370
    25
100
AcDbLine
 10
12.27499408274889
 20
-20.52499498054385
 30
0.0
 11
0.2749939039349556
 21
-20.52499498054385
 31
0.0
  0
LINE
  5
561
330
1F
100
AcDbEntity
  8
Layer0054
  6
Continuous
 62
     4
370
    25
100
AcDbLine
 10
-2.100006096065044
 20
52.60000610351562
 30
0.0
 11
-1.800006091594696
 21
54.06000616341829
 31
0.0
  0
LINE
  5
562
330
1F
100
AcDbEntity
  8
Layer0054
  6
Continuous
 62
     4
370
    25
100
AcDbLine
 10
-2.100006096065044
 20
52.60000610351562
 30
0.0
 11
-1.100006081163883
 21
53.7000061199069
 31
0.0
  0
LINE
  5
563
330
1F
100
AcDbEntity
  8
Layer0054
  6
Continuous
 62
     4
370
    25
100
AcDbLine
 10
-2.100006096065044
 20
52.60000610351562
 30
0.0
 11
7.399994045495987
 21
71.60000638663769
 31
0.0
  0
LINE
  5
564
330
1F
100
AcDbEntity
  8
Layer0054
  6
Continuous
 62
     4
370
    25
100
AcDbLine
 10
7.399994045495987
 20
71.60000638663769
 30
0.0
 11
-15.60000629723072
 21
71.60000638663769
 31
0.0
  0
LINE
  5
565
330
1F
100
AcDbEntity
  8
Layer0054
  6
Continuous
 62
     4
370
    25
100
AcDbLine
 10
-15.72500609606504
 20
-22.15000152587891
 30
0.0
 11
-15.72500609606504
 21
-38.15000176429749
 31
0.0
  0
LINE
  5
566
330
1F
100
AcDbEntity
  8
Layer0054
  6
Continuous
 62
     4
370
    25
100
AcDbLine
 10
-15.72500609606504
 20
-37.15000174939632
 30
0.0
 11
-17.22500611841679
 21
-36.75000174343586
 31
0.0
  0
LINE
  5
567
330
1F
100
AcDbEntity
  8
Layer0054
  6
Continuous
 62
     4
370
    25
100
AcDbLine
 10
-17.22500611841679
 20
-37.55000175535679
 30
0.0
 11
-15.72500609606504
 21
-37.15000174939632
 31
0.0
  0
LINE
  5
568
330
1F
100
AcDbEntity
  8
Layer0054
  6
Continuous
 62
     4
370
    25
100
AcDbLine
 10
-15.72500609606504
 20
-37.15000174939632
 30
0.0
 11
-22.72500620037317
 21
-37.15000174939632
 31
0.0
  0
LINE
  5
569
330
1F
100
AcDbEntity
  8
Layer0054
  6
Continuous
 62
     4
370
    25
100
AcDbLine
 10
-15.72500609606504
 20
-37.15000174939632
 30
0.0
 11
-10.22500601410866
 21
-37.15000174939632
 31
0.0
  0
LINE
  5
56A
330
1F
100
AcDbEntity
  8
Layer0054
  6
Continuous
 62
     4
370
    25
100
AcDbLine
 10
-10.22500601410866
 20
-37.15000174939632
 30
0.0
 11
-8.725005991756916
 21
-36.75000174343586
 31
0.0
  0
LINE
  5
56B
330
1F
100
AcDbEntity
  8
Layer0054
  6
Continuous
 62
     4
370
    25
100
AcDbLine
 10
-8.725005991756916
 20
-37.55000175535679
 30
0.0
 11
-10.22500601410866
 21
-37.15000174939632
 31
0.0
  0
LINE
  5
56C
330
1F
100
AcDbEntity
  8
Layer0054
  6
Continuous
 62
     4
370
    25
100
AcDbLine
 10
-10.22500601410866
 20
-37.15000174939632
 30
0.0
 11
-7.225005969405174
 21
-37.15000174939632
 31
0.0
  0
LINE
  5
56D
330
1F
100
AcDbEntity
  8
Layer0054
  6
Continuous
 62
     4
370
    25
100
AcDbLine
 10
-10.22500601410866
 20
-38.15000176429749
 30
0.0
 11
-10.22500601410866
 21
-22.15000152587891
 31
0.0
  0
LINE
  5
56E
330
1F
100
AcDbEntity
  8
Layer0054
  6
Continuous
 62
     4
370
    25
100
AcDbLine
 10
-15.72500609606504
 20
-45.15000186860561
 30
0.0
 11
-15.72500609606504
 21
-22.15000152587891
 31
0.0
  0
LINE
  5
56F
330
1F
100
AcDbEntity
  8
Layer0054
  6
Continuous
 62
     4
370
    25
100
AcDbLine
 10
-15.72500609606504
 20
-44.15000185370445
 30
0.0
 11
-14.2250060737133
 21
-43.75000184774399
 31
0.0
  0
LINE
  5
570
330
1F
100
AcDbEntity
  8
Layer0054
  6
Continuous
 62
     4
370
    25
100
AcDbLine
 10
-14.2250060737133
 20
-44.55000185966492
 30
0.0
 11
-15.72500609606504
 21
-44.15000185370445
 31
0.0
  0
LINE
  5
571
330
1F
100
AcDbEntity
  8
Layer0054
  6
Continuous
 62
     4
370
    25
100
AcDbLine
 10
-15.72500609606504
 20
-44.15000185370445
 30
0.0
 11
-0.2250058650970459
 21
-44.15000185370445
 31
0.0
  0
LINE
  5
572
330
1F
100
AcDbEntity
  8
Layer0054
  6
Continuous
 62
     4
370
    25
100
AcDbLine
 10
-0.2250058650970459
 20
-44.15000185370445
 30
0.0
 11
-1.725005887448787
 21
-43.75000184774399
 31
0.0
  0
LINE
  5
573
330
1F
100
AcDbEntity
  8
Layer0054
  6
Continuous
 62
     4
370
    25
100
AcDbLine
 10
-1.725005887448787
 20
-44.55000185966492
 30
0.0
 11
-0.2250058650970459
 21
-44.15000185370445
 31
0.0
  0
LINE
  5
574
330
1F
100
AcDbEntity
  8
Layer0054
  6
Continuous
 62
     4
370
    25
100
AcDbLine
 10
-0.2250058650970459
 20
-45.15000186860561
 30
0.0
 11
-0.2250058650970459
 21
-22.15000152587891
 31
0.0
  0
LINE
  5
575
330
1F
100
AcDbEntity
  8
Layer0054
  6
Continuous
 62
     4
370
    25
100
AcDbLine
 10
-93.3249969407916
 20
-65.4000015258789
 30
0.0
 11
-93.3249969407916
 21
-60.4000014513731
 31
0.0
  0
LINE
  5
576
330
1F
100
AcDbEntity
  8
Layer0054
  6
Continuous
 62
     4
370
    25
100
AcDbLine
 10
-89.83749688882381
 20
-60.4000014513731
 30
0.0
 11
-89.83749688882381
 21
-65.4000015258789
 31
0.0
  0
LINE
  5
577
330
1F
100
AcDbEntity
  8
Layer0054
  6
Continuous
 62
     4
370
    25
100
AcDbLine
 10
-122.4749984666705
 20
-65.4000015258789
 30
0.0
 11
-122.4749984666705
 21
-53.40000134706497
 31
0.0
  0
LINE
  5
578
330
1F
100
AcDbEntity
  8
Layer0054
  6
Continuous
 62
     4
370
    25
100
AcDbLine
 10
-60.72499754652381
 20
-65.4000015258789
 30
0.0
 11
-60.72499754652381
 21
-53.40000134706497
 31
0.0
  0
LINE
  5
579
330
1F
100
AcDbEntity
  8
Layer0054
  6
Continuous
 62
     4
370
    25
100
AcDbLine
 10
-121.4749984666705
 20
-90.90000165998936
 30
0.0
 11
-121.4749984666705
 21
-81.9000015258789
 31
0.0
  0
LINE
  5
57A
330
1F
100
AcDbEntity
  8
Layer0054
  6
Continuous
 62
     4
370
    25
100
AcDbLine
 10
-121.4749984666705
 20
-89.9000016450882
 30
0.0
 11
-119.9749984443187
 21
-89.50000163912773
 31
0.0
  0
LINE
  5
57B
330
1F
100
AcDbEntity
  8
Layer0054
  6
Continuous
 62
     4
370
    25
100
AcDbLine
 10
-119.9749984443187
 20
-90.30000165104866
 30
0.0
 11
-121.4749984666705
 21
-89.9000016450882
 31
0.0
  0
LINE
  5
57C
330
1F
100
AcDbEntity
  8
Layer0054
  6
Continuous
 62
     4
370
    25
100
AcDbLine
 10
-121.4749984666705
 20
-89.9000016450882
 30
0.0
 11
-61.72499757632613
 21
-89.9000016450882
 31
0.0
  0
LINE
  5
57D
330
1F
100
AcDbEntity
  8
Layer0054
  6
Continuous
 62
     4
370
    25
100
AcDbLine
 10
-61.72499757632613
 20
-89.9000016450882
 30
0.0
 11
-63.22499759867787
 21
-89.50000163912773
 31
0.0
  0
LINE
  5
57E
330
1F
100
AcDbEntity
  8
Layer0054
  6
Continuous
 62
     4
370
    25
100
AcDbLine
 10
-63.22499759867787
 20
-90.30000165104866
 30
0.0
 11
-61.72499757632613
 21
-89.9000016450882
 31
0.0
  0
LINE
  5
57F
330
1F
100
AcDbEntity
  8
Layer0054
  6
Continuous
 62
     4
370
    25
100
AcDbLine
 10
-61.72499757632613
 20
-90.90000165998936
 30
0.0
 11
-61.72499757632613
 21
-81.9000015258789
 31
0.0
  0
LINE
  5
580
330
1F
100
AcDbEntity
  8
Layer0054
  6
Continuous
 62
     4
370
    25
100
AcDbLine
 10
-100.3000030443072
 20
-65.40000151842833
 30
0.0
 11
-100.6000030487776
 21
-63.94000145852566
 31
0.0
  0
LINE
  5
581
330
1F
100
AcDbEntity
  8
Layer0054
  6
Continuous
 62
     4
370
    25
100
AcDbLine
 10
-100.3000030443072
 20
-65.40000151842833
 30
0.0
 11
-101.3000030592084
 21
-64.30000150203705
 31
0.0
  0
LINE
  5
582
330
1F
100
AcDbEntity
  8
Layer0054
  6
Continuous
 62
     4
370
    25
100
AcDbLine
 10
-100.3000030443072
 20
-65.40000151842833
 30
0.0
 11
-105.300003118813
 21
-55.40000136941671
 31
0.0
  0
LINE
  5
583
330
1F
100
AcDbEntity
  8
Layer0054
  6
Continuous
 62
     4
370
    25
100
AcDbLine
 10
-59.47499844431877
 20
-68.30000153183937
 30
0.0
 11
-60.97499846667051
 21
-67.9000015258789
 31
0.0
  0
LINE
  5
584
330
1F
100
AcDbEntity
  8
Layer0054
  6
Continuous
 62
     4
370
    25
100
AcDbLine
 10
-59.87499845027924
 20
-69.00000154227018
 30
0.0
 11
-60.97499846667051
 21
-67.9000015258789
 31
0.0
  0
LINE
  5
585
330
1F
100
AcDbEntity
  8
Layer0054
  6
Continuous
 62
     4
370
    25
100
AcDbLine
 10
-57.27499841153622
 20
-70.04000151962042
 30
0.0
 11
-60.97499846667051
 21
-67.9000015258789
 31
0.0
  0
LINE
  5
586
330
1F
100
AcDbEntity
  8
Layer0054
  6
Continuous
 62
     4
370
    25
100
AcDbLine
 10
-57.27499841153622
 20
-70.04000151962042
 30
0.0
 11
-49.52499829605222
 21
-54.54000128865242
 31
0.0
  0
TEXT
  5
587
330
1F
100
AcDbEntity
  8
Layer0054
 62
     2
100
AcDbText
 10
-95.59999810254942
 20
82.48750681
 30
0.0
 40
2.5
  1
ベアリングバー：
 41
0.8333333352777776
  7
dcStyle0
 72
     5
 11
-75.59999782254943
 21
82.48750681
 31
0.0
100
AcDbText
  0
TEXT
  5
588
330
1F
100
AcDbEntity
  8
Layer0054
 62
     2
100
AcDbText
 10
-75.59999780254942
 20
82.48750681
 30
0.0
 40
2.5
  1
Y-
 41
0.9999999999999998
  7
dcStyle0
 72
     5
 11
-70.59999773254943
 21
82.48750681
 31
0.0
100
AcDbText
  0
TEXT
  5
589
330
1F
100
AcDbEntity
  8
Layer0054
 62
     2
100
AcDbText
 10
-72.59999776254942
 20
82.48750681
 30
0.0
 40
2.5
  1
 44 
 41
0.9999999999999998
  7
dcStyle0
 72
     5
 11
-62.59999761254942
 21
82.48750681
 31
0.0
100
AcDbText
  0
TEXT
  5
58A
330
1F
100
AcDbEntity
  8
Layer0054
 62
     2
100
AcDbText
 10
-65.09999765254942
 20
82.48750681
 30
0.0
 40
2.5
  1
×
 41
0.8333333333333334
  7
dcStyle0
 72
     5
 11
-62.59999765254942
 21
82.48750681
 31
0.0
100
AcDbText
  0
TEXT
  5
58B
330
1F
100
AcDbEntity
  8
Layer0054
 62
     2
100
AcDbText
 10
-62.59999761254942
 20
82.48750681
 30
0.0
 40
2.5
  1
20
 41
0.9999999999999998
  7
dcStyle0
 72
     5
 11
-57.59999754254942
 21
82.48750681
 31
0.0
100
AcDbText
  0
TEXT
  5
58C
330
1F
100
AcDbEntity
  8
Layer0054
 62
     2
100
AcDbText
 10
-57.59999753254942
 20
82.48750681
 30
0.0
 40
2.5
  1
×
 41
0.8333333333333334
  7
dcStyle0
 72
     5
 11
-55.09999753254942
 21
82.48750681
 31
0.0
100
AcDbText
  0
TEXT
  5
58D
330
1F
100
AcDbEntity
  8
Layer0054
 62
     2
100
AcDbText
 10
-57.09999753254942
 20
82.48750681
 30
0.0
 40
2.5
  1
 4.5 
 41
0.8000000025599998
  7
dcStyle0
 72
     5
 11
-47.09999737254942
 21
82.48750681
 31
0.0
100
AcDbText
  0
TEXT
  5
58E
330
1F
100
AcDbEntity
  8
Layer0054
 62
     2
100
AcDbText
 10
-93.44374818254941
 20
78.11250665
 30
0.0
 40
2.5
  1
ツイストバー：
 41
0.8333333352380955
  7
dcStyle0
 72
     5
 11
-75.94374794254941
 21
78.11250665
 31
0.0
100
AcDbText
  0
TEXT
  5
58F
330
1F
100
AcDbEntity
  8
Layer0054
 62
     2
100
AcDbText
 10
-75.94374792254942
 20
78.11250665
 30
0.0
 40
2.5
  1
φ
 41
0.8333333333333334
  7
dcStyle0
 72
     5
 11
-73.44374792254942
 21
78.11250665
 31
0.0
100
AcDbText
  0
TEXT
  5
590
330
1F
100
AcDbEntity
  8
Layer0054
 62
     2
100
AcDbText
 10
-75.44374791254943
 20
78.11250665
 30
0.0
 40
2.5
  1
 10 
 41
1.0
  7
dcStyle0
 72
     5
 11
-65.44374776254942
 21
78.11250665
 31
0.0
100
AcDbText
  0
TEXT
  5
591
330
1F
100
AcDbEntity
  8
Layer0054
 62
     2
100
AcDbText
 10
-65.44374776254942
 20
78.11250665
 30
0.0
 40
2.5
  1
絞りパイプ
 41
0.8333333355555557
  7
dcStyle0
 72
     5
 11
-52.94374756254942
 21
78.11250665
 31
0.0
100
AcDbText
  0
TEXT
  5
592
330
1F
100
AcDbEntity
  8
Layer0054
 62
     2
100
AcDbText
 10
-91.41874678254942
 20
73.3000064
 30
0.0
 40
2.5
  1
エンドプレート：
 41
0.8333333352777776
  7
dcStyle0
 72
     5
 11
-71.41874650254942
 21
73.3000064
 31
0.0
100
AcDbText
  0
TEXT
  5
593
330
1F
100
AcDbEntity
  8
Layer0054
 62
     2
100
AcDbText
 10
-71.41874648254942
 20
73.3000064
 30
0.0
 40
2.5
  1
TP
 41
0.9999999999999998
  7
dcStyle0
 72
     5
 11
-66.41874641254942
 21
73.3000064
 31
0.0
100
AcDbText
  0
TEXT
  5
594
330
1F
100
AcDbEntity
  8
Layer0054
 62
     2
100
AcDbText
 10
-68.41874644254942
 20
73.3000064
 30
0.0
 40
2.5
  1
 6 
 41
1.0
  7
dcStyle0
 72
     5
 11
-60.91874632254942
 21
73.3000064
 31
0.0
100
AcDbText
  0
TEXT
  5
595
330
1F
100
AcDbEntity
  8
Layer0054
 62
     2
100
AcDbText
 10
-63.41874636254942
 20
73.3000064
 30
0.0
 40
2.5
  1
×
 41
0.8333333333333334
  7
dcStyle0
 72
     5
 11
-60.91874636254942
 21
73.3000064
 31
0.0
100
AcDbText
  0
TEXT
  5
596
330
1F
100
AcDbEntity
  8
Layer0054
 62
     2
100
AcDbText
 10
-62.91874636254942
 20
73.3000064
 30
0.0
 40
2.5
  1
 3 
 41
1.0
  7
dcStyle0
 72
     5
 11
-55.41874624254942
 21
73.3000064
 31
0.0
100
AcDbText
  0
TEXT
  5
597
330
1F
100
AcDbEntity
  8
Layer0054
 62
     2
100
AcDbText
 10
-57.91874628254942
 20
73.3000064
 30
0.0
 40
2.5
  1
×
 41
0.8333333333333334
  7
dcStyle0
 72
     5
 11
-55.41874628254942
 21
73.3000064
 31
0.0
100
AcDbText
  0
TEXT
  5
598
330
1F
100
AcDbEntity
  8
Layer0054
 62
     2
100
AcDbText
 10
-57.41874627254942
 20
73.3000064
 30
0.0
 40
2.5
  1
 32 
 41
0.9999999999999998
  7
dcStyle0
 72
     5
 11
-47.41874612254942
 21
73.3000064
 31
0.0
100
AcDbText
  0
TEXT
  5
599
330
1F
100
AcDbEntity
  8
Layer0054
 62
     2
100
AcDbText
 10
-90.83749690254942
 20
-60.40000145
 30
0.0
 40
3.0
  1
 27.9 
 41
0.8333333351851854
  7
dcStyle0
 72
     5
 11
-75.83749670254942
 21
-60.40000145
 31
0.0
100
AcDbText
  0
TEXT
  5
59A
330
1F
100
AcDbEntity
  8
Layer0054
 62
     2
100
AcDbText
 10
-97.84999810254942
 20
-53.40000135
 30
0.0
 40
3.0
  1
 494 
 41
0.8333333355555557
  7
dcStyle0
 72
     5
 11
-85.34999790254942
 21
-53.40000135
 31
0.0
100
AcDbText
  0
TEXT
  5
59B
330
1F
100
AcDbEntity
  8
Layer0054
 62
     2
100
AcDbText
 10
-130.4500034925494
 20
-46.90000124
 30
0.0
 40
2.7
  1
セラミック充填
 41
0.8474576289654043
  7
dcStyle0
 72
     5
 11
-109.4500031925494
 21
-46.90000124
 31
0.0
100
AcDbText
  0
TEXT
  5
59C
330
1F
100
AcDbEntity
  8
Layer0054
 62
     2
100
AcDbText
 10
-48.52499828254942
 20
-54.04000128
 30
0.0
 40
2.5
  1
エンドプレート
 41
0.8333333352380952
  7
dcStyle0
 72
     5
 11
-31.02499804254942
 21
-54.04000128
 31
0.0
100
AcDbText
  0
TEXT
  5
59D
330
1F
100
AcDbEntity
  8
Layer0054
 62
     2
100
AcDbText
 10
-49.02499829254942
 20
-58.04000134
 30
0.0
 40
2.5
  1
（斜めカット）
 41
0.8333333352380952
  7
dcStyle0
 72
     5
 11
-31.52499805254942
 21
-58.04000134
 31
0.0
100
AcDbText
  0
TEXT
  5
59E
330
1F
100
AcDbEntity
  8
Layer0054
 62
     2
100
AcDbText
 10
-21.22500616854304
 20
40.85000592480766
 30
0.0
 40
3.0
  1
 100 
 50
90.0000001836389
 41
0.8333333355555552
  7
dcStyle0
 72
     5
 11
-21.22500620860684
 21
53.35000612480766
 31
0.0
100
AcDbText
  0
TEXT
  5
59F
330
1F
100
AcDbEntity
  8
Layer0054
 62
     2
100
AcDbText
 10
-21.22500616854304
 20
28.35000592480765
 30
0.0
 40
3.0
  1
 100 
 50
90.0000001836389
 41
0.8333333355555557
  7
dcStyle0
 72
     5
 11
-21.22500620860684
 21
40.85000612480766
 31
0.0
100
AcDbText
  0
TEXT
  5
5A0
330
1F
100
AcDbEntity
  8
Layer0054
 62
     2
100
AcDbText
 10
-28.22500626854304
 20
9.600005454807654
 30
0.0
 40
3.0
  1
 600 
 50
90.0000001836389
 41
0.8333333355555554
  7
dcStyle0
 72
     5
 11
-28.22500630860683
 21
22.10000565480765
 31
0.0
100
AcDbText
  0
TEXT
  5
5A1
330
1F
100
AcDbEntity
  8
Layer0054
 62
     2
100
AcDbText
 10
10.27499406145696
 20
9.600005474807654
 30
0.0
 40
3.0
  1
 580 
 50
90.0000001836389
 41
0.8333333355555556
  7
dcStyle0
 72
     5
 11
10.27499402139317
 21
22.10000567480765
 31
0.0
100
AcDbText
  0
TEXT
  5
5A2
330
1F
100
AcDbEntity
  8
Layer0054
 62
     2
100
AcDbText
 10
15.27499413225824
 20
8.350005454807654
 30
0.0
 40
3.0
  1
嵩上材外寸
 50
90.0000001836389
 41
0.8333333355555557
  7
dcStyle0
 72
     5
 11
15.27499408418168
 21
23.35000569480766
 31
0.0
100
AcDbText
  0
TEXT
  5
5A3
330
1F
100
AcDbEntity
  8
Layer0054
 62
     2
100
AcDbText
 10
-15.10000629254942
 20
72.10000639
 30
0.0
 40
2.5
  1
□－
 41
0.6666666699999999
  7
dcStyle0
 72
     5
 11
-11.10000623254942
 21
72.10000639
 31
0.0
100
AcDbText
  0
TEXT
  5
5A4
330
1F
100
AcDbEntity
  8
Layer0054
 62
     2
100
AcDbText
 10
-11.10000623254942
 20
72.10000639
 30
0.0
 40
2.5
  1
3.2
 41
0.6000000031999999
  7
dcStyle0
 72
     5
 11
-6.600006172549421
 21
72.10000639
 31
0.0
100
AcDbText
  0
TEXT
  5
5A5
330
1F
100
AcDbEntity
  8
Layer0054
 62
     2
100
AcDbText
 10
-6.60000616254942
 20
72.10000639
 30
0.0
 40
2.5
  1
×
 41
0.6666666666666666
  7
dcStyle0
 72
     5
 11
-4.60000616254942
 21
72.10000639
 31
0.0
100
AcDbText
  0
TEXT
  5
5A6
330
1F
100
AcDbEntity
  8
Layer0054
 62
     2
100
AcDbText
 10
-6.60000616254942
 20
72.10000639
 30
0.0
 40
2.5
  1
 80 
 41
0.8000000023999999
  7
dcStyle0
 72
     5
 11
1.39999395745058
 21
72.10000639
 31
0.0
100
AcDbText
  0
TEXT
  5
5A7
330
1F
100
AcDbEntity
  8
Layer0054
 62
     2
100
AcDbText
 10
-0.6000060725494194
 20
72.10000639
 30
0.0
 40
2.5
  1
×
 41
0.6666666666666666
  7
dcStyle0
 72
     5
 11
1.399993927450581
 21
72.10000639
 31
0.0
100
AcDbText
  0
TEXT
  5
5A8
330
1F
100
AcDbEntity
  8
Layer0054
 62
     2
100
AcDbText
 10
-0.6000060725494194
 20
72.10000639
 30
0.0
 40
2.5
  1
 40 
 41
0.8000000023999999
  7
dcStyle0
 72
     5
 11
7.39999404745058
 21
72.10000639
 31
0.0
100
AcDbText
  0
TEXT
  5
5A9
330
1F
100
AcDbEntity
  8
Layer0054
 62
     2
100
AcDbText
 10
-24.72500623254942
 20
-36.15000173
 30
0.0
 40
3.0
  1
 44 
 41
0.8333333354166667
  7
dcStyle0
 72
     5
 11
-14.72500608254942
 21
-36.15000173
 31
0.0
100
AcDbText
  0
TEXT
  5
5AA
330
1F
100
AcDbEntity
  8
Layer0054
 62
     2
100
AcDbText
 10
-14.22500607254942
 20
-43.15000184
 30
0.0
 40
3.0
  1
 124 
 41
0.8333333355555556
  7
dcStyle0
 72
     5
 11
-1.725005872549419
 21
-43.15000184
 31
0.0
100
AcDbText
  0
TEXT
  5
5AB
330
1F
100
AcDbEntity
  8
Layer0054
 62
     2
100
AcDbText
 10
-97.84999811254941
 20
-88.90000163
 30
0.0
 40
3.0
  1
 480 
 41
0.8333333355555557
  7
dcStyle0
 72
     5
 11
-85.34999791254941
 21
-88.90000163
 31
0.0
100
AcDbText
  0
TEXT
  5
5AC
330
1F
100
AcDbEntity
  8
Layer0054
 62
     2
100
AcDbText
 10
25.40000308745058
 20
-78.24999925
 30
0.0
 40
3.0
  1
本体重量：
 41
0.6944444478395061
  7
dcStyle0
 72
     5
 11
37.90000328745058
 21
-78.24999925
 31
0.0
100
AcDbText
  0
TEXT
  5
5AD
330
1F
100
AcDbEntity
  8
Layer0054
 62
     2
100
AcDbText
 10
37.90000327745058
 20
-78.24999925
 30
0.0
 40
3.0
  1
 27.0
 41
0.666666670222222
  7
dcStyle0
 72
     5
 11
47.90000343745058
 21
-78.24999925
 31
0.0
100
AcDbText
  0
TEXT
  5
5AE
330
1F
100
AcDbEntity
  8
Layer0054
 62
     2
100
AcDbText
 10
47.90000342745058
 20
-78.24999925
 30
0.0
 40
3.0
  1
Kg
 41
0.6666666699999997
  7
dcStyle0
 72
     5
 11
51.90000348745058
 21
-78.24999925
 31
0.0
100
AcDbText
  0
TEXT
  5
5AF
330
1F
100
AcDbEntity
  8
Layer0054
 62
     2
100
AcDbText
 10
26.85000310745058
 20
-94.6499995
 30
0.0
 40
3.0
  1
岡本　
 41
0.8536585384889943
  7
dcStyle0
 72
     5
 11
37.35000326745057
 21
-94.6499995
 31
0.0
100
AcDbText
  0
TEXT
  5
5B0
330
1F
100
AcDbEntity
  8
Layer0054
 62
     2
100
AcDbText
 10
39.35000329745058
 20
-94.6499995
 30
0.0
 40
3.0
  1
戸田　
 41
0.8536585384889945
  7
dcStyle0
 72
     5
 11
49.85000345745058
 21
-94.6499995
 31
0.0
100
AcDbText
  0
LINE
  5
5B1
330
1F
100
AcDbEntity
  8
0
  6
Continuous
 62
     4
370
    25
100
AcDbLine
 10
-121.908333038787
 20
88.12084046751261
 30
0.0
 11
-120.4083330164353
 21
88.52084047347307
 31
0.0
  0
LINE
  5
5B2
330
1F
100
AcDbEntity
  8
0
  6
Continuous
 62
     4
370
    25
100
AcDbLine
 10
-120.4083330164353
 20
87.72084046155214
 30
0.0
 11
-121.908333038787
 21
88.12084046751261
 31
0.0
  0
LINE
  5
5B3
330
1F
100
AcDbEntity
  8
0
  6
Continuous
 62
     4
370
    25
100
AcDbLine
 10
-121.908333038787
 20
88.12084046751261
 30
0.0
 11
-91.90833259175224
 21
88.12084046751261
 31
0.0
  0
LINE
  5
5B4
330
1F
100
AcDbEntity
  8
0
  6
Continuous
 62
     4
370
    25
100
AcDbLine
 10
-91.90833259175224
 20
88.12084046751261
 30
0.0
 11
-93.40833261410398
 21
88.52084047347307
 31
0.0
  0
LINE
  5
5B5
330
1F
100
AcDbEntity
  8
0
  6
Continuous
 62
     4
370
    25
100
AcDbLine
 10
-93.40833261410398
 20
87.72084046155214
 30
0.0
 11
-91.90833259175224
 21
88.12084046751261
 31
0.0
  0
TEXT
  5
5B6
330
1F
100
AcDbEntity
  8
0
 62
     2
100
AcDbText
 10
-115.9083329532113
 20
88.82084047999291
 30
0.0
 40
3.0
  1
車両進行方向
 41
0.8333333352623458
  7
dcStyle0
 72
     5
 11
-97.90833270321133
 21
88.82084047999291
 31
0.0
100
AcDbText
  0
VIEWPORT
  5
79
330
1B
100
AcDbEntity
 67
     1
  8
0
100
AcDbViewport
 10
-4.19999735057354
 20
-11.69999826326963
 30
0.0
 40
1066.800015896559
 41
699.300010420382
 68
     1
 69
     1
 12
-4.19999735057354
 22
-11.69999826326963
 13
0.0
 23
0.0
 14
0.5
 24
0.5
 15
0.0
 25
0.0
 16
0.0
 26
0.0
 36
1.0
 17
0.0
 27
0.0
 37
0.0
 42
50.0
 43
0.0
 44
0.0
 45
699.300010420382
 50
0.0
 51
0.0
 72
   100
 90
   557152
  1

281
     0
 71
     1
 74
     0
110
0.0
120
0.0
130
0.0
111
1.0
121
0.0
131
0.0
112
0.0
122
1.0
132
0.0
 79
     0
146
0.0
  0
ENDSEC
  0
SECTION
  2
OBJECTS
  0
DICTIONARY
  5
C
330
0
100
AcDbDictionary
281
     1
  3
ACAD_GROUP
350
D
  3
ACAD_LAYOUT
350
1A
  3
ACAD_MATERIAL
350
3B
  3
ACAD_MLEADERSTYLE
350
5DB
  3
ACAD_MLINESTYLE
350
17
  3
ACAD_PLOTSETTINGS
350
19
  3
ACAD_PLOTSTYLENAME
350
E
  3
ACAD_SCALELIST
350
5B7
  3
ACAD_VISUALSTYLE
350
2A
  3
AcDbVariableDictionary
350
5D9
  0
DICTIONARY
  5
D
102
{ACAD_REACTORS
330
C
102
}
330
C
100
AcDbDictionary
281
     1
  0
DICTIONARY
  5
1A
102
{ACAD_REACTORS
330
C
102
}
330
C
100
AcDbDictionary
281
     1
  3
Layout1
350
1E
  3
Layout2
350
26
  3
Model
350
22
  0
DICTIONARY
  5
3B
102
{ACAD_REACTORS
330
C
102
}
330
C
100
AcDbDictionary
281
     1
  3
ByBlock
350
3D
  3
ByLayer
350
3C
  3
Global
350
3E
  0
DICTIONARY
  5
5DB
102
{ACAD_REACTORS
330
C
102
}
330
C
100
AcDbDictionary
281
     1
  0
DICTIONARY
  5
17
102
{ACAD_REACTORS
330
C
102
}
330
C
100
AcDbDictionary
281
     1
  3
Standard
350
18
  0
DICTIONARY
  5
19
102
{ACAD_REACTORS
330
C
102
}
330
C
100
AcDbDictionary
281
     1
  0
ACDBDICTIONARYWDFLT
  5
E
102
{ACAD_REACTORS
330
C
102
}
330
C
100
AcDbDictionary
281
     1
  3
Normal
350
F
100
AcDbDictionaryWithDefault
340
F
  0
DICTIONARY
  5
5B7
102
{ACAD_REACTORS
330
C
102
}
330
C
100
AcDbDictionary
281
     1
  3
A0
350
5B8
  3
A1
350
5B9
  3
A2
350
5BA
  3
A3
350
5BB
  3
A4
350
5BC
  3
A5
350
5BD
  3
A6
350
5BE
  3
A7
350
5BF
  3
A8
350
5C0
  3
A9
350
5C1
  3
B0
350
5C2
  3
B1
350
5C3
  3
B2
350
5C4
  3
B3
350
5C5
  3
B4
350
5C6
  3
B5
350
5C7
  3
B6
350
5C8
  3
B7
350
5C9
  3
B8
350
5CA
  3
B9
350
5CB
  3
C0
350
5CC
  3
C1
350
5CD
  3
C2
350
5CE
  3
C3
350
5CF
  3
C4
350
5D0
  3
C5
350
5D1
  3
C6
350
5D2
  3
C7
350
5D3
  3
C8
350
5D4
  3
C9
350
5D5
  3
D0
350
5D6
  3
D1
350
5D7
  3
D2
350
5D8
  0
DICTIONARY
  5
2A
102
{ACAD_REACTORS
330
C
102
}
330
C
100
AcDbDictionary
281
     1
  3
2dWireframe
350
2F
  3
3D Hidden
350
31
  3
3dWireframe
350
30
  3
Basic
350
32
  3
Brighten
350
36
  3
ColorChange
350
3A
  3
Conceptual
350
34
  3
Dim
350
35
  3
Facepattern
350
39
  3
Flat
350
2B
  3
FlatWithEdges
350
2C
  3
Gouraud
350
2D
  3
GouraudWithEdges
350
2E
  3
Linepattern
350
38
  3
Realistic
350
33
  3
Thicken
350
37
  0
DICTIONARY
  5
5D9
102
{ACAD_REACTORS
330
C
102
}
330
C
100
AcDbDictionary
281
     1
  3
CANNOSCALE
350
5DC
  3
DIMASSOC
350
5DD
  3
HIDETEXT
350
5DE
  0
LAYOUT
  5
1E
102
{ACAD_REACTORS
330
1A
102
}
330
1A
100
AcDbPlotSettings
  1

  2
none_device
  4

  6

 40
0.0
 41
0.0
 42
0.0
 43
0.0
 44
0.0
 45
0.0
 46
0.0
 47
0.0
 48
0.0
 49
0.0
140
0.0
141
0.0
142
1.0
143
1.0
 70
   688
 72
     0
 73
     0
 74
     5
  7

 75
    16
147
1.0
148
0.0
149
0.0
100
AcDbLayout
  1
Layout1
 70
     0
 71
     1
 10
0.0
 20
0.0
 11
12.0
 21
9.0
 12
0.0
 22
0.0
 32
0.0
 14
1.000000000000000E+20
 24
1.000000000000000E+20
 34
1.000000000000000E+20
 15
-1.000000000000000E+20
 25
-1.000000000000000E+20
 35
-1.000000000000000E+20
146
0.0
 13
0.0
 23
0.0
 33
0.0
 16
1.0
 26
0.0
 36
0.0
 17
0.0
 27
1.0
 37
0.0
 76
     0
330
1B
331
79
  0
LAYOUT
  5
26
102
{ACAD_REACTORS
330
1A
102
}
330
1A
100
AcDbPlotSettings
  1

  2
none_device
  4

  6

 40
0.0
 41
0.0
 42
0.0
 43
0.0
 44
0.0
 45
0.0
 46
0.0
 47
0.0
 48
0.0
 49
0.0
140
0.0
141
0.0
142
1.0
143
1.0
 70
   688
 72
     0
 73
     0
 74
     5
  7

 75
    16
147
1.0
148
0.0
149
0.0
100
AcDbLayout
  1
Layout2
 70
     1
 71
     2
 10
0.0
 20
0.0
 11
0.0
 21
0.0
 12
0.0
 22
0.0
 32
0.0
 14
0.0
 24
0.0
 34
0.0
 15
0.0
 25
0.0
 35
0.0
146
0.0
 13
0.0
 23
0.0
 33
0.0
 16
1.0
 26
0.0
 36
0.0
 17
0.0
 27
1.0
 37
0.0
 76
     0
330
23
  0
LAYOUT
  5
22
102
{ACAD_REACTORS
330
1A
102
}
330
1A
100
AcDbPlotSettings
  1

  2
none_device
  4

  6

 40
0.0
 41
0.0
 42
0.0
 43
0.0
 44
0.0
 45
0.0
 46
0.0
 47
0.0
 48
0.0
 49
0.0
140
0.0
141
0.0
142
1.0
143
1.0
 70
  1712
 72
     0
 73
     0
 74
     0
  7

 75
     0
147
1.0
148
0.0
149
0.0
100
AcDbLayout
  1
Model
 70
     1
 71
     0
 10
-182.0
 20
-128.5
 11
182.0
 21
128.5
 12
0.0
 22
0.0
 32
0.0
 14
-537.6000052988529
 24
-361.3500034734607
 34
0.0
 15
529.2000105977058
 25
337.9500069469214
 35
0.0
146
0.0
 13
0.0
 23
0.0
 33
0.0
 16
1.0
 26
0.0
 36
0.0
 17
0.0
 27
1.0
 37
0.0
 76
     0
330
1F
331
29
  0
MATERIAL
  5
3D
102
{ACAD_REACTORS
330
3B
102
}
102
{ACAD_XDICTIONARY
360
601
102
}
330
3B
100
AcDbMaterial
  1
ByBlock
  0
MATERIAL
  5
3C
102
{ACAD_REACTORS
330
3B
102
}
102
{ACAD_XDICTIONARY
360
5FF
102
}
330
3B
100
AcDbMaterial
  1
ByLayer
  0
MATERIAL
  5
3E
102
{ACAD_REACTORS
330
3B
102
}
102
{ACAD_XDICTIONARY
360
603
102
}
330
3B
100
AcDbMaterial
  1
Global
  0
MLINESTYLE
  5
18
102
{ACAD_REACTORS
330
17
102
}
330
17
100
AcDbMlineStyle
  2
Standard
 70
     0
  3

 62
   256
 51
90.0
 52
90.0
 71
     2
 49
0.5
 62
   256
  6
BYLAYER
 49
-0.5
 62
   256
  6
BYLAYER
  0
ACDBPLACEHOLDER
  5
F
102
{ACAD_REACTORS
330
E
102
}
330
E
  0
SCALE
  5
5B8
102
{ACAD_REACTORS
330
5B7
102
}
330
5B7
100
AcDbScale
 70
     0
300
1:1
140
1.0
141
1.0
290
     1
  0
SCALE
  5
5B9
102
{ACAD_REACTORS
330
5B7
102
}
330
5B7
100
AcDbScale
 70
     0
300
1:2
140
1.0
141
2.0
290
     0
  0
SCALE
  5
5BA
102
{ACAD_REACTORS
330
5B7
102
}
330
5B7
100
AcDbScale
 70
     0
300
1:4
140
1.0
141
4.0
290
     0
  0
SCALE
  5
5BB
102
{ACAD_REACTORS
330
5B7
102
}
330
5B7
100
AcDbScale
 70
     0
300
1:5
140
1.0
141
5.0
290
     0
  0
SCALE
  5
5BC
102
{ACAD_REACTORS
330
5B7
102
}
330
5B7
100
AcDbScale
 70
     0
300
1:8
140
1.0
141
8.0
290
     0
  0
SCALE
  5
5BD
102
{ACAD_REACTORS
330
5B7
102
}
330
5B7
100
AcDbScale
 70
     0
300
1:10
140
1.0
141
10.0
290
     0
  0
SCALE
  5
5BE
102
{ACAD_REACTORS
330
5B7
102
}
330
5B7
100
AcDbScale
 70
     0
300
1:16
140
1.0
141
16.0
290
     0
  0
SCALE
  5
5BF
102
{ACAD_REACTORS
330
5B7
102
}
330
5B7
100
AcDbScale
 70
     0
300
1:20
140
1.0
141
20.0
290
     0
  0
SCALE
  5
5C0
102
{ACAD_REACTORS
330
5B7
102
}
330
5B7
100
AcDbScale
 70
     0
300
1:30
140
1.0
141
30.0
290
     0
  0
SCALE
  5
5C1
102
{ACAD_REACTORS
330
5B7
102
}
330
5B7
100
AcDbScale
 70
     0
300
1:40
140
1.0
141
40.0
290
     0
  0
SCALE
  5
5C2
102
{ACAD_REACTORS
330
5B7
102
}
330
5B7
100
AcDbScale
 70
     0
300
1:50
140
1.0
141
50.0
290
     0
  0
SCALE
  5
5C3
102
{ACAD_REACTORS
330
5B7
102
}
330
5B7
100
AcDbScale
 70
     0
300
1:100
140
1.0
141
100.0
290
     0
  0
SCALE
  5
5C4
102
{ACAD_REACTORS
330
5B7
102
}
330
5B7
100
AcDbScale
 70
     0
300
2:1
140
2.0
141
1.0
290
     0
  0
SCALE
  5
5C5
102
{ACAD_REACTORS
330
5B7
102
}
330
5B7
100
AcDbScale
 70
     0
300
4:1
140
4.0
141
1.0
290
     0
  0
SCALE
  5
5C6
102
{ACAD_REACTORS
330
5B7
102
}
330
5B7
100
AcDbScale
 70
     0
300
8:1
140
8.0
141
1.0
290
     0
  0
SCALE
  5
5C7
102
{ACAD_REACTORS
330
5B7
102
}
330
5B7
100
AcDbScale
 70
     0
300
10:1
140
10.0
141
1.0
290
     0
  0
SCALE
  5
5C8
102
{ACAD_REACTORS
330
5B7
102
}
330
5B7
100
AcDbScale
 70
     0
300
100:1
140
100.0
141
1.0
290
     0
  0
SCALE
  5
5C9
102
{ACAD_REACTORS
330
5B7
102
}
330
5B7
100
AcDbScale
 70
     0
300
1/128" = 1'-0"
140
0.0078125
141
12.0
290
     0
  0
SCALE
  5
5CA
102
{ACAD_REACTORS
330
5B7
102
}
330
5B7
100
AcDbScale
 70
     0
300
1/64" = 1'-0"
140
0.015625
141
12.0
290
     0
  0
SCALE
  5
5CB
102
{ACAD_REACTORS
330
5B7
102
}
330
5B7
100
AcDbScale
 70
     0
300
1/32" = 1'-0"
140
0.03125
141
12.0
290
     0
  0
SCALE
  5
5CC
102
{ACAD_REACTORS
330
5B7
102
}
330
5B7
100
AcDbScale
 70
     0
300
1/16" = 1'-0"
140
0.0625
141
12.0
290
     0
  0
SCALE
  5
5CD
102
{ACAD_REACTORS
330
5B7
102
}
330
5B7
100
AcDbScale
 70
     0
300
3/32" = 1'-0"
140
0.09375
141
12.0
290
     0
  0
SCALE
  5
5CE
102
{ACAD_REACTORS
330
5B7
102
}
330
5B7
100
AcDbScale
 70
     0
300
1/8" = 1'-0"
140
0.125
141
12.0
290
     0
  0
SCALE
  5
5CF
102
{ACAD_REACTORS
330
5B7
102
}
330
5B7
100
AcDbScale
 70
     0
300
3/16" = 1'-0"
140
0.1875
141
12.0
290
     0
  0
SCALE
  5
5D0
102
{ACAD_REACTORS
330
5B7
102
}
330
5B7
100
AcDbScale
 70
     0
300
1/4" = 1'-0"
140
0.25
141
12.0
290
     0
  0
SCALE
  5
5D1
102
{ACAD_REACTORS
330
5B7
102
}
330
5B7
100
AcDbScale
 70
     0
300
3/8" = 1'-0"
140
0.375
141
12.0
290
     0
  0
SCALE
  5
5D2
102
{ACAD_REACTORS
330
5B7
102
}
330
5B7
100
AcDbScale
 70
     0
300
1/2" = 1'-0"
140
0.5
141
12.0
290
     0
  0
SCALE
  5
5D3
102
{ACAD_REACTORS
330
5B7
102
}
330
5B7
100
AcDbScale
 70
     0
300
3/4" = 1'-0"
140
0.75
141
12.0
290
     0
  0
SCALE
  5
5D4
102
{ACAD_REACTORS
330
5B7
102
}
330
5B7
100
AcDbScale
 70
     0
300
1" = 1'-0"
140
1.0
141
12.0
290
     0
  0
SCALE
  5
5D5
102
{ACAD_REACTORS
330
5B7
102
}
330
5B7
100
AcDbScale
 70
     0
300
1-1/2" = 1'-0"
140
1.5
141
12.0
290
     0
  0
SCALE
  5
5D6
102
{ACAD_REACTORS
330
5B7
102
}
330
5B7
100
AcDbScale
 70
     0
300
3" = 1'-0"
140
3.0
141
12.0
290
     0
  0
SCALE
  5
5D7
102
{ACAD_REACTORS
330
5B7
102
}
330
5B7
100
AcDbScale
 70
     0
300
6" = 1'-0"
140
6.0
141
12.0
290
     0
  0
SCALE
  5
5D8
102
{ACAD_REACTORS
330
5B7
102
}
330
5B7
100
AcDbScale
 70
     0
300
1'-0" = 1'-0"
140
12.0
141
12.0
290
     0
  0
VISUALSTYLE
  5
2F
102
{ACAD_REACTORS
330
2A
102
}
102
{ACAD_XDICTIONARY
360
5E7
102
}
330
2A
100
AcDbVisualStyle
  2
2dWireframe
 70
     4
 71
     0
 72
     2
 73
     0
 90
        0
 40
-0.6
 41
-30.0
 62
     5
 63
     7
 74
     1
 91
        4
 64
     7
 65
   257
 75
     1
175
     1
 42
1.0
 92
        0
 66
   257
 43
1.0
 76
     1
 77
     6
 78
     2
 67
     7
 79
     5
170
     0
171
     0
290
     0
174
     0
 93
        1
 44
0.0
173
     0
291
     0
 45
0.0
1001
ACAD
1000
AcDbSavedByObjectVersion
1070
     0
  0
VISUALSTYLE
  5
31
102
{ACAD_REACTORS
330
2A
102
}
102
{ACAD_XDICTIONARY
360
5EB
102
}
330
2A
100
AcDbVisualStyle
  2
3D Hidden
 70
     6
 71
     1
 72
     2
 73
     2
 90
        0
 40
-0.6
 41
-30.0
 62
     5
 63
     7
 74
     2
 91
        2
 64
     7
 65
   257
 75
     2
175
     1
 42
40.0
 92
        0
 66
   257
 43
1.0
 76
     1
 77
     6
 78
     2
 67
     7
 79
     3
170
     0
171
     0
290
     0
174
     0
 93
        1
 44
0.0
173
     0
291
     0
 45
0.0
1001
ACAD
1000
AcDbSavedByObjectVersion
1070
     0
  0
VISUALSTYLE
  5
30
102
{ACAD_REACTORS
330
2A
102
}
102
{ACAD_XDICTIONARY
360
5E9
102
}
330
2A
100
AcDbVisualStyle
  2
3dWireframe
 70
     5
 71
     0
 72
     2
 73
     0
 90
        0
 40
-0.6
 41
-30.0
 62
     5
 63
     7
 74
     1
 91
        4
 64
     7
 65
   257
 75
     1
175
     1
 42
1.0
 92
        0
 66
   257
 43
1.0
 76
     1
 77
     6
 78
     2
 67
     7
 79
     5
170
     0
171
     0
290
     0
174
     0
 93
        1
 44
0.0
173
     0
291
     0
 45
0.0
1001
ACAD
1000
AcDbSavedByObjectVersion
1070
     0
  0
VISUALSTYLE
  5
32
102
{ACAD_REACTORS
330
2A
102
}
102
{ACAD_XDICTIONARY
360
5ED
102
}
330
2A
100
AcDbVisualStyle
  2
Basic
 70
     7
 71
     1
 72
     0
 73
     1
 90
        0
 40
-0.6
 41
-30.0
 62
     5
 63
     7
 74
     0
 91
        4
 64
     7
 65
   257
 75
     1
175
     1
 42
1.0
 92
        8
 66
     7
 43
1.0
 76
     1
 77
     6
 78
     2
 67
     7
 79
     5
170
     0
171
     0
290
     0
174
     0
 93
        1
 44
0.0
173
     0
291
     1
 45
0.0
1001
ACAD
1000
AcDbSavedByObjectVersion
1070
     0
  0
VISUALSTYLE
  5
36
102
{ACAD_REACTORS
330
2A
102
}
102
{ACAD_XDICTIONARY
360
5F5
102
}
330
2A
100
AcDbVisualStyle
  2
Brighten
 70
    12
 71
     2
 72
     2
 73
     0
 90
        0
 40
-0.6
 41
-30.0
 62
     5
 63
     7
 74
     1
 91
        4
 64
     7
 65
   257
 75
     1
175
     1
 42
1.0
 92
        8
 66
     7
 43
1.0
 76
     1
 77
     6
 78
     2
 67
     7
 79
     5
170
     0
171
     0
290
     0
174
     0
 93
        1
 44
50.0
173
     0
291
     1
 45
0.0
1001
ACAD
1000
AcDbSavedByObjectVersion
1070
     0
  0
VISUALSTYLE
  5
3A
102
{ACAD_REACTORS
330
2A
102
}
102
{ACAD_XDICTIONARY
360
5FD
102
}
330
2A
100
AcDbVisualStyle
  2
ColorChange
 70
    16
 71
     2
 72
     2
 73
     3
 90
        0
 40
-0.6
 41
-30.0
 62
     5
 63
     8
 74
     1
 91
        4
 64
     7
 65
   257
 75
     1
175
     1
 42
1.0
 92
        8
 66
     8
 43
1.0
 76
     1
 77
     6
 78
     2
 67
     7
 79
     5
170
     0
171
     0
290
     0
174
     0
 93
        1
 44
0.0
173
     0
291
     1
 45
0.0
1001
ACAD
1000
AcDbSavedByObjectVersion
1070
     0
  0
VISUALSTYLE
  5
34
102
{ACAD_REACTORS
330
2A
102
}
102
{ACAD_XDICTIONARY
360
5F1
102
}
330
2A
100
AcDbVisualStyle
  2
Conceptual
 70
     9
 71
     3
 72
     2
 73
     0
 90
        0
 40
-0.6
 41
-30.0
 62
     5
 63
     7
 74
     2
 91
        2
 64
     7
 65
   257
 75
     1
175
     1
 42
40.0
 92
        8
 66
     7
 43
1.0
 76
     1
 77
     6
 78
     2
 67
     7
 79
     3
170
     0
171
     0
290
     0
174
     0
 93
        1
 44
0.0
173
     0
291
     0
 45
0.0
1001
ACAD
1000
AcDbSavedByObjectVersion
1070
     0
  0
VISUALSTYLE
  5
35
102
{ACAD_REACTORS
330
2A
102
}
102
{ACAD_XDICTIONARY
360
5F3
102
}
330
2A
100
AcDbVisualStyle
  2
Dim
 70
    11
 71
     2
 72
     2
 73
     0
 90
        0
 40
-0.6
 41
-30.0
 62
     5
 63
     7
 74
     1
 91
        4
 64
     7
 65
   257
 75
     1
175
     1
 42
1.0
 92
        8
 66
     7
 43
1.0
 76
     1
 77
     6
 78
     2
 67
     7
 79
     5
170
     0
171
     0
290
     0
174
     0
 93
        1
 44
-50.0
173
     0
291
     1
 45
0.0
1001
ACAD
1000
AcDbSavedByObjectVersion
1070
     0
  0
VISUALSTYLE
  5
39
102
{ACAD_REACTORS
330
2A
102
}
102
{ACAD_XDICTIONARY
360
5FB
102
}
330
2A
100
AcDbVisualStyle
  2
Facepattern
 70
    15
 71
     2
 72
     2
 73
     0
 90
        0
 40
-0.6
 41
-30.0
 62
     5
 63
     7
 74
     1
 91
        4
 64
     7
 65
   257
 75
     1
175
     1
 42
1.0
 92
        8
 66
     7
 43
1.0
 76
     1
 77
     6
 78
     2
 67
     7
 79
     5
170
     0
171
     0
290
     0
174
     0
 93
        1
 44
0.0
173
     0
291
     1
 45
0.0
1001
ACAD
1000
AcDbSavedByObjectVersion
1070
     0
  0
VISUALSTYLE
  5
2B
102
{ACAD_REACTORS
330
2A
102
}
102
{ACAD_XDICTIONARY
360
5DF
102
}
330
2A
100
AcDbVisualStyle
  2
Flat
 70
     0
 71
     2
 72
     1
 73
     1
 90
        2
 40
-0.6
 41
30.0
 62
     5
 63
     7
 74
     0
 91
        4
 64
     7
 65
   257
 75
     1
175
     1
 42
1.0
 92
        8
 66
     7
 43
1.0
 76
     1
 77
     6
 78
     2
 67
     7
 79
     5
170
     0
171
     0
290
     0
174
     0
 93
       13
 44
0.0
173
     0
291
     1
 45
0.0
1001
ACAD
1000
AcDbSavedByObjectVersion
1070
     0
  0
VISUALSTYLE
  5
2C
102
{ACAD_REACTORS
330
2A
102
}
102
{ACAD_XDICTIONARY
360
5E1
102
}
330
2A
100
AcDbVisualStyle
  2
FlatWithEdges
 70
     1
 71
     2
 72
     1
 73
     1
 90
        2
 40
-0.6
 41
30.0
 62
     5
 63
     7
 74
     1
 91
        4
 64
     7
 65
   257
 75
     1
175
     1
 42
1.0
 92
        0
 66
   257
 43
1.0
 76
     1
 77
     6
 78
     2
 67
     7
 79
     5
170
     0
171
     0
290
     0
174
     0
 93
       13
 44
0.0
173
     0
291
     1
 45
0.0
1001
ACAD
1000
AcDbSavedByObjectVersion
1070
     0
  0
VISUALSTYLE
  5
2D
102
{ACAD_REACTORS
330
2A
102
}
102
{ACAD_XDICTIONARY
360
5E3
102
}
330
2A
100
AcDbVisualStyle
  2
Gouraud
 70
     2
 71
     2
 72
     2
 73
     1
 90
        2
 40
-0.6
 41
30.0
 62
     5
 63
     7
 74
     0
 91
        4
 64
     7
 65
   257
 75
     1
175
     1
 42
1.0
 92
        0
 66
     7
 43
1.0
 76
     1
 77
     6
 78
     2
 67
     7
 79
     5
170
     0
171
     0
290
     0
174
     0
 93
       13
 44
0.0
173
     0
291
     1
 45
0.0
1001
ACAD
1000
AcDbSavedByObjectVersion
1070
     0
  0
VISUALSTYLE
  5
2E
102
{ACAD_REACTORS
330
2A
102
}
102
{ACAD_XDICTIONARY
360
5E5
102
}
330
2A
100
AcDbVisualStyle
  2
GouraudWithEdges
 70
     3
 71
     2
 72
     2
 73
     1
 90
        2
 40
-0.6
 41
30.0
 62
     5
 63
     7
 74
     1
 91
        4
 64
     7
 65
   257
 75
     1
175
     1
 42
1.0
 92
        0
 66
   257
 43
1.0
 76
     1
 77
     6
 78
     2
 67
     7
 79
     5
170
     0
171
     0
290
     0
174
     0
 93
       13
 44
0.0
173
     0
291
     1
 45
0.0
1001
ACAD
1000
AcDbSavedByObjectVersion
1070
     0
  0
VISUALSTYLE
  5
38
102
{ACAD_REACTORS
330
2A
102
}
102
{ACAD_XDICTIONARY
360
5F9
102
}
330
2A
100
AcDbVisualStyle
  2
Linepattern
 70
    14
 71
     2
 72
     2
 73
     0
 90
        0
 40
-0.6
 41
-30.0
 62
     5
 63
     7
 74
     1
 91
        4
 64
     7
 65
   257
 75
     7
175
     7
 42
1.0
 92
        8
 66
     7
 43
1.0
 76
     1
 77
     6
 78
     2
 67
     7
 79
     5
170
     0
171
     0
290
     0
174
     0
 93
        1
 44
0.0
173
     0
291
     1
 45
0.0
1001
ACAD
1000
AcDbSavedByObjectVersion
1070
     0
  0
VISUALSTYLE
  5
33
102
{ACAD_REACTORS
330
2A
102
}
102
{ACAD_XDICTIONARY
360
5EF
102
}
330
2A
100
AcDbVisualStyle
  2
Realistic
 70
     8
 71
     2
 72
     2
 73
     0
 90
        0
 40
-0.6
 41
-30.0
 62
     5
 63
     7
 74
     1
 91
        0
 64
     7
 65
   257
 75
     1
175
     1
 42
1.0
 92
        8
 66
     8
 43
1.0
 76
     1
 77
     6
 78
     2
 67
     7
 79
     5
170
     0
171
     0
290
     0
174
     0
 93
       13
 44
0.0
173
     0
291
     0
 45
0.0
1001
ACAD
1000
AcDbSavedByObjectVersion
1070
     0
  0
VISUALSTYLE
  5
37
102
{ACAD_REACTORS
330
2A
102
}
102
{ACAD_XDICTIONARY
360
5F7
102
}
330
2A
100
AcDbVisualStyle
  2
Thicken
 70
    13
 71
     2
 72
     2
 73
     0
 90
        0
 40
-0.6
 41
-30.0
 62
     5
 63
     7
 74
     1
 91
        4
 64
     7
 65
   257
 75
     1
175
     1
 42
1.0
 92
       12
 66
     7
 43
1.0
 76
     1
 77
     6
 78
     2
 67
     7
 79
     5
170
     0
171
     0
290
     0
174
     0
 93
        1
 44
0.0
173
     0
291
     1
 45
0.0
1001
ACAD
1000
AcDbSavedByObjectVersion
1070
     0
  0
DICTIONARYVAR
  5
5DC
102
{ACAD_REACTORS
330
5D9
102
}
330
5D9
100
DictionaryVariables
280
     0
  1
1:1
  0
DICTIONARYVAR
  5
5DD
102
{ACAD_REACTORS
330
5D9
102
}
330
5D9
100
DictionaryVariables
280
     0
  1
2
  0
DICTIONARYVAR
  5
5DE
102
{ACAD_REACTORS
330
5D9
102
}
330
5D9
100
DictionaryVariables
280
     0
  1
1
  0
DICTIONARY
  5
601
330
3D
100
AcDbDictionary
280
     1
281
     1
  3
ACAD_XREC_ROUNDTRIP
360
602
  0
DICTIONARY
  5
5FF
330
3C
100
AcDbDictionary
280
     1
281
     1
  3
ACAD_XREC_ROUNDTRIP
360
600
  0
DICTIONARY
  5
603
330
3E
100
AcDbDictionary
280
     1
281
     1
  3
ACAD_XREC_ROUNDTRIP
360
604
  0
DICTIONARY
  5
5E7
330
2F
100
AcDbDictionary
280
     1
281
     1
  3
ACAD_XREC_ROUNDTRIP
360
5E8
  0
DICTIONARY
  5
5EB
330
31
100
AcDbDictionary
280
     1
281
     1
  3
ACAD_XREC_ROUNDTRIP
360
5EC
  0
DICTIONARY
  5
5E9
330
30
100
AcDbDictionary
280
     1
281
     1
  3
ACAD_XREC_ROUNDTRIP
360
5EA
  0
DICTIONARY
  5
5ED
330
32
100
AcDbDictionary
280
     1
281
     1
  3
ACAD_XREC_ROUNDTRIP
360
5EE
  0
DICTIONARY
  5
5F5
330
36
100
AcDbDictionary
280
     1
281
     1
  3
ACAD_XREC_ROUNDTRIP
360
5F6
  0
DICTIONARY
  5
5FD
330
3A
100
AcDbDictionary
280
     1
281
     1
  3
ACAD_XREC_ROUNDTRIP
360
5FE
  0
DICTIONARY
  5
5F1
330
34
100
AcDbDictionary
280
     1
281
     1
  3
ACAD_XREC_ROUNDTRIP
360
5F2
  0
DICTIONARY
  5
5F3
330
35
100
AcDbDictionary
280
     1
281
     1
  3
ACAD_XREC_ROUNDTRIP
360
5F4
  0
DICTIONARY
  5
5FB
330
39
100
AcDbDictionary
280
     1
281
     1
  3
ACAD_XREC_ROUNDTRIP
360
5FC
  0
DICTIONARY
  5
5DF
330
2B
100
AcDbDictionary
280
     1
281
     1
  3
ACAD_XREC_ROUNDTRIP
360
5E0
  0
DICTIONARY
  5
5E1
330
2C
100
AcDbDictionary
280
     1
281
     1
  3
ACAD_XREC_ROUNDTRIP
360
5E2
  0
DICTIONARY
  5
5E3
330
2D
100
AcDbDictionary
280
     1
281
     1
  3
ACAD_XREC_ROUNDTRIP
360
5E4
  0
DICTIONARY
  5
5E5
330
2E
100
AcDbDictionary
280
     1
281
     1
  3
ACAD_XREC_ROUNDTRIP
360
5E6
  0
DICTIONARY
  5
5F9
330
38
100
AcDbDictionary
280
     1
281
     1
  3
ACAD_XREC_ROUNDTRIP
360
5FA
  0
DICTIONARY
  5
5EF
330
33
100
AcDbDictionary
280
     1
281
     1
  3
ACAD_XREC_ROUNDTRIP
360
5F0
  0
DICTIONARY
  5
5F7
330
37
100
AcDbDictionary
280
     1
281
     1
  3
ACAD_XREC_ROUNDTRIP
360
5F8
  0
XRECORD
  5
602
102
{ACAD_REACTORS
330
601
102
}
330
601
100
AcDbXrecord
280
     1
102
MATERIAL
148
0.0
149
0.0
149
0.0
 93
        0
 94
      127
282
     0
 72
     1
 77
     1
171
     1
175
     1
179
     1
273
     0
  0
XRECORD
  5
600
102
{ACAD_REACTORS
330
5FF
102
}
330
5FF
100
AcDbXrecord
280
     1
102
MATERIAL
148
0.0
149
0.0
149
0.0
 93
        0
 94
      127
282
     0
 72
     1
 77
     1
171
     1
175
     1
179
     1
273
     0
  0
XRECORD
  5
604
102
{ACAD_REACTORS
330
603
102
}
330
603
100
AcDbXrecord
280
     1
102
MATERIAL
148
0.0
149
0.0
149
0.0
 93
        0
 94
      127
282
     0
 72
     1
 77
     1
171
     1
175
     1
179
     1
273
     0
  0
XRECORD
  5
5E8
102
{ACAD_REACTORS
330
5E7
102
}
330
5E7
100
AcDbXrecord
280
     1
102
RTVSPropertyOp0
 70
     1
102
RTVSPropertyOp1
 70
     1
102
RTVSPropertyOp2
 70
     1
102
RTVSPropertyOp3
 70
     1
102
RTVSPropertyOp4
 70
     1
102
RTVSPropertyOp5
 70
     1
102
RTVSPropertyOp6
 70
     1
102
RTVSPropertyOp7
 70
     1
102
RTVSPropertyOp8
 70
     1
102
RTVSPropertyOp9
 70
     1
102
RTVSPropertyOp10
 70
     1
102
RTVSPropertyOp11
 70
     1
102
RTVSPropertyOp12
 70
     1
102
RTVSPropertyOp13
 70
     1
102
RTVSPropertyOp14
 70
     1
102
RTVSPropertyOp15
 70
     1
102
RTVSPropertyOp16
 70
     1
102
RTVSPropertyOp17
 70
     1
102
RTVSPropertyOp18
 70
     1
102
RTVSPropertyOp19
 70
     1
102
RTVSPropertyOp20
 70
     1
102
RTVSPropertyOp21
 70
     1
102
RTVSPropertyOp22
 70
     1
102
RTVSPropertyOp23
 70
     1
102
RTVSPropertyOp24
 70
     1
102
RTVSPropertyOp25
 70
     1
102
RTVSPropertyOp26
 70
     1
102
RTVSPropertyOp27
 70
     1
  0
XRECORD
  5
5EC
102
{ACAD_REACTORS
330
5EB
102
}
330
5EB
100
AcDbXrecord
280
     1
102
RTVSPropertyOp0
 70
     1
102
RTVSPropertyOp1
 70
     1
102
RTVSPropertyOp2
 70
     1
102
RTVSPropertyOp3
 70
     1
102
RTVSPropertyOp4
 70
     1
102
RTVSPropertyOp5
 70
     1
102
RTVSPropertyOp6
 70
     1
102
RTVSPropertyOp7
 70
     1
102
RTVSPropertyOp8
 70
     1
102
RTVSPropertyOp9
 70
     1
102
RTVSPropertyOp10
 70
     1
102
RTVSPropertyOp11
 70
     1
102
RTVSPropertyOp12
 70
     1
102
RTVSPropertyOp13
 70
     1
102
RTVSPropertyOp14
 70
     1
102
RTVSPropertyOp15
 70
     1
102
RTVSPropertyOp16
 70
     1
102
RTVSPropertyOp17
 70
     1
102
RTVSPropertyOp18
 70
     1
102
RTVSPropertyOp19
 70
     1
102
RTVSPropertyOp20
 70
     1
102
RTVSPropertyOp21
 70
     1
102
RTVSPropertyOp22
 70
     1
102
RTVSPropertyOp23
 70
     1
102
RTVSPropertyOp24
 70
     1
102
RTVSPropertyOp25
 70
     1
102
RTVSPropertyOp26
 70
     1
102
RTVSPropertyOp27
 70
     1
  0
XRECORD
  5
5EA
102
{ACAD_REACTORS
330
5E9
102
}
330
5E9
100
AcDbXrecord
280
     1
102
RTVSPropertyOp0
 70
     1
102
RTVSPropertyOp1
 70
     1
102
RTVSPropertyOp2
 70
     1
102
RTVSPropertyOp3
 70
     1
102
RTVSPropertyOp4
 70
     1
102
RTVSPropertyOp5
 70
     1
102
RTVSPropertyOp6
 70
     1
102
RTVSPropertyOp7
 70
     1
102
RTVSPropertyOp8
 70
     1
102
RTVSPropertyOp9
 70
     1
102
RTVSPropertyOp10
 70
     1
102
RTVSPropertyOp11
 70
     1
102
RTVSPropertyOp12
 70
     1
102
RTVSPropertyOp13
 70
     1
102
RTVSPropertyOp14
 70
     1
102
RTVSPropertyOp15
 70
     1
102
RTVSPropertyOp16
 70
     1
102
RTVSPropertyOp17
 70
     1
102
RTVSPropertyOp18
 70
     1
102
RTVSPropertyOp19
 70
     1
102
RTVSPropertyOp20
 70
     1
102
RTVSPropertyOp21
 70
     1
102
RTVSPropertyOp22
 70
     1
102
RTVSPropertyOp23
 70
     1
102
RTVSPropertyOp24
 70
     1
102
RTVSPropertyOp25
 70
     1
102
RTVSPropertyOp26
 70
     1
102
RTVSPropertyOp27
 70
     1
  0
XRECORD
  5
5EE
102
{ACAD_REACTORS
330
5ED
102
}
330
5ED
100
AcDbXrecord
280
     1
102
RTVSPropertyOp0
 70
     1
102
RTVSPropertyOp1
 70
     1
102
RTVSPropertyOp2
 70
     1
102
RTVSPropertyOp3
 70
     1
102
RTVSPropertyOp4
 70
     1
102
RTVSPropertyOp5
 70
     1
102
RTVSPropertyOp6
 70
     1
102
RTVSPropertyOp7
 70
     1
102
RTVSPropertyOp8
 70
     1
102
RTVSPropertyOp9
 70
     1
102
RTVSPropertyOp10
 70
     1
102
RTVSPropertyOp11
 70
     1
102
RTVSPropertyOp12
 70
     1
102
RTVSPropertyOp13
 70
     1
102
RTVSPropertyOp14
 70
     1
102
RTVSPropertyOp15
 70
     1
102
RTVSPropertyOp16
 70
     1
102
RTVSPropertyOp17
 70
     1
102
RTVSPropertyOp18
 70
     1
102
RTVSPropertyOp19
 70
     1
102
RTVSPropertyOp20
 70
     1
102
RTVSPropertyOp21
 70
     1
102
RTVSPropertyOp22
 70
     1
102
RTVSPropertyOp23
 70
     1
102
RTVSPropertyOp24
 70
     1
102
RTVSPropertyOp25
 70
     1
102
RTVSPropertyOp26
 70
     1
102
RTVSPropertyOp27
 70
     1
  0
XRECORD
  5
5F6
102
{ACAD_REACTORS
330
5F5
102
}
330
5F5
100
AcDbXrecord
280
     1
102
RTVSPropertyOp0
 70
     1
102
RTVSPropertyOp1
 70
     1
102
RTVSPropertyOp2
 70
     1
102
RTVSPropertyOp3
 70
     1
102
RTVSPropertyOp4
 70
     1
102
RTVSPropertyOp5
 70
     1
102
RTVSPropertyOp6
 70
     1
102
RTVSPropertyOp7
 70
     1
102
RTVSPropertyOp8
 70
     1
102
RTVSPropertyOp9
 70
     1
102
RTVSPropertyOp10
 70
     1
102
RTVSPropertyOp11
 70
     1
102
RTVSPropertyOp12
 70
     1
102
RTVSPropertyOp13
 70
     1
102
RTVSPropertyOp14
 70
     1
102
RTVSPropertyOp15
 70
     1
102
RTVSPropertyOp16
 70
     1
102
RTVSPropertyOp17
 70
     1
102
RTVSPropertyOp18
 70
     1
102
RTVSPropertyOp19
 70
     1
102
RTVSPropertyOp20
 70
     1
102
RTVSPropertyOp21
 70
     1
102
RTVSPropertyOp22
 70
     1
102
RTVSPropertyOp23
 70
     1
102
RTVSPropertyOp24
 70
     1
102
RTVSPropertyOp25
 70
     1
102
RTVSPropertyOp26
 70
     1
102
RTVSPropertyOp27
 70
     1
  0
XRECORD
  5
5FE
102
{ACAD_REACTORS
330
5FD
102
}
330
5FD
100
AcDbXrecord
280
     1
102
RTVSPropertyOp0
 70
     1
102
RTVSPropertyOp1
 70
     1
102
RTVSPropertyOp2
 70
     1
102
RTVSPropertyOp3
 70
     1
102
RTVSPropertyOp4
 70
     1
102
RTVSPropertyOp5
 70
     1
102
RTVSPropertyOp6
 70
     1
102
RTVSPropertyOp7
 70
     1
102
RTVSPropertyOp8
 70
     1
102
RTVSPropertyOp9
 70
     1
102
RTVSPropertyOp10
 70
     1
102
RTVSPropertyOp11
 70
     1
102
RTVSPropertyOp12
 70
     1
102
RTVSPropertyOp13
 70
     1
102
RTVSPropertyOp14
 70
     1
102
RTVSPropertyOp15
 70
     1
102
RTVSPropertyOp16
 70
     1
102
RTVSPropertyOp17
 70
     1
102
RTVSPropertyOp18
 70
     1
102
RTVSPropertyOp19
 70
     1
102
RTVSPropertyOp20
 70
     1
102
RTVSPropertyOp21
 70
     1
102
RTVSPropertyOp22
 70
     1
102
RTVSPropertyOp23
 70
     1
102
RTVSPropertyOp24
 70
     1
102
RTVSPropertyOp25
 70
     1
102
RTVSPropertyOp26
 70
     1
102
RTVSPropertyOp27
 70
     1
  0
XRECORD
  5
5F2
102
{ACAD_REACTORS
330
5F1
102
}
330
5F1
100
AcDbXrecord
280
     1
102
RTVSPropertyOp0
 70
     1
102
RTVSPropertyOp1
 70
     1
102
RTVSPropertyOp2
 70
     1
102
RTVSPropertyOp3
 70
     1
102
RTVSPropertyOp4
 70
     1
102
RTVSPropertyOp5
 70
     1
102
RTVSPropertyOp6
 70
     1
102
RTVSPropertyOp7
 70
     1
102
RTVSPropertyOp8
 70
     1
102
RTVSPropertyOp9
 70
     1
102
RTVSPropertyOp10
 70
     1
102
RTVSPropertyOp11
 70
     1
102
RTVSPropertyOp12
 70
     1
102
RTVSPropertyOp13
 70
     1
102
RTVSPropertyOp14
 70
     1
102
RTVSPropertyOp15
 70
     1
102
RTVSPropertyOp16
 70
     1
102
RTVSPropertyOp17
 70
     1
102
RTVSPropertyOp18
 70
     1
102
RTVSPropertyOp19
 70
     1
102
RTVSPropertyOp20
 70
     1
102
RTVSPropertyOp21
 70
     1
102
RTVSPropertyOp22
 70
     1
102
RTVSPropertyOp23
 70
     1
102
RTVSPropertyOp24
 70
     1
102
RTVSPropertyOp25
 70
     1
102
RTVSPropertyOp26
 70
     1
102
RTVSPropertyOp27
 70
     1
  0
XRECORD
  5
5F4
102
{ACAD_REACTORS
330
5F3
102
}
330
5F3
100
AcDbXrecord
280
     1
102
RTVSPropertyOp0
 70
     1
102
RTVSPropertyOp1
 70
     1
102
RTVSPropertyOp2
 70
     1
102
RTVSPropertyOp3
 70
     1
102
RTVSPropertyOp4
 70
     1
102
RTVSPropertyOp5
 70
     1
102
RTVSPropertyOp6
 70
     1
102
RTVSPropertyOp7
 70
     1
102
RTVSPropertyOp8
 70
     1
102
RTVSPropertyOp9
 70
     1
102
RTVSPropertyOp10
 70
     1
102
RTVSPropertyOp11
 70
     1
102
RTVSPropertyOp12
 70
     1
102
RTVSPropertyOp13
 70
     1
102
RTVSPropertyOp14
 70
     1
102
RTVSPropertyOp15
 70
     1
102
RTVSPropertyOp16
 70
     1
102
RTVSPropertyOp17
 70
     1
102
RTVSPropertyOp18
 70
     1
102
RTVSPropertyOp19
 70
     1
102
RTVSPropertyOp20
 70
     1
102
RTVSPropertyOp21
 70
     1
102
RTVSPropertyOp22
 70
     1
102
RTVSPropertyOp23
 70
     1
102
RTVSPropertyOp24
 70
     1
102
RTVSPropertyOp25
 70
     1
102
RTVSPropertyOp26
 70
     1
102
RTVSPropertyOp27
 70
     1
  0
XRECORD
  5
5FC
102
{ACAD_REACTORS
330
5FB
102
}
330
5FB
100
AcDbXrecord
280
     1
102
RTVSPropertyOp0
 70
     1
102
RTVSPropertyOp1
 70
     1
102
RTVSPropertyOp2
 70
     1
102
RTVSPropertyOp3
 70
     1
102
RTVSPropertyOp4
 70
     1
102
RTVSPropertyOp5
 70
     1
102
RTVSPropertyOp6
 70
     1
102
RTVSPropertyOp7
 70
     1
102
RTVSPropertyOp8
 70
     1
102
RTVSPropertyOp9
 70
     1
102
RTVSPropertyOp10
 70
     1
102
RTVSPropertyOp11
 70
     1
102
RTVSPropertyOp12
 70
     1
102
RTVSPropertyOp13
 70
     1
102
RTVSPropertyOp14
 70
     1
102
RTVSPropertyOp15
 70
     1
102
RTVSPropertyOp16
 70
     1
102
RTVSPropertyOp17
 70
     1
102
RTVSPropertyOp18
 70
     1
102
RTVSPropertyOp19
 70
     1
102
RTVSPropertyOp20
 70
     1
102
RTVSPropertyOp21
 70
     1
102
RTVSPropertyOp22
 70
     1
102
RTVSPropertyOp23
 70
     1
102
RTVSPropertyOp24
 70
     1
102
RTVSPropertyOp25
 70
     1
102
RTVSPropertyOp26
 70
     1
102
RTVSPropertyOp27
 70
     1
  0
XRECORD
  5
5E0
102
{ACAD_REACTORS
330
5DF
102
}
330
5DF
100
AcDbXrecord
280
     1
102
RTVSPropertyOp0
 70
     1
102
RTVSPropertyOp1
 70
     1
102
RTVSPropertyOp2
 70
     1
102
RTVSPropertyOp3
 70
     1
102
RTVSPropertyOp4
 70
     1
102
RTVSPropertyOp5
 70
     1
102
RTVSPropertyOp6
 70
     1
102
RTVSPropertyOp7
 70
     1
102
RTVSPropertyOp8
 70
     1
102
RTVSPropertyOp9
 70
     1
102
RTVSPropertyOp10
 70
     1
102
RTVSPropertyOp11
 70
     1
102
RTVSPropertyOp12
 70
     1
102
RTVSPropertyOp13
 70
     1
102
RTVSPropertyOp14
 70
     1
102
RTVSPropertyOp15
 70
     1
102
RTVSPropertyOp16
 70
     1
102
RTVSPropertyOp17
 70
     1
102
RTVSPropertyOp18
 70
     1
102
RTVSPropertyOp19
 70
     1
102
RTVSPropertyOp20
 70
     1
102
RTVSPropertyOp21
 70
     1
102
RTVSPropertyOp22
 70
     1
102
RTVSPropertyOp23
 70
     1
102
RTVSPropertyOp24
 70
     1
102
RTVSPropertyOp25
 70
     1
102
RTVSPropertyOp26
 70
     1
102
RTVSPropertyOp27
 70
     1
  0
XRECORD
  5
5E2
102
{ACAD_REACTORS
330
5E1
102
}
330
5E1
100
AcDbXrecord
280
     1
102
RTVSPropertyOp0
 70
     1
102
RTVSPropertyOp1
 70
     1
102
RTVSPropertyOp2
 70
     1
102
RTVSPropertyOp3
 70
     1
102
RTVSPropertyOp4
 70
     1
102
RTVSPropertyOp5
 70
     1
102
RTVSPropertyOp6
 70
     1
102
RTVSPropertyOp7
 70
     1
102
RTVSPropertyOp8
 70
     1
102
RTVSPropertyOp9
 70
     1
102
RTVSPropertyOp10
 70
     1
102
RTVSPropertyOp11
 70
     1
102
RTVSPropertyOp12
 70
     1
102
RTVSPropertyOp13
 70
     1
102
RTVSPropertyOp14
 70
     1
102
RTVSPropertyOp15
 70
     1
102
RTVSPropertyOp16
 70
     1
102
RTVSPropertyOp17
 70
     1
102
RTVSPropertyOp18
 70
     1
102
RTVSPropertyOp19
 70
     1
102
RTVSPropertyOp20
 70
     1
102
RTVSPropertyOp21
 70
     1
102
RTVSPropertyOp22
 70
     1
102
RTVSPropertyOp23
 70
     1
102
RTVSPropertyOp24
 70
     1
102
RTVSPropertyOp25
 70
     1
102
RTVSPropertyOp26
 70
     1
102
RTVSPropertyOp27
 70
     1
  0
XRECORD
  5
5E4
102
{ACAD_REACTORS
330
5E3
102
}
330
5E3
100
AcDbXrecord
280
     1
102
RTVSPropertyOp0
 70
     1
102
RTVSPropertyOp1
 70
     1
102
RTVSPropertyOp2
 70
     1
102
RTVSPropertyOp3
 70
     1
102
RTVSPropertyOp4
 70
     1
102
RTVSPropertyOp5
 70
     1
102
RTVSPropertyOp6
 70
     1
102
RTVSPropertyOp7
 70
     1
102
RTVSPropertyOp8
 70
     1
102
RTVSPropertyOp9
 70
     1
102
RTVSPropertyOp10
 70
     1
102
RTVSPropertyOp11
 70
     1
102
RTVSPropertyOp12
 70
     1
102
RTVSPropertyOp13
 70
     1
102
RTVSPropertyOp14
 70
     1
102
RTVSPropertyOp15
 70
     1
102
RTVSPropertyOp16
 70
     1
102
RTVSPropertyOp17
 70
     1
102
RTVSPropertyOp18
 70
     1
102
RTVSPropertyOp19
 70
     1
102
RTVSPropertyOp20
 70
     1
102
RTVSPropertyOp21
 70
     1
102
RTVSPropertyOp22
 70
     1
102
RTVSPropertyOp23
 70
     1
102
RTVSPropertyOp24
 70
     1
102
RTVSPropertyOp25
 70
     1
102
RTVSPropertyOp26
 70
     1
102
RTVSPropertyOp27
 70
     1
  0
XRECORD
  5
5E6
102
{ACAD_REACTORS
330
5E5
102
}
330
5E5
100
AcDbXrecord
280
     1
102
RTVSPropertyOp0
 70
     1
102
RTVSPropertyOp1
 70
     1
102
RTVSPropertyOp2
 70
     1
102
RTVSPropertyOp3
 70
     1
102
RTVSPropertyOp4
 70
     1
102
RTVSPropertyOp5
 70
     1
102
RTVSPropertyOp6
 70
     1
102
RTVSPropertyOp7
 70
     1
102
RTVSPropertyOp8
 70
     1
102
RTVSPropertyOp9
 70
     1
102
RTVSPropertyOp10
 70
     1
102
RTVSPropertyOp11
 70
     1
102
RTVSPropertyOp12
 70
     1
102
RTVSPropertyOp13
 70
     1
102
RTVSPropertyOp14
 70
     1
102
RTVSPropertyOp15
 70
     1
102
RTVSPropertyOp16
 70
     1
102
RTVSPropertyOp17
 70
     1
102
RTVSPropertyOp18
 70
     1
102
RTVSPropertyOp19
 70
     1
102
RTVSPropertyOp20
 70
     1
102
RTVSPropertyOp21
 70
     1
102
RTVSPropertyOp22
 70
     1
102
RTVSPropertyOp23
 70
     1
102
RTVSPropertyOp24
 70
     1
102
RTVSPropertyOp25
 70
     1
102
RTVSPropertyOp26
 70
     1
102
RTVSPropertyOp27
 70
     1
  0
XRECORD
  5
5FA
102
{ACAD_REACTORS
330
5F9
102
}
330
5F9
100
AcDbXrecord
280
     1
102
RTVSPropertyOp0
 70
     1
102
RTVSPropertyOp1
 70
     1
102
RTVSPropertyOp2
 70
     1
102
RTVSPropertyOp3
 70
     1
102
RTVSPropertyOp4
 70
     1
102
RTVSPropertyOp5
 70
     1
102
RTVSPropertyOp6
 70
     1
102
RTVSPropertyOp7
 70
     1
102
RTVSPropertyOp8
 70
     1
102
RTVSPropertyOp9
 70
     1
102
RTVSPropertyOp10
 70
     1
102
RTVSPropertyOp11
 70
     1
102
RTVSPropertyOp12
 70
     1
102
RTVSPropertyOp13
 70
     1
102
RTVSPropertyOp14
 70
     1
102
RTVSPropertyOp15
 70
     1
102
RTVSPropertyOp16
 70
     1
102
RTVSPropertyOp17
 70
     1
102
RTVSPropertyOp18
 70
     1
102
RTVSPropertyOp19
 70
     1
102
RTVSPropertyOp20
 70
     1
102
RTVSPropertyOp21
 70
     1
102
RTVSPropertyOp22
 70
     1
102
RTVSPropertyOp23
 70
     1
102
RTVSPropertyOp24
 70
     1
102
RTVSPropertyOp25
 70
     1
102
RTVSPropertyOp26
 70
     1
102
RTVSPropertyOp27
 70
     1
  0
XRECORD
  5
5F0
102
{ACAD_REACTORS
330
5EF
102
}
330
5EF
100
AcDbXrecord
280
     1
102
RTVSPropertyOp0
 70
     1
102
RTVSPropertyOp1
 70
     1
102
RTVSPropertyOp2
 70
     1
102
RTVSPropertyOp3
 70
     1
102
RTVSPropertyOp4
 70
     1
102
RTVSPropertyOp5
 70
     1
102
RTVSPropertyOp6
 70
     1
102
RTVSPropertyOp7
 70
     1
102
RTVSPropertyOp8
 70
     1
102
RTVSPropertyOp9
 70
     1
102
RTVSPropertyOp10
 70
     1
102
RTVSPropertyOp11
 70
     1
102
RTVSPropertyOp12
 70
     1
102
RTVSPropertyOp13
 70
     1
102
RTVSPropertyOp14
 70
     1
102
RTVSPropertyOp15
 70
     1
102
RTVSPropertyOp16
 70
     1
102
RTVSPropertyOp17
 70
     1
102
RTVSPropertyOp18
 70
     1
102
RTVSPropertyOp19
 70
     1
102
RTVSPropertyOp20
 70
     1
102
RTVSPropertyOp21
 70
     1
102
RTVSPropertyOp22
 70
     1
102
RTVSPropertyOp23
 70
     1
102
RTVSPropertyOp24
 70
     1
102
RTVSPropertyOp25
 70
     1
102
RTVSPropertyOp26
 70
     1
102
RTVSPropertyOp27
 70
     1
  0
XRECORD
  5
5F8
102
{ACAD_REACTORS
330
5F7
102
}
330
5F7
100
AcDbXrecord
280
     1
102
RTVSPropertyOp0
 70
     1
102
RTVSPropertyOp1
 70
     1
102
RTVSPropertyOp2
 70
     1
102
RTVSPropertyOp3
 70
     1
102
RTVSPropertyOp4
 70
     1
102
RTVSPropertyOp5
 70
     1
102
RTVSPropertyOp6
 70
     1
102
RTVSPropertyOp7
 70
     1
102
RTVSPropertyOp8
 70
     1
102
RTVSPropertyOp9
 70
     1
102
RTVSPropertyOp10
 70
     1
102
RTVSPropertyOp11
 70
     1
102
RTVSPropertyOp12
 70
     1
102
RTVSPropertyOp13
 70
     1
102
RTVSPropertyOp14
 70
     1
102
RTVSPropertyOp15
 70
     1
102
RTVSPropertyOp16
 70
     1
102
RTVSPropertyOp17
 70
     1
102
RTVSPropertyOp18
 70
     1
102
RTVSPropertyOp19
 70
     1
102
RTVSPropertyOp20
 70
     1
102
RTVSPropertyOp21
 70
     1
102
RTVSPropertyOp22
 70
     1
102
RTVSPropertyOp23
 70
     1
102
RTVSPropertyOp24
 70
     1
102
RTVSPropertyOp25
 70
     1
102
RTVSPropertyOp26
 70
     1
102
RTVSPropertyOp27
 70
     1
  0
ENDSEC
  0
EOF
