  0
SECTION
  2
HEADER
  9
$ACADVER
  1
AC1015
  9
$ACADMAINTVER
 70
     6
  9
$DWGCODEPAGE
  3
ANSI_932
  9
$INSBASE
 10
0.0
 20
0.0
 30
0.0
  9
$EXTMIN
 10
-537.1000052914023
 20
-361.8500034809113
 30
0.0
  9
$EXTMAX
 10
528.2000105828047
 20
338.9500069618226
 30
0.0
  9
$LIMMIN
 10
-182.0
 20
-128.5
  9
$LIMMAX
 10
182.0
 20
128.5
  9
$ORTHOMODE
 70
     0
  9
$REGENMODE
 70
     1
  9
$FILLMODE
 70
     1
  9
$QTEXTMODE
 70
     0
  9
$MIRRTEXT
 70
     1
  9
$LTSCALE
 40
0.25
  9
$ATTMODE
 70
     1
  9
$TEXTSIZE
 40
0.2
  9
$TRACEWID
 40
0.05
  9
$TEXTSTYLE
  7
Standard
  9
$CLAYER
  8
0
  9
$CELTYPE
  6
ByLayer
  9
$CECOLOR
 62
   256
  9
$CELTSCALE
 40
1.0
  9
$DISPSILH
 70
     0
  9
$DIMSCALE
 40
1.0
  9
$DIMASZ
 40
3.000001882570243
  9
$DIMEXO
 40
1.0
  9
$DIMDLI
 40
10.0
  9
$DIMRND
 40
0.0
  9
$DIMDLE
 40
0.0
  9
$DIMEXE
 40
1.0
  9
$DIMTP
 40
0.0
  9
$DIMTM
 40
0.0
  9
$DIMTXT
 40
3.0
  9
$DIMCEN
 40
0.0
  9
$DIMTSZ
 40
0.0
  9
$DIMTOL
 70
     0
  9
$DIMLIM
 70
     0
  9
$DIMTIH
 70
     0
  9
$DIMTOH
 70
     0
  9
$DIMSE1
 70
     0
  9
$DIMSE2
 70
     0
  9
$DIMTAD
 70
     1
  9
$DIMZIN
 70
     8
  9
$DIMBLK
  1

  9
$DIMASO
 70
     1
  9
$DIMSHO
 70
     1
  9
$DIMPOST
  1

  9
$DIMAPOST
  1

  9
$DIMALT
 70
     0
  9
$DIMALTD
 70
     2
  9
$DIMALTF
 40
25.4
  9
$DIMLFAC
 40
1.0
  9
$DIMTOFL
 70
     0
  9
$DIMTVP
 40
0.0
  9
$DIMTIX
 70
     0
  9
$DIMSOXD
 70
     0
  9
$DIMSAH
 70
     0
  9
$DIMBLK1
  1

  9
$DIMBLK2
  1

  9
$DIMSTYLE
  2
Standard
  9
$DIMCLRD
 70
     0
  9
$DIMCLRE
 70
     0
  9
$DIMCLRT
 70
     0
  9
$DIMTFAC
 40
0.65
  9
$DIMGAP
 40
0.09
  9
$DIMJUST
 70
     0
  9
$DIMSD1
 70
     0
  9
$DIMSD2
 70
     0
  9
$DIMTOLJ
 70
     0
  9
$DIMTZIN
 70
     0
  9
$DIMALTZ
 70
     0
  9
$DIMALTTZ
 70
     0
  9
$DIMUPT
 70
     0
  9
$DIMDEC
 70
     2
  9
$DIMTDEC
 70
     2
  9
$DIMALTU
 70
     2
  9
$DIMALTTD
 70
     2
  9
$DIMTXSTY
  7
Standard
  9
$DIMAUNIT
 70
     0
  9
$DIMADEC
 70
     2
  9
$DIMALTRND
 40
0.0
  9
$DIMAZIN
 70
     2
  9
$DIMDSEP
 70
    46
  9
$DIMATFIT
 70
     3
  9
$DIMFRAC
 70
     0
  9
$DIMLDRBLK
  1

  9
$DIMLUNIT
 70
     2
  9
$DIMLWD
 70
    -2
  9
$DIMLWE
 70
    -2
  9
$DIMTMOVE
 70
     0
  9
$LUNITS
 70
     2
  9
$LUPREC
 70
     4
  9
$SKETCHINC
 40
0.1
  9
$FILLETRAD
 40
0.5
  9
$AUNITS
 70
     0
  9
$AUPREC
 70
     0
  9
$MENU
  1
.
  9
$ELEVATION
 40
0.0
  9
$PELEVATION
 40
0.0
  9
$THICKNESS
 40
0.0
  9
$LIMCHECK
 70
     0
  9
$CHAMFERA
 40
0.5
  9
$CHAMFERB
 40
0.5
  9
$CHAMFERC
 40
1.0
  9
$CHAMFERD
 40
0.0
  9
$SKPOLY
 70
     0
  9
$TDCREATE
 40
2459606.904621863
  9
$TDUCREATE
 40
2459606.529621863
  9
$TDUPDATE
 40
2459606.904621875
  9
$TDUUPDATE
 40
2459606.529621875
  9
$TDINDWG
 40
0.0000000116
  9
$TDUSRTIMER
 40
0.0000000116
  9
$USRTIMER
 70
     1
  9
$ANGBASE
 50
0.0
  9
$ANGDIR
 70
     0
  9
$PDMODE
 70
     0
  9
$PDSIZE
 40
1.0
  9
$PLINEWID
 40
0.0
  9
$SPLFRAME
 70
     0
  9
$SPLINETYPE
 70
     6
  9
$SPLINESEGS
 70
     8
  9
$HANDSEED
  5
5F1
  9
$SURFTAB1
 70
     6
  9
$SURFTAB2
 70
     6
  9
$SURFTYPE
 70
     6
  9
$SURFU
 70
     6
  9
$SURFV
 70
     6
  9
$UCSBASE
  2

  9
$UCSNAME
  2

  9
$UCSORG
 10
0.0
 20
0.0
 30
0.0
  9
$UCSXDIR
 10
1.0
 20
0.0
 30
0.0
  9
$UCSYDIR
 10
0.0
 20
1.0
 30
0.0
  9
$UCSORTHOREF
  2

  9
$UCSORTHOVIEW
 70
     0
  9
$UCSORGTOP
 10
0.0
 20
0.0
 30
0.0
  9
$UCSORGBOTTOM
 10
0.0
 20
0.0
 30
0.0
  9
$UCSORGLEFT
 10
0.0
 20
0.0
 30
0.0
  9
$UCSORGRIGHT
 10
0.0
 20
0.0
 30
0.0
  9
$UCSORGFRONT
 10
0.0
 20
0.0
 30
0.0
  9
$UCSORGBACK
 10
0.0
 20
0.0
 30
0.0
  9
$PUCSBASE
  2

  9
$PUCSNAME
  2

  9
$PUCSORG
 10
0.0
 20
0.0
 30
0.0
  9
$PUCSXDIR
 10
1.0
 20
0.0
 30
0.0
  9
$PUCSYDIR
 10
0.0
 20
1.0
 30
0.0
  9
$PUCSORTHOREF
  2

  9
$PUCSORTHOVIEW
 70
     0
  9
$PUCSORGTOP
 10
0.0
 20
0.0
 30
0.0
  9
$PUCSORGBOTTOM
 10
0.0
 20
0.0
 30
0.0
  9
$PUCSORGLEFT
 10
0.0
 20
0.0
 30
0.0
  9
$PUCSORGRIGHT
 10
0.0
 20
0.0
 30
0.0
  9
$PUCSORGFRONT
 10
0.0
 20
0.0
 30
0.0
  9
$PUCSORGBACK
 10
0.0
 20
0.0
 30
0.0
  9
$USERI1
 70
     0
  9
$USERI2
 70
     0
  9
$USERI3
 70
     0
  9
$USERI4
 70
     0
  9
$USERI5
 70
     0
  9
$USERR1
 40
0.0
  9
$USERR2
 40
0.0
  9
$USERR3
 40
0.0
  9
$USERR4
 40
0.0
  9
$USERR5
 40
0.0
  9
$WORLDVIEW
 70
     1
  9
$SHADEDGE
 70
     3
  9
$SHADEDIF
 70
    70
  9
$TILEMODE
 70
     1
  9
$MAXACTVP
 70
    64
  9
$PINSBASE
 10
0.0
 20
0.0
 30
0.0
  9
$PLIMCHECK
 70
     0
  9
$PEXTMIN
 10
1.000000000000000E+20
 20
1.000000000000000E+20
 30
1.000000000000000E+20
  9
$PEXTMAX
 10
-1.000000000000000E+20
 20
-1.000000000000000E+20
 30
-1.000000000000000E+20
  9
$PLIMMIN
 10
0.0
 20
0.0
  9
$PLIMMAX
 10
12.0
 20
9.0
  9
$UNITMODE
 70
     0
  9
$VISRETAIN
 70
     0
  9
$PLINEGEN
 70
     1
  9
$PSLTSCALE
 70
     0
  9
$TREEDEPTH
 70
  3020
  9
$CMLSTYLE
  2
Standard
  9
$CMLJUST
 70
     0
  9
$CMLSCALE
 40
1.0
  9
$PROXYGRAPHICS
 70
     0
  9
$MEASUREMENT
 70
     1
  9
$CELWEIGHT
370
    -1
  9
$ENDCAPS
280
     0
  9
$JOINSTYLE
280
     0
  9
$LWDISPLAY
290
     1
  9
$INSUNITS
 70
     4
  9
$HYPERLINKBASE
  1

  9
$STYLESHEET
  1

  9
$XEDIT
290
     1
  9
$CEPSNTYPE
380
     0
  9
$PSTYLEMODE
290
     1
  9
$FINGERPRINTGUID
  2
{0AAD3426-C488-474A-A819-17B33074EFF6}
  9
$VERSIONGUID
  2
{FAEB1C32-E019-11D5-929B-00C0DF256EC4}
  9
$EXTNAMES
290
     1
  9
$PSVPSCALE
 40
0.0
  9
$OLESTARTUP
290
     0
  0
ENDSEC
  0
SECTION
  2
CLASSES
  0
CLASS
  1
ACDBDICTIONARYWDFLT
  2
AcDbDictionaryWithDefault
  3
ObjectDBX Classes
 90
        0
280
     0
281
     0
  0
CLASS
  1
VISUALSTYLE
  2
AcDbVisualStyle
  3
ObjectDBX Classes
 90
     4095
280
     0
281
     0
  0
CLASS
  1
MATERIAL
  2
AcDbMaterial
  3
ObjectDBX Classes
 90
     1153
280
     0
281
     0
  0
CLASS
  1
SCALE
  2
AcDbScale
  3
ObjectDBX Classes
 90
     1153
280
     0
281
     0
  0
CLASS
  1
DICTIONARYVAR
  2
AcDbDictionaryVar
  3
ObjectDBX Classes
 90
        0
280
     0
281
     0
  0
CLASS
  1
ACDBPLACEHOLDER
  2
AcDbPlaceHolder
  3
ObjectDBX Classes
 90
        0
280
     0
281
     0
  0
CLASS
  1
LAYOUT
  2
AcDbLayout
  3
ObjectDBX Classes
 90
        0
280
     0
281
     0
  0
ENDSEC
  0
SECTION
  2
TABLES
  0
TABLE
  2
VPORT
  5
8
330
0
100
AcDbSymbolTable
 70
     1
  0
VPORT
  5
29
330
8
100
AcDbSymbolTableRecord
100
AcDbViewportTableRecord
  2
*Active
 70
     0
 10
0.0
 20
0.0
 11
1.0
 21
1.0
 12
-4.449997354298834
 22
-11.44999825954434
 13
0.0
 23
0.0
 14
0.5
 24
0.5
 15
0.5
 25
0.5
 16
0.0
 26
0.0
 36
1.0
 17
0.0
 27
0.0
 37
0.0
 40
238.2720035505295
 41
1.520119863013698
 42
50.0
 43
0.0
 44
0.0
 50
0.0
 51
0.0
 71
     0
 72
  1000
 73
     1
 74
     1
 75
     0
 76
     0
 77
     0
 78
     0
281
     0
 65
     1
110
0.0
120
0.0
130
0.0
111
1.0
121
0.0
131
0.0
112
0.0
122
1.0
132
0.0
 79
     0
146
0.0
  0
ENDTAB
  0
TABLE
  2
LTYPE
  5
5
330
0
100
AcDbSymbolTable
 70
    53
  0
LTYPE
  5
14
330
5
100
AcDbSymbolTableRecord
100
AcDbLinetypeTableRecord
  2
ByBlock
 70
     0
  3

 72
    65
 73
     0
 40
0.0
  0
LTYPE
  5
15
330
5
100
AcDbSymbolTableRecord
100
AcDbLinetypeTableRecord
  2
ByLayer
 70
     0
  3

 72
    65
 73
     0
 40
0.0
  0
LTYPE
  5
16
330
5
100
AcDbSymbolTableRecord
100
AcDbLinetypeTableRecord
  2
Continuous
 70
     0
  3
Solid line
 72
    65
 73
     0
 40
0.0
  0
LTYPE
  5
40
330
5
100
AcDbSymbolTableRecord
100
AcDbLinetypeTableRecord
  2
HIDDENX2
 70
     0
  3
Hidden (2x) ____ ____ ____ ____ ____ ____ ____ 
 72
    65
 73
     2
 40
19.05
 49
12.7
 74
     0
 49
-6.35
 74
     0
  0
LTYPE
  5
41
330
5
100
AcDbSymbolTableRecord
100
AcDbLinetypeTableRecord
  2
HIDDEN
 70
     0
  3
Hidden __ __ __ __ __ __ __ __ __ __ __ __ __ __
 72
    65
 73
     2
 40
9.524999999999999
 49
6.35
 74
     0
 49
-3.175
 74
     0
  0
LTYPE
  5
42
330
5
100
AcDbSymbolTableRecord
100
AcDbLinetypeTableRecord
  2
HIDDEN2
 70
     0
  3
Hidden (.5x) _ _ _ _ _ _ _ _ _ _ _ _ _ _ _ _ _ 
 72
    65
 73
     2
 40
4.762499999999999
 49
3.175
 74
     0
 49
-1.5875
 74
     0
  0
LTYPE
  5
43
330
5
100
AcDbSymbolTableRecord
100
AcDbLinetypeTableRecord
  2
DASHED
 70
     0
  3
Dashed __ __ __ __ __ __ __ __ __ __ __ __ __ _
 72
    65
 73
     2
 40
19.05
 49
12.7
 74
     0
 49
-6.35
 74
     0
  0
LTYPE
  5
44
330
5
100
AcDbSymbolTableRecord
100
AcDbLinetypeTableRecord
  2
DASHED2
 70
     0
  3
Dashed (.5x) _ _ _ _ _ _ _ _ _ _ _ _ _ _ _ _ _ 
 72
    65
 73
     2
 40
9.524999999999999
 49
6.35
 74
     0
 49
-3.175
 74
     0
  0
LTYPE
  5
45
330
5
100
AcDbSymbolTableRecord
100
AcDbLinetypeTableRecord
  2
DASHEDX2
 70
     0
  3
Dashed (2x) ____  ____  ____  ____  ____  ___
 72
    65
 73
     2
 40
38.09999999999999
 49
25.4
 74
     0
 49
-12.7
 74
     0
  0
LTYPE
  5
46
330
5
100
AcDbSymbolTableRecord
100
AcDbLinetypeTableRecord
  2
DOTX2
 70
     0
  3
Dot (2x) .  .  .  .  .  .  .  .  .  .  .  .  .  .
 72
    65
 73
     2
 40
12.7
 49
0.0
 74
     0
 49
-12.7
 74
     0
  0
LTYPE
  5
47
330
5
100
AcDbSymbolTableRecord
100
AcDbLinetypeTableRecord
  2
DOT
 70
     0
  3
Dot . . . . . . . . . . . . . . . . . . . . . . . .
 72
    65
 73
     2
 40
6.35
 49
0.0
 74
     0
 49
-6.35
 74
     0
  0
LTYPE
  5
48
330
5
100
AcDbSymbolTableRecord
100
AcDbLinetypeTableRecord
  2
DOT2
 70
     0
  3
Dot (.5x) ........................................
 72
    65
 73
     2
 40
3.175
 49
0.0
 74
     0
 49
-3.175
 74
     0
  0
LTYPE
  5
49
330
5
100
AcDbSymbolTableRecord
100
AcDbLinetypeTableRecord
  2
CENTERX2
 70
     0
  3
Center (2x) ________  __  ________  __  _____
 72
    65
 73
     4
 40
101.6
 49
63.5
 74
     0
 49
-12.7
 74
     0
 49
12.7
 74
     0
 49
-12.7
 74
     0
  0
LTYPE
  5
4A
330
5
100
AcDbSymbolTableRecord
100
AcDbLinetypeTableRecord
  2
CENTER
 70
     0
  3
Center ____ _ ____ _ ____ _ ____ _ ____ _ ____
 72
    65
 73
     4
 40
50.8
 49
31.75
 74
     0
 49
-6.35
 74
     0
 49
6.35
 74
     0
 49
-6.35
 74
     0
  0
LTYPE
  5
4B
330
5
100
AcDbSymbolTableRecord
100
AcDbLinetypeTableRecord
  2
CENTER2
 70
     0
  3
Center (.5x) ___ _ ___ _ ___ _ ___ _ ___ _ ___
 72
    65
 73
     4
 40
28.575
 49
19.05
 74
     0
 49
-3.175
 74
     0
 49
3.175
 74
     0
 49
-3.175
 74
     0
  0
LTYPE
  5
4C
330
5
100
AcDbSymbolTableRecord
100
AcDbLinetypeTableRecord
  2
DASHDOTX2
 70
     0
  3
Dash dot (2x) ____  .  ____  .  ____  .  ___
 72
    65
 73
     4
 40
50.8
 49
25.4
 74
     0
 49
-12.7
 74
     0
 49
0.0
 74
     0
 49
-12.7
 74
     0
  0
LTYPE
  5
4D
330
5
100
AcDbSymbolTableRecord
100
AcDbLinetypeTableRecord
  2
DASHDOT
 70
     0
  3
Dash dot __ . __ . __ . __ . __ . __ . __ . __
 72
    65
 73
     4
 40
25.4
 49
12.7
 74
     0
 49
-6.35
 74
     0
 49
0.0
 74
     0
 49
-6.35
 74
     0
  0
LTYPE
  5
4E
330
5
100
AcDbSymbolTableRecord
100
AcDbLinetypeTableRecord
  2
DASHDOT2
 70
     0
  3
Dash dot (.5x) _._._._._._._._._._._._._._._.
 72
    65
 73
     4
 40
12.7
 49
6.35
 74
     0
 49
-3.175
 74
     0
 49
0.0
 74
     0
 49
-3.175
 74
     0
  0
LTYPE
  5
4F
330
5
100
AcDbSymbolTableRecord
100
AcDbLinetypeTableRecord
  2
DIVIDEX2
 70
     0
  3
Divide (2x) ________  .  .  ________  .  .  _
 72
    65
 73
     6
 40
63.5
 49
25.4
 74
     0
 49
-12.7
 74
     0
 49
0.0
 74
     0
 49
-12.7
 74
     0
 49
0.0
 74
     0
 49
-12.7
 74
     0
  0
LTYPE
  5
50
330
5
100
AcDbSymbolTableRecord
100
AcDbLinetypeTableRecord
  2
DIVIDE
 70
     0
  3
Divide ____ . . ____ . . ____ . . ____ . . ____
 72
    65
 73
     6
 40
31.75
 49
12.7
 74
     0
 49
-6.35
 74
     0
 49
0.0
 74
     0
 49
-6.35
 74
     0
 49
0.0
 74
     0
 49
-6.35
 74
     0
  0
LTYPE
  5
51
330
5
100
AcDbSymbolTableRecord
100
AcDbLinetypeTableRecord
  2
DIVIDE2
 70
     0
  3
Divide (.5x) __..__..__..__..__..__..__..__.._
 72
    65
 73
     6
 40
15.875
 49
6.35
 74
     0
 49
-3.175
 74
     0
 49
0.0
 74
     0
 49
-3.175
 74
     0
 49
0.0
 74
     0
 49
-3.175
 74
     0
  0
LTYPE
  5
52
330
5
100
AcDbSymbolTableRecord
100
AcDbLinetypeTableRecord
  2
BORDERX2
 70
     0
  3
Border (2x) ____  ____  .  ____  ____  .  ___
 72
    65
 73
     6
 40
88.89999999999999
 49
25.4
 74
     0
 49
-12.7
 74
     0
 49
25.4
 74
     0
 49
-12.7
 74
     0
 49
0.0
 74
     0
 49
-12.7
 74
     0
  0
LTYPE
  5
53
330
5
100
AcDbSymbolTableRecord
100
AcDbLinetypeTableRecord
  2
BORDER
 70
     0
  3
Border __ __ . __ __ . __ __ . __ __ . __ __ .
 72
    65
 73
     6
 40
44.45
 49
12.7
 74
     0
 49
-6.35
 74
     0
 49
12.7
 74
     0
 49
-6.35
 74
     0
 49
0.0
 74
     0
 49
-6.35
 74
     0
  0
LTYPE
  5
54
330
5
100
AcDbSymbolTableRecord
100
AcDbLinetypeTableRecord
  2
BORDER2
 70
     0
  3
Border (.5x) __.__.__.__.__.__.__.__.__.__.__.
 72
    65
 73
     6
 40
22.225
 49
6.35
 74
     0
 49
-3.175
 74
     0
 49
6.35
 74
     0
 49
-3.175
 74
     0
 49
0.0
 74
     0
 49
-3.175
 74
     0
  0
LTYPE
  5
55
330
5
100
AcDbSymbolTableRecord
100
AcDbLinetypeTableRecord
  2
PHANTOMX2
 70
     0
  3
Phantom (2x) ____________    ____    ____   _
 72
    65
 73
     6
 40
127.0
 49
63.5
 74
     0
 49
-12.7
 74
     0
 49
12.7
 74
     0
 49
-12.7
 74
     0
 49
12.7
 74
     0
 49
-12.7
 74
     0
  0
LTYPE
  5
56
330
5
100
AcDbSymbolTableRecord
100
AcDbLinetypeTableRecord
  2
PHANTOM
 70
     0
  3
Phantom ______  __  __  ______  __  __  ______ 
 72
    65
 73
     6
 40
63.5
 49
31.75
 74
     0
 49
-6.35
 74
     0
 49
6.35
 74
     0
 49
-6.35
 74
     0
 49
6.35
 74
     0
 49
-6.35
 74
     0
  0
LTYPE
  5
57
330
5
100
AcDbSymbolTableRecord
100
AcDbLinetypeTableRecord
  2
PHANTOM2
 70
     0
  3
Phantom (.5x) ___ _ _ ___ _ _ ___ _ _ ___ _ _
 72
    65
 73
     6
 40
31.75
 49
15.875
 74
     0
 49
-3.175
 74
     0
 49
3.175
 74
     0
 49
-3.175
 74
     0
 49
3.175
 74
     0
 49
-3.175
 74
     0
  0
LTYPE
  5
58
330
5
100
AcDbSymbolTableRecord
100
AcDbLinetypeTableRecord
  2
ACAD_ISO06W100
 70
     0
  3
ISO long-dash triple-dot ____ ... ____ ... ____
 72
    65
 73
     8
 40
36.0
 49
24.0
 74
     0
 49
-3.0
 74
     0
 49
0.0
 74
     0
 49
-3.0
 74
     0
 49
0.0
 74
     0
 49
-3.0
 74
     0
 49
0.0
 74
     0
 49
-3.0
 74
     0
  0
LTYPE
  5
59
330
5
100
AcDbSymbolTableRecord
100
AcDbLinetypeTableRecord
  2
ACAD_ISO13W100
 70
     0
  3
ISO double-dash double-dot __ __ . . __ __ . . _
 72
    65
 73
     8
 40
36.0
 49
12.0
 74
     0
 49
-3.0
 74
     0
 49
12.0
 74
     0
 49
-3.0
 74
     0
 49
0.0
 74
     0
 49
-3.0
 74
     0
 49
0.0
 74
     0
 49
-3.0
 74
     0
  0
LTYPE
  5
5A
330
5
100
AcDbSymbolTableRecord
100
AcDbLinetypeTableRecord
  2
ACAD_ISO14W100
 70
     0
  3
ISO dash triple-dot __ . . . __ . . . __ . . . _
 72
    65
 73
     8
 40
24.0
 49
12.0
 74
     0
 49
-3.0
 74
     0
 49
0.0
 74
     0
 49
-3.0
 74
     0
 49
0.0
 74
     0
 49
-3.0
 74
     0
 49
0.0
 74
     0
 49
-3.0
 74
     0
  0
LTYPE
  5
5B
330
5
100
AcDbSymbolTableRecord
100
AcDbLinetypeTableRecord
  2
ACAD_ISO02W100
 70
     0
  3
ISO dash __ __ __ __ __ __ __ __ __ __ __ __ __
 72
    65
 73
     2
 40
15.0
 49
12.0
 74
     0
 49
-3.0
 74
     0
  0
LTYPE
  5
5C
330
5
100
AcDbSymbolTableRecord
100
AcDbLinetypeTableRecord
  2
ACAD_ISO03W100
 70
     0
  3
ISO dash space __    __    __    __    __    __
 72
    65
 73
     2
 40
30.0
 49
12.0
 74
     0
 49
-18.0
 74
     0
  0
LTYPE
  5
5D
330
5
100
AcDbSymbolTableRecord
100
AcDbLinetypeTableRecord
  2
ACAD_ISO04W100
 70
     0
  3
ISO long-dash dot ____ . ____ . ____ . ____ . _
 72
    65
 73
     4
 40
30.0
 49
24.0
 74
     0
 49
-3.0
 74
     0
 49
0.0
 74
     0
 49
-3.0
 74
     0
  0
LTYPE
  5
5E
330
5
100
AcDbSymbolTableRecord
100
AcDbLinetypeTableRecord
  2
ACAD_ISO05W100
 70
     0
  3
ISO long-dash double-dot ____ .. ____ .. ____ . 
 72
    65
 73
     6
 40
33.0
 49
24.0
 74
     0
 49
-3.0
 74
     0
 49
0.0
 74
     0
 49
-3.0
 74
     0
 49
0.0
 74
     0
 49
-3.0
 74
     0
  0
LTYPE
  5
5F
330
5
100
AcDbSymbolTableRecord
100
AcDbLinetypeTableRecord
  2
ACAD_ISO07W100
 70
     0
  3
ISO dot . . . . . . . . . . . . . . . . . . . . 
 72
    65
 73
     2
 40
3.0
 49
0.0
 74
     0
 49
-3.0
 74
     0
  0
LTYPE
  5
60
330
5
100
AcDbSymbolTableRecord
100
AcDbLinetypeTableRecord
  2
ACAD_ISO08W100
 70
     0
  3
ISO long-dash short-dash ____ __ ____ __ ____ _
 72
    65
 73
     4
 40
36.0
 49
24.0
 74
     0
 49
-3.0
 74
     0
 49
6.0
 74
     0
 49
-3.0
 74
     0
  0
LTYPE
  5
61
330
5
100
AcDbSymbolTableRecord
100
AcDbLinetypeTableRecord
  2
ACAD_ISO09W100
 70
     0
  3
ISO long-dash double-short-dash ____ __ __ ____
 72
    65
 73
     6
 40
45.0
 49
24.0
 74
     0
 49
-3.0
 74
     0
 49
6.0
 74
     0
 49
-3.0
 74
     0
 49
6.0
 74
     0
 49
-3.0
 74
     0
  0
LTYPE
  5
62
330
5
100
AcDbSymbolTableRecord
100
AcDbLinetypeTableRecord
  2
ACAD_ISO10W100
 70
     0
  3
ISO dash dot __ . __ . __ . __ . __ . __ . __ . 
 72
    65
 73
     4
 40
18.0
 49
12.0
 74
     0
 49
-3.0
 74
     0
 49
0.0
 74
     0
 49
-3.0
 74
     0
  0
LTYPE
  5
63
330
5
100
AcDbSymbolTableRecord
100
AcDbLinetypeTableRecord
  2
ACAD_ISO11W100
 70
     0
  3
ISO double-dash dot __ __ . __ __ . __ __ . __ _
 72
    65
 73
     6
 40
33.0
 49
12.0
 74
     0
 49
-3.0
 74
     0
 49
12.0
 74
     0
 49
-3.0
 74
     0
 49
0.0
 74
     0
 49
-3.0
 74
     0
  0
LTYPE
  5
64
330
5
100
AcDbSymbolTableRecord
100
AcDbLinetypeTableRecord
  2
ACAD_ISO12W100
 70
     0
  3
ISO dash double-dot __ . . __ . . __ . . __ . . 
 72
    65
 73
     6
 40
21.0
 49
12.0
 74
     0
 49
-3.0
 74
     0
 49
0.0
 74
     0
 49
-3.0
 74
     0
 49
0.0
 74
     0
 49
-3.0
 74
     0
  0
LTYPE
  5
65
330
5
100
AcDbSymbolTableRecord
100
AcDbLinetypeTableRecord
  2
ACAD_ISO15W100
 70
     0
  3
ISO double-dash triple-dot __ __ . . . __ __ . .
 72
    65
 73
    10
 40
39.0
 49
12.0
 74
     0
 49
-3.0
 74
     0
 49
12.0
 74
     0
 49
-3.0
 74
     0
 49
0.0
 74
     0
 49
-3.0
 74
     0
 49
0.0
 74
     0
 49
-3.0
 74
     0
 49
0.0
 74
     0
 49
-3.0
 74
     0
  0
LTYPE
  5
66
330
5
100
AcDbSymbolTableRecord
100
AcDbLinetypeTableRecord
  2
JIS_02_0.7
 70
     0
  3
HIDDEN0.75 _ _ _ _ _ _ _ _ _ _ _ _ _ _ _ _ _ 
 72
    65
 73
     2
 40
1.35
 49
0.75
 74
     0
 49
-0.6
 74
     0
  0
LTYPE
  5
67
330
5
100
AcDbSymbolTableRecord
100
AcDbLinetypeTableRecord
  2
JIS_02_1.0
 70
     0
  3
HIDDEN01 _ _ _ _ _ _ _ _ _ _ _ _ _ _ _ _ _ 
 72
    65
 73
     2
 40
2.0
 49
1.0
 74
     0
 49
-1.0
 74
     0
  0
LTYPE
  5
68
330
5
100
AcDbSymbolTableRecord
100
AcDbLinetypeTableRecord
  2
JIS_02_1.2
 70
     0
  3
HIDDEN01.25  _ _ _ _ _ _ _ _ _ _ _ _ _ _ _ _ _ 
 72
    65
 73
     2
 40
2.5
 49
1.25
 74
     0
 49
-1.25
 74
     0
  0
LTYPE
  5
69
330
5
100
AcDbSymbolTableRecord
100
AcDbLinetypeTableRecord
  2
JIS_02_2.0
 70
     0
  3
HIDDEN02 __ __ __ __ __ __ __ __ __ __ __ 
 72
    65
 73
     2
 40
3.0
 49
2.0
 74
     0
 49
-1.0
 74
     0
  0
LTYPE
  5
6A
330
5
100
AcDbSymbolTableRecord
100
AcDbLinetypeTableRecord
  2
JIS_02_4.0
 70
     0
  3
HIDDEN04 ____ ____ ____ ____ ____ ____ ____ 
 72
    65
 73
     2
 40
5.5
 49
4.0
 74
     0
 49
-1.5
 74
     0
  0
LTYPE
  5
6B
330
5
100
AcDbSymbolTableRecord
100
AcDbLinetypeTableRecord
  2
JIS_08_11
 70
     0
  3
1SASEN11 ___ _ ___ _ ___ _ ___ _ ___ _ ___
 72
    65
 73
     4
 40
12.8
 49
11.0
 74
     0
 49
-0.6
 74
     0
 49
0.6
 74
     0
 49
-0.6
 74
     0
  0
LTYPE
  5
6C
330
5
100
AcDbSymbolTableRecord
100
AcDbLinetypeTableRecord
  2
JIS_08_15
 70
     0
  3
1SASEN15 ____ _ ____ _ ____ _ ____ _ ____ 
 72
    65
 73
     4
 40
17.25
 49
15.0
 74
     0
 49
-0.75
 74
     0
 49
0.75
 74
     0
 49
-0.75
 74
     0
  0
LTYPE
  5
6D
330
5
100
AcDbSymbolTableRecord
100
AcDbLinetypeTableRecord
  2
JIS_08_25
 70
     0
  3
1SASEN25 ________  __  ________  __  _____
 72
    65
 73
     4
 40
28.0
 49
25.0
 74
     0
 49
-1.125
 74
     0
 49
0.75
 74
     0
 49
-1.125
 74
     0
  0
LTYPE
  5
6E
330
5
100
AcDbSymbolTableRecord
100
AcDbLinetypeTableRecord
  2
JIS_08_37
 70
     0
  3
1SASEN37 ________  __  ________  __  _____
 72
    65
 73
     4
 40
40.5
 49
37.5
 74
     0
 49
-1.125
 74
     0
 49
0.75
 74
     0
 49
-1.125
 74
     0
  0
LTYPE
  5
6F
330
5
100
AcDbSymbolTableRecord
100
AcDbLinetypeTableRecord
  2
JIS_08_50
 70
     0
  3
1SASEN50 _______________  __  ____________
 72
    65
 73
     4
 40
53.0
 49
50.0
 74
     0
 49
-1.125
 74
     0
 49
0.75
 74
     0
 49
-1.125
 74
     0
  0
LTYPE
  5
70
330
5
100
AcDbSymbolTableRecord
100
AcDbLinetypeTableRecord
  2
JIS_09_08
 70
     0
  3
2SASEN8 __ _ _ __ _ _ __ _ _ __ _ _ __ _ _ 
 72
    65
 73
     6
 40
10.75
 49
8.0
 74
     0
 49
-0.55
 74
     0
 49
0.55
 74
     0
 49
-0.55
 74
     0
 49
0.55
 74
     0
 49
-0.55
 74
     0
  0
LTYPE
  5
71
330
5
100
AcDbSymbolTableRecord
100
AcDbLinetypeTableRecord
  2
JIS_09_15
 70
     0
  3
2SASEN15 ___ _ _ ___ _ _ ___ _ _ ___ _ _ ___ 
 72
    65
 73
     6
 40
18.9
 49
15.0
 74
     0
 49
-0.9
 74
     0
 49
0.6
 74
     0
 49
-0.9
 74
     0
 49
0.6
 74
     0
 49
-0.9
 74
     0
  0
LTYPE
  5
72
330
5
100
AcDbSymbolTableRecord
100
AcDbLinetypeTableRecord
  2
JIS_09_29
 70
     0
  3
2SASEN29 ______　__  __  ______　__  __  ___
 72
    65
 73
     6
 40
34.0
 49
29.0
 74
     0
 49
-1.2
 74
     0
 49
0.7
 74
     0
 49
-1.2
 74
     0
 49
0.7
 74
     0
 49
-1.2
 74
     0
  0
LTYPE
  5
73
330
5
100
AcDbSymbolTableRecord
100
AcDbLinetypeTableRecord
  2
JIS_09_50
 70
     0
  3
2SASEN50 ____________　__  __  _____________
 72
    65
 73
     6
 40
55.0
 49
50.0
 74
     0
 49
-1.2
 74
     0
 49
0.7
 74
     0
 49
-1.2
 74
     0
 49
0.7
 74
     0
 49
-1.2
 74
     0
  0
ENDTAB
  0
TABLE
  2
LAYER
  5
2
330
0
100
AcDbSymbolTable
 70
     5
  0
LAYER
  5
10
330
2
100
AcDbSymbolTableRecord
100
AcDbLayerTableRecord
  2
0
 70
     0
 62
     7
  6
Continuous
370
    -3
390
F
  0
LAYER
  5
74
330
2
100
AcDbSymbolTableRecord
100
AcDbLayerTableRecord
  2
16
 70
     0
 62
     7
  6
Continuous
370
    -3
390
F
  0
LAYER
  5
75
330
2
100
AcDbSymbolTableRecord
100
AcDbLayerTableRecord
  2
22
 70
     0
 62
     7
  6
Continuous
370
    -3
390
F
  0
LAYER
  5
76
330
2
100
AcDbSymbolTableRecord
100
AcDbLayerTableRecord
  2
24
 70
     0
 62
     7
  6
Continuous
370
    -3
390
F
  0
LAYER
  5
77
330
2
100
AcDbSymbolTableRecord
100
AcDbLayerTableRecord
  2
32
 70
     0
 62
     7
  6
Continuous
370
    -3
390
F
  0
ENDTAB
  0
TABLE
  2
STYLE
  5
3
330
0
100
AcDbSymbolTable
 70
     2
  0
STYLE
  5
11
330
3
100
AcDbSymbolTableRecord
100
AcDbTextStyleTableRecord
  2
Standard
 70
     0
 40
0.0
 41
1.0
 50
0.0
 71
     0
 42
0.2
  3
txt.shx
  4
bigfont.shx
  0
STYLE
  5
AF
330
3
100
AcDbSymbolTableRecord
100
AcDbTextStyleTableRecord
  2
dcStyle0
 70
     0
 40
0.0
 41
0.833333335493827
 50
0.0
 71
     0
 42
0.2
  3
txt.shx
  4
bigfont
  0
ENDTAB
  0
TABLE
  2
VIEW
  5
6
330
0
100
AcDbSymbolTable
 70
     0
  0
ENDTAB
  0
TABLE
  2
UCS
  5
7
330
0
100
AcDbSymbolTable
 70
     0
  0
ENDTAB
  0
TABLE
  2
APPID
  5
9
330
0
100
AcDbSymbolTable
 70
     2
  0
APPID
  5
12
330
9
100
AcDbSymbolTableRecord
100
AcDbRegAppTableRecord
  2
ACAD
 70
     0
  0
APPID
  5
3F
330
9
100
AcDbSymbolTableRecord
100
AcDbRegAppTableRecord
  2
DaFusionOut
 70
     0
  0
ENDTAB
  0
TABLE
  2
DIMSTYLE
  5
A
330
0
100
AcDbSymbolTable
 70
     1
100
AcDbDimStyleTable
  0
DIMSTYLE
105
27
330
A
100
AcDbSymbolTableRecord
100
AcDbDimStyleTableRecord
  2
Standard
 70
     0
178
     0
340
11
  0
ENDTAB
  0
TABLE
  2
BLOCK_RECORD
  5
1
330
0
100
AcDbSymbolTable
 70
     2
  0
BLOCK_RECORD
  5
1F
330
1
100
AcDbSymbolTableRecord
100
AcDbBlockTableRecord
  2
*Model_Space
340
22
  0
BLOCK_RECORD
  5
1B
330
1
100
AcDbSymbolTableRecord
100
AcDbBlockTableRecord
  2
*Paper_Space
340
1E
  0
BLOCK_RECORD
  5
23
330
1
100
AcDbSymbolTableRecord
100
AcDbBlockTableRecord
  2
*Paper_Space0
340
26
  0
BLOCK_RECORD
  5
506
330
1
100
AcDbSymbolTableRecord
100
AcDbBlockTableRecord
  2
_OPEN30
340
0
102
{BLKREFS
331
50C
102
}
  0
ENDTAB
  0
ENDSEC
  0
SECTION
  2
BLOCKS
  0
BLOCK
  5
20
330
1F
100
AcDbEntity
  8
0
100
AcDbBlockBegin
  2
*Model_Space
 70
     0
 10
0.0
 20
0.0
 30
0.0
  3
*Model_Space
  1

  0
ENDBLK
  5
21
330
1F
100
AcDbEntity
  8
0
100
AcDbBlockEnd
  0
BLOCK
  5
1C
330
1B
100
AcDbEntity
 67
     1
  8
0
100
AcDbBlockBegin
  2
*Paper_Space
 70
     0
 10
0.0
 20
0.0
 30
0.0
  3
*Paper_Space
  1

  0
ENDBLK
  5
1D
330
1B
100
AcDbEntity
 67
     1
  8
0
100
AcDbBlockEnd
  0
BLOCK
  5
24
330
23
100
AcDbEntity
  8
0
100
AcDbBlockBegin
  2
*Paper_Space0
 70
     0
 10
0.0
 20
0.0
 30
0.0
  3
*Paper_Space0
  1

  0
ENDBLK
  5
25
330
23
100
AcDbEntity
  8
0
100
AcDbBlockEnd
  0
BLOCK
  5
507
330
506
100
AcDbEntity
  8
0
100
AcDbBlockBegin
  2
_OPEN30
 70
     0
 10
0.0
 20
0.0
 30
0.0
  3
_OPEN30
  1

  0
LINE
  5
509
330
506
100
AcDbEntity
  8
0
  6
ByBlock
 62
     0
370
    -2
100
AcDbLine
 10
-1.0
 20
0.267949
 30
0.0
 11
0.0
 21
0.0
 31
0.0
  0
LINE
  5
50A
330
506
100
AcDbEntity
  8
0
  6
ByBlock
 62
     0
370
    -2
100
AcDbLine
 10
0.0
 20
0.0
 30
0.0
 11
-1.0
 21
-0.267949
 31
0.0
  0
LINE
  5
50B
330
506
100
AcDbEntity
  8
0
  6
ByBlock
 62
     0
370
    -2
100
AcDbLine
 10
0.0
 20
0.0
 30
0.0
 11
-1.0
 21
0.0
 31
0.0
  0
ENDBLK
  5
508
330
506
100
AcDbEntity
  8
0
100
AcDbBlockEnd
  0
ENDSEC
  0
SECTION
  2
ENTITIES
  0
LINE
  5
79
330
1F
100
AcDbEntity
  8
0
  6
Continuous
 62
   150
370
    25
100
AcDbLine
 10
-182.0
 20
-128.25
 30
0.0
 11
-178.9999999552965
 21
-128.25
 31
0.0
  0
LINE
  5
7A
330
1F
100
AcDbEntity
  8
0
  6
Continuous
 62
   150
370
    25
100
AcDbLine
 10
-178.9999999552965
 20
-128.25
 30
0.0
 11
-178.9999999552965
 21
-125.2499999552965
 31
0.0
  0
LINE
  5
7B
330
1F
100
AcDbEntity
  8
0
  6
Continuous
 62
   150
370
    25
100
AcDbLine
 10
-178.9999999552965
 20
-125.2499999552965
 30
0.0
 11
-182.0
 21
-125.2499999552965
 31
0.0
  0
LINE
  5
7C
330
1F
100
AcDbEntity
  8
0
  6
Continuous
 62
   150
370
    25
100
AcDbLine
 10
-182.0
 20
-125.2499999552965
 30
0.0
 11
-182.0
 21
-128.25
 31
0.0
  0
LINE
  5
7D
330
1F
100
AcDbEntity
  8
0
  6
Continuous
 62
   150
370
    25
100
AcDbLine
 10
-182.0
 20
-128.25
 30
0.0
 11
-178.9999999552965
 21
-128.25
 31
0.0
  0
LINE
  5
7E
330
1F
100
AcDbEntity
  8
0
  6
Continuous
 62
   150
370
    25
100
AcDbLine
 10
-178.9999999552965
 20
-128.25
 30
0.0
 11
-178.9999999552965
 21
-125.2499999552965
 31
0.0
  0
LINE
  5
7F
330
1F
100
AcDbEntity
  8
0
  6
Continuous
 62
   150
370
    25
100
AcDbLine
 10
-178.9999999552965
 20
-125.2499999552965
 30
0.0
 11
-182.0
 21
-125.2499999552965
 31
0.0
  0
LINE
  5
80
330
1F
100
AcDbEntity
  8
0
  6
Continuous
 62
   150
370
    25
100
AcDbLine
 10
-182.0
 20
-125.2499999552965
 30
0.0
 11
-182.0
 21
-128.25
 31
0.0
  0
LINE
  5
81
330
1F
100
AcDbEntity
  8
0
  6
Continuous
 62
   150
370
    25
100
AcDbLine
 10
-182.0
 20
-128.25
 30
0.0
 11
-178.9999999552965
 21
-128.25
 31
0.0
  0
LINE
  5
82
330
1F
100
AcDbEntity
  8
0
  6
Continuous
 62
   150
370
    25
100
AcDbLine
 10
-178.9999999552965
 20
-128.25
 30
0.0
 11
-178.9999999552965
 21
-125.2499999552965
 31
0.0
  0
LINE
  5
83
330
1F
100
AcDbEntity
  8
0
  6
Continuous
 62
   150
370
    25
100
AcDbLine
 10
-178.9999999552965
 20
-125.2499999552965
 30
0.0
 11
-182.0
 21
-125.2499999552965
 31
0.0
  0
LINE
  5
84
330
1F
100
AcDbEntity
  8
0
  6
Continuous
 62
   150
370
    25
100
AcDbLine
 10
-182.0
 20
-125.2499999552965
 30
0.0
 11
-182.0
 21
-128.25
 31
0.0
  0
LINE
  5
85
330
1F
100
AcDbEntity
  8
0
  6
Continuous
 62
   150
370
    25
100
AcDbLine
 10
-182.0
 20
-128.25
 30
0.0
 11
-178.9999999552965
 21
-128.25
 31
0.0
  0
LINE
  5
86
330
1F
100
AcDbEntity
  8
0
  6
Continuous
 62
   150
370
    25
100
AcDbLine
 10
-178.9999999552965
 20
-128.25
 30
0.0
 11
-178.9999999552965
 21
-125.2499999552965
 31
0.0
  0
LINE
  5
87
330
1F
100
AcDbEntity
  8
0
  6
Continuous
 62
   150
370
    25
100
AcDbLine
 10
-178.9999999552965
 20
-125.2499999552965
 30
0.0
 11
-182.0
 21
-125.2499999552965
 31
0.0
  0
LINE
  5
88
330
1F
100
AcDbEntity
  8
0
  6
Continuous
 62
   150
370
    25
100
AcDbLine
 10
-182.0
 20
-125.2499999552965
 30
0.0
 11
-182.0
 21
-128.25
 31
0.0
  0
LINE
  5
89
330
1F
100
AcDbEntity
  8
0
  6
Continuous
 62
   150
370
    25
100
AcDbLine
 10
-182.0
 20
-128.25
 30
0.0
 11
-178.9999999552965
 21
-128.25
 31
0.0
  0
LINE
  5
8A
330
1F
100
AcDbEntity
  8
0
  6
Continuous
 62
   150
370
    25
100
AcDbLine
 10
-178.9999999552965
 20
-128.25
 30
0.0
 11
-178.9999999552965
 21
-125.2499999552965
 31
0.0
  0
LINE
  5
8B
330
1F
100
AcDbEntity
  8
0
  6
Continuous
 62
   150
370
    25
100
AcDbLine
 10
-178.9999999552965
 20
-125.2499999552965
 30
0.0
 11
-182.0
 21
-125.2499999552965
 31
0.0
  0
LINE
  5
8C
330
1F
100
AcDbEntity
  8
0
  6
Continuous
 62
   150
370
    25
100
AcDbLine
 10
-182.0
 20
-125.2499999552965
 30
0.0
 11
-182.0
 21
-128.25
 31
0.0
  0
LINE
  5
8D
330
1F
100
AcDbEntity
  8
0
  6
Continuous
 62
   150
370
    25
100
AcDbLine
 10
-172.8999998643994
 20
-114.6499997973442
 30
0.0
 11
-172.8999998643994
 21
105.3500034809113
 31
0.0
  0
LINE
  5
8E
330
1F
100
AcDbEntity
  8
0
  6
Continuous
 62
   150
370
    25
100
AcDbLine
 10
-172.8999998643994
 20
105.3500034809113
 30
0.0
 11
173.1000052914023
 21
105.3500034809113
 31
0.0
  0
LINE
  5
8F
330
1F
100
AcDbEntity
  8
0
  6
Continuous
 62
   150
370
    25
100
AcDbLine
 10
173.1000052914023
 20
105.3500034809113
 30
0.0
 11
173.1000052914023
 21
-114.6499997973442
 31
0.0
  0
LINE
  5
90
330
1F
100
AcDbEntity
  8
0
  6
Continuous
 62
   150
370
    25
100
AcDbLine
 10
173.1000052914023
 20
-114.6499997973442
 30
0.0
 11
-172.8999998643994
 21
-114.6499997973442
 31
0.0
  0
LINE
  5
91
330
1F
100
AcDbEntity
  8
0
  6
Continuous
 62
   150
370
    25
100
AcDbLine
 10
173.1000052914023
 20
-84.64999935030937
 30
0.0
 11
11.10000287741423
 21
-84.64999935030937
 31
0.0
  0
LINE
  5
92
330
1F
100
AcDbEntity
  8
0
  6
Continuous
 62
   150
370
    25
100
AcDbLine
 10
11.10000287741423
 20
-84.64999935030937
 30
0.0
 11
11.10000287741423
 21
-114.6499997973442
 31
0.0
  0
LINE
  5
93
330
1F
100
AcDbEntity
  8
0
  6
Continuous
 62
   150
370
    25
100
AcDbLine
 10
11.10000287741423
 20
-97.64999954402447
 30
0.0
 11
97.10000415891409
 21
-97.64999954402447
 31
0.0
  0
LINE
  5
94
330
1F
100
AcDbEntity
  8
0
  6
Continuous
 62
   150
370
    25
100
AcDbLine
 10
97.10000415891409
 20
-89.1499994173646
 30
0.0
 11
11.10000287741423
 21
-89.1499994173646
 31
0.0
  0
LINE
  5
95
330
1F
100
AcDbEntity
  8
0
  6
Continuous
 62
   150
370
    25
100
AcDbLine
 10
24.10000307112932
 20
-84.64999935030937
 30
0.0
 11
24.10000307112932
 21
-97.64999954402447
 31
0.0
  0
LINE
  5
96
330
1F
100
AcDbEntity
  8
0
  6
Continuous
 62
   150
370
    25
100
AcDbLine
 10
37.10000326484442
 20
-97.64999954402447
 30
0.0
 11
37.10000326484442
 21
-84.64999935030937
 31
0.0
  0
LINE
  5
97
330
1F
100
AcDbEntity
  8
0
  6
Continuous
 62
   150
370
    25
100
AcDbLine
 10
50.10000345855951
 20
-84.64999935030937
 30
0.0
 11
50.10000345855951
 21
-97.64999954402447
 31
0.0
  0
LINE
  5
98
330
1F
100
AcDbEntity
  8
0
  6
Continuous
 62
   150
370
    25
100
AcDbLine
 10
76.1000038459897
 20
-97.64999954402447
 30
0.0
 11
76.1000038459897
 21
-84.64999935030937
 31
0.0
  0
LINE
  5
99
330
1F
100
AcDbEntity
  8
0
  6
Continuous
 62
   150
370
    25
100
AcDbLine
 10
97.10000415891409
 20
-84.64999935030937
 30
0.0
 11
97.10000415891409
 21
-114.6499997973442
 31
0.0
  0
LINE
  5
9A
330
1F
100
AcDbEntity
  8
0
  6
Continuous
 62
   150
370
    25
100
AcDbLine
 10
102.1000042334199
 20
-114.6499997973442
 30
0.0
 11
102.1000042334199
 21
-101.1499995961785
 31
0.0
  0
LINE
  5
9B
330
1F
100
AcDbEntity
  8
0
  6
Continuous
 62
   150
370
    25
100
AcDbLine
 10
97.10000415891409
 20
-101.1499995961785
 30
0.0
 11
173.1000052914023
 21
-101.1499995961785
 31
0.0
  0
LINE
  5
9C
330
1F
100
AcDbEntity
  8
0
  6
Continuous
 62
   150
370
    25
100
AcDbLine
 10
169.1000052317977
 20
-95.14999950677156
 30
0.0
 11
101.1000042185187
 21
-95.14999950677156
 31
0.0
  0
LINE
  5
9D
330
1F
100
AcDbEntity
  8
0
  6
Continuous
 62
   150
370
    25
100
AcDbLine
 10
20.10000301152468
 20
-109.7499997243285
 30
0.0
 11
24.6000030785799
 21
-107.2499996870756
 31
0.0
  0
LINE
  5
9E
330
1F
100
AcDbEntity
  8
0
  6
Continuous
 62
   150
370
    25
100
AcDbLine
 10
24.6000030785799
 20
-107.2499996870756
 30
0.0
 11
29.10000314563513
 21
-109.7499997243285
 31
0.0
  0
LINE
  5
9F
330
1F
100
AcDbEntity
  8
0
  6
Continuous
 62
   150
370
    25
100
AcDbLine
 10
29.10000314563513
 20
-109.7499997243285
 30
0.0
 11
24.6000030785799
 21
-112.2499997615814
 31
0.0
  0
LINE
  5
A0
330
1F
100
AcDbEntity
  8
0
  6
Continuous
 62
   150
370
    25
100
AcDbLine
 10
24.6000030785799
 20
-112.2499997615814
 30
0.0
 11
20.10000301152468
 21
-109.7499997243285
 31
0.0
  0
LINE
  5
A1
330
1F
100
AcDbEntity
  8
0
  6
Continuous
 62
   150
370
    25
100
AcDbLine
 10
24.10000307112932
 20
-108.2499997019768
 30
0.0
 11
25.10000308603048
 21
-108.2499997019768
 31
0.0
  0
LINE
  5
A2
330
1F
100
AcDbEntity
  8
0
  6
Continuous
 62
   150
370
    25
100
AcDbLine
 10
25.10000308603048
 20
-108.2499997019768
 30
0.0
 11
25.10000308603048
 21
-111.2499997466803
 31
0.0
  0
LINE
  5
A3
330
1F
100
AcDbEntity
  8
0
  6
Continuous
 62
   150
370
    25
100
AcDbLine
 10
25.10000308603048
 20
-111.2499997466803
 30
0.0
 11
24.10000307112932
 21
-111.2499997466803
 31
0.0
  0
LINE
  5
A4
330
1F
100
AcDbEntity
  8
0
  6
Continuous
 62
   150
370
    25
100
AcDbLine
 10
24.10000307112932
 20
-111.2499997466803
 30
0.0
 11
24.10000307112932
 21
-108.2499997019768
 31
0.0
  0
LINE
  5
A5
330
1F
100
AcDbEntity
  8
0
  6
Continuous
 62
   150
370
    25
100
AcDbLine
 10
24.10000307112932
 20
-108.2499997019768
 30
0.0
 11
24.30000307410955
 21
-108.2499997019768
 31
0.0
  0
LINE
  5
A6
330
1F
100
AcDbEntity
  8
0
  6
Continuous
 62
   150
370
    25
100
AcDbLine
 10
24.30000307410955
 20
-108.2499997019768
 30
0.0
 11
24.30000307410955
 21
-111.2499997466803
 31
0.0
  0
LINE
  5
A7
330
1F
100
AcDbEntity
  8
0
  6
Continuous
 62
   150
370
    25
100
AcDbLine
 10
24.30000307410955
 20
-111.2499997466803
 30
0.0
 11
24.50000307708979
 21
-111.2499997466803
 31
0.0
  0
LINE
  5
A8
330
1F
100
AcDbEntity
  8
0
  6
Continuous
 62
   150
370
    25
100
AcDbLine
 10
24.50000307708979
 20
-111.2499997466803
 30
0.0
 11
24.50000307708979
 21
-108.2499997019768
 31
0.0
  0
LINE
  5
A9
330
1F
100
AcDbEntity
  8
0
  6
Continuous
 62
   150
370
    25
100
AcDbLine
 10
24.50000307708979
 20
-108.2499997019768
 30
0.0
 11
24.70000308007002
 21
-108.2499997019768
 31
0.0
  0
LINE
  5
AA
330
1F
100
AcDbEntity
  8
0
  6
Continuous
 62
   150
370
    25
100
AcDbLine
 10
24.70000308007002
 20
-108.2499997019768
 30
0.0
 11
24.70000308007002
 21
-111.2499997466803
 31
0.0
  0
LINE
  5
AB
330
1F
100
AcDbEntity
  8
0
  6
Continuous
 62
   150
370
    25
100
AcDbLine
 10
24.70000308007002
 20
-111.2499997466803
 30
0.0
 11
24.90000308305025
 21
-111.2499997466803
 31
0.0
  0
LINE
  5
AC
330
1F
100
AcDbEntity
  8
0
  6
Continuous
 62
   150
370
    25
100
AcDbLine
 10
24.90000308305025
 20
-111.2499997466803
 30
0.0
 11
24.90000308305025
 21
-108.2499997019768
 31
0.0
  0
LINE
  5
AD
330
1F
100
AcDbEntity
  8
0
  6
Continuous
 62
   150
370
    25
100
AcDbLine
 10
24.90000308305025
 20
-108.2499997019768
 30
0.0
 11
25.10000308603048
 21
-108.2499997019768
 31
0.0
  0
LINE
  5
AE
330
1F
100
AcDbEntity
  8
0
  6
Continuous
 62
   150
370
    25
100
AcDbLine
 10
25.10000308603048
 20
-108.2499997019768
 30
0.0
 11
25.10000308603048
 21
-111.2499997466803
 31
0.0
  0
TEXT
  5
B0
330
1F
100
AcDbEntity
  8
0
 62
   150
100
AcDbText
 10
13.10000291
 20
-88.44999941
 30
0.0
 40
3.0
  1
担　当
 41
0.833333335493827
  7
dcStyle0
 72
     5
 11
22.10000305
 21
-88.44999941
 31
0.0
100
AcDbText
  0
TEXT
  5
B1
330
1F
100
AcDbEntity
  8
0
 62
   150
100
AcDbText
 10
26.1000031
 20
-88.44999941
 30
0.0
 40
3.0
  1
製　図
 41
0.8333333354938274
  7
dcStyle0
 72
     5
 11
35.10000324
 21
-88.44999941
 31
0.0
100
AcDbText
  0
TEXT
  5
B2
330
1F
100
AcDbEntity
  8
0
 62
   150
100
AcDbText
 10
39.10000329
 20
-88.44999941
 30
0.0
 40
3.0
  1
検　図
 41
0.833333335493827
  7
dcStyle0
 72
     5
 11
48.10000342999999
 21
-88.44999941
 31
0.0
100
AcDbText
  0
TEXT
  5
B3
330
1F
100
AcDbEntity
  8
0
 62
   150
100
AcDbText
 10
57.10000356
 20
-88.44999941
 30
0.0
 40
3.0
  1
尺　　度
 41
0.8333333354166672
  7
dcStyle0
 72
     5
 11
69.10000374
 21
-88.44999941
 31
0.0
100
AcDbText
  0
TEXT
  5
B4
330
1F
100
AcDbEntity
  8
0
 62
   150
100
AcDbText
 10
80.60000391
 20
-88.44999941
 30
0.0
 40
3.0
  1
作　　図
 41
0.8333333354166668
  7
dcStyle0
 72
     5
 11
92.60000409
 21
-88.44999941
 31
0.0
100
AcDbText
  0
TEXT
  5
B5
330
1F
100
AcDbEntity
  8
0
 62
   150
100
AcDbText
 10
98.10000417
 20
-88.44999941
 30
0.0
 40
3.0
  1
工事名
 41
0.833333335493827
  7
dcStyle0
 72
     5
 11
107.10000431
 21
-88.44999941
 31
0.0
100
AcDbText
  0
TEXT
  5
B6
330
1F
100
AcDbEntity
  8
0
 62
   150
100
AcDbText
 10
98.10000417
 20
-99.94999958
 30
0.0
 40
2.5
  1
図面番号
 41
0.8333333354166671
  7
dcStyle0
 72
     5
 11
108.10000432
 21
-99.94999958
 31
0.0
100
AcDbText
  0
TEXT
  5
B7
330
1F
100
AcDbEntity
  8
0
 62
   150
100
AcDbText
 10
98.10000417
 20
-104.64999965
 30
0.0
 40
2.5
  1
図
 41
0.8333333333333334
  7
dcStyle0
 72
     5
 11
100.60000417
 21
-104.64999965
 31
0.0
100
AcDbText
  0
TEXT
  5
B8
330
1F
100
AcDbEntity
  8
0
 62
   150
100
AcDbText
 10
98.10000417
 20
-107.64999969
 30
0.0
 40
2.5
  1
面
 41
0.8333333333333334
  7
dcStyle0
 72
     5
 11
100.60000417
 21
-107.64999969
 31
0.0
100
AcDbText
  0
TEXT
  5
B9
330
1F
100
AcDbEntity
  8
0
 62
   150
100
AcDbText
 10
98.10000417
 20
-110.64999974
 30
0.0
 40
2.5
  1
名
 41
0.8333333333333334
  7
dcStyle0
 72
     5
 11
100.60000417
 21
-110.64999974
 31
0.0
100
AcDbText
  0
TEXT
  5
BA
330
1F
100
AcDbEntity
  8
0
 62
   150
100
AcDbText
 10
98.10000417
 20
-113.64999978
 30
0.0
 40
2.5
  1
称
 41
0.8333333333333334
  7
dcStyle0
 72
     5
 11
100.60000417
 21
-113.64999978
 31
0.0
100
AcDbText
  0
TEXT
  5
BB
330
1F
100
AcDbEntity
  8
0
 62
   150
100
AcDbText
 10
81.30000392
 20
-94.6499995
 30
0.0
 40
2.5
  1
年
 41
0.8333333333333334
  7
dcStyle0
 72
     5
 11
83.80000392
 21
-94.6499995
 31
0.0
100
AcDbText
  0
TEXT
  5
BC
330
1F
100
AcDbEntity
  8
0
 62
   150
100
AcDbText
 10
87.80000402
 20
-94.6499995
 30
0.0
 40
2.5
  1
月
 41
0.8333333333333334
  7
dcStyle0
 72
     5
 11
90.30000402
 21
-94.6499995
 31
0.0
100
AcDbText
  0
TEXT
  5
BD
330
1F
100
AcDbEntity
  8
0
 62
   150
100
AcDbText
 10
94.30000412
 20
-94.6499995
 30
0.0
 40
2.5
  1
日
 41
0.8333333333333334
  7
dcStyle0
 72
     5
 11
96.80000412
 21
-94.6499995
 31
0.0
100
AcDbText
  0
TEXT
  5
BE
330
1F
100
AcDbEntity
  8
0
 62
   222
100
AcDbText
 10
25.60000309
 20
-104.44999965
 30
0.0
 40
4.0
  1
タイヘイグレーチング
 41
1.041666666041667
  7
dcStyle0
 72
     5
 11
75.60000381
 21
-104.44999965
 31
0.0
100
AcDbText
  0
TEXT
  5
BF
330
1F
100
AcDbEntity
  8
0
 62
   222
100
AcDbText
 10
30.85000317
 20
-111.94999976
 30
0.0
 40
5.0
  1
石田鉄工株式会社
 41
0.8461538481952663
  7
dcStyle0
 72
     5
 11
74.85000386
 21
-111.94999976
 31
0.0
100
AcDbText
  0
LINE
  5
C0
330
1F
100
AcDbEntity
  8
22
  6
Continuous
 62
     2
370
    25
100
AcDbLine
 10
-182.0
 20
-128.25
 30
0.0
 11
-178.9999999552965
 21
-128.25
 31
0.0
  0
LINE
  5
C1
330
1F
100
AcDbEntity
  8
22
  6
Continuous
 62
     2
370
    25
100
AcDbLine
 10
-178.9999999552965
 20
-128.25
 30
0.0
 11
-178.9999999552965
 21
-125.2499999552965
 31
0.0
  0
LINE
  5
C2
330
1F
100
AcDbEntity
  8
22
  6
Continuous
 62
     2
370
    25
100
AcDbLine
 10
-178.9999999552965
 20
-125.2499999552965
 30
0.0
 11
-182.0
 21
-125.2499999552965
 31
0.0
  0
LINE
  5
C3
330
1F
100
AcDbEntity
  8
22
  6
Continuous
 62
     2
370
    25
100
AcDbLine
 10
-182.0
 20
-125.2499999552965
 30
0.0
 11
-182.0
 21
-128.25
 31
0.0
  0
LINE
  5
C4
330
1F
100
AcDbEntity
  8
22
  6
Continuous
 62
     2
370
    25
100
AcDbLine
 10
-182.0
 20
-128.25
 30
0.0
 11
-178.9999999552965
 21
-128.25
 31
0.0
  0
LINE
  5
C5
330
1F
100
AcDbEntity
  8
22
  6
Continuous
 62
     2
370
    25
100
AcDbLine
 10
-178.9999999552965
 20
-128.25
 30
0.0
 11
-178.9999999552965
 21
-125.2499999552965
 31
0.0
  0
LINE
  5
C6
330
1F
100
AcDbEntity
  8
22
  6
Continuous
 62
     2
370
    25
100
AcDbLine
 10
-178.9999999552965
 20
-125.2499999552965
 30
0.0
 11
-182.0
 21
-125.2499999552965
 31
0.0
  0
LINE
  5
C7
330
1F
100
AcDbEntity
  8
22
  6
Continuous
 62
     2
370
    25
100
AcDbLine
 10
-182.0
 20
-125.2499999552965
 30
0.0
 11
-182.0
 21
-128.25
 31
0.0
  0
LINE
  5
C8
330
1F
100
AcDbEntity
  8
22
  6
Continuous
 62
     2
370
    25
100
AcDbLine
 10
-182.0
 20
-128.25
 30
0.0
 11
-178.9999999552965
 21
-128.25
 31
0.0
  0
LINE
  5
C9
330
1F
100
AcDbEntity
  8
22
  6
Continuous
 62
     2
370
    25
100
AcDbLine
 10
-178.9999999552965
 20
-128.25
 30
0.0
 11
-178.9999999552965
 21
-125.2499999552965
 31
0.0
  0
LINE
  5
CA
330
1F
100
AcDbEntity
  8
22
  6
Continuous
 62
     2
370
    25
100
AcDbLine
 10
-178.9999999552965
 20
-125.2499999552965
 30
0.0
 11
-182.0
 21
-125.2499999552965
 31
0.0
  0
LINE
  5
CB
330
1F
100
AcDbEntity
  8
22
  6
Continuous
 62
     2
370
    25
100
AcDbLine
 10
-182.0
 20
-125.2499999552965
 30
0.0
 11
-182.0
 21
-128.25
 31
0.0
  0
TEXT
  5
CC
330
1F
100
AcDbEntity
  8
22
 62
     2
100
AcDbText
 10
103.10000425
 20
-105.74999966
 30
0.0
 40
3.2
  1
GTKH
 41
0.9375000008789062
  7
dcStyle0
 72
     5
 11
115.10000443
 21
-105.74999966
 31
0.0
100
AcDbText
  0
TEXT
  5
CD
330
1F
100
AcDbEntity
  8
22
 62
     2
100
AcDbText
 10
115.10000443
 20
-105.74999966
 30
0.0
 40
3.0
  1
 360 
 41
0.8333333355555557
  7
dcStyle0
 72
     5
 11
127.60000463
 21
-105.74999966
 31
0.0
100
AcDbText
  0
TEXT
  5
CE
330
1F
100
AcDbEntity
  8
22
 62
     2
100
AcDbText
 10
125.10000458
 20
-105.74999966
 30
0.0
 40
3.0
  1
×
 41
0.6944444444444484
  7
dcStyle0
 72
     5
 11
127.60000458
 21
-105.74999966
 31
0.0
100
AcDbText
  0
TEXT
  5
CF
330
1F
100
AcDbEntity
  8
22
 62
     2
100
AcDbText
 10
125.10000458
 20
-105.74999966
 30
0.0
 40
3.0
  1
 493 
 41
0.8333333355555557
  7
dcStyle0
 72
     5
 11
137.60000478
 21
-105.74999966
 31
0.0
100
AcDbText
  0
TEXT
  5
D0
330
1F
100
AcDbEntity
  8
22
 62
     2
100
AcDbText
 10
135.10000473
 20
-105.74999966
 30
0.0
 40
3.0
  1
×
 41
0.6944444444444445
  7
dcStyle0
 72
     5
 11
137.60000473
 21
-105.74999966
 31
0.0
100
AcDbText
  0
TEXT
  5
D1
330
1F
100
AcDbEntity
  8
22
 62
     2
100
AcDbText
 10
135.10000473
 20
-105.74999966
 30
0.0
 40
3.0
  1
 19 
 41
0.8333333354166671
  7
dcStyle0
 72
     5
 11
145.10000488
 21
-105.74999966
 31
0.0
100
AcDbText
  0
TEXT
  5
D2
330
1F
100
AcDbEntity
  8
22
 62
     2
100
AcDbText
 10
142.60000484
 20
-105.74999966
 30
0.0
 40
3.0
  1
/
 41
0.8333333333333334
  7
dcStyle0
 72
     5
 11
145.10000484
 21
-105.74999966
 31
0.0
100
AcDbText
  0
TEXT
  5
D3
330
1F
100
AcDbEntity
  8
22
 62
     2
100
AcDbText
 10
142.60000484
 20
-105.74999966
 30
0.0
 40
3.0
  1
 90 
 41
0.8333333354166671
  7
dcStyle0
 72
     5
 11
152.60000499
 21
-105.74999966
 31
0.0
100
AcDbText
  0
TEXT
  5
D4
330
1F
100
AcDbEntity
  8
22
 62
     2
100
AcDbText
 10
26.3500031
 20
-94.64999950000002
 30
0.0
 40
3.0
  1
岡本　
 41
0.8536585384889943
  7
dcStyle0
 72
     5
 11
36.85000325999999
 21
-94.64999950000002
 31
0.0
100
AcDbText
  0
TEXT
  5
D5
330
1F
100
AcDbEntity
  8
22
 62
     2
100
AcDbText
 10
38.85000329
 20
-94.64999950000002
 30
0.0
 40
3.0
  1
水谷　
 41
0.8536585384889945
  7
dcStyle0
 72
     5
 11
49.35000345
 21
-94.64999950000002
 31
0.0
100
AcDbText
  0
TEXT
  5
D6
330
1F
100
AcDbEntity
  8
22
 62
     2
100
AcDbText
 10
57.40000357
 20
-94.64999950000002
 30
0.0
 40
3.0
  1
1/
 41
1.000000000000001
  7
dcStyle0
 72
     5
 11
63.40000366000001
 21
-94.64999950000002
 31
0.0
100
AcDbText
  0
TEXT
  5
D7
330
1F
100
AcDbEntity
  8
22
 62
     2
100
AcDbText
 10
60.40000361
 20
-94.64999950000002
 30
0.0
 40
3.0
  1
 5 
 41
0.9999999999999998
  7
dcStyle0
 72
     5
 11
69.40000375
 21
-94.64999950000002
 31
0.0
100
AcDbText
  0
TEXT
  5
D8
330
1F
100
AcDbEntity
  8
22
 62
     2
100
AcDbText
 10
110.00000435
 20
-100.14999958
 30
0.0
 40
3.0
  1
GTKH19-250A T-2                       
 41
0.833333335497076
  7
dcStyle0
 72
     5
 11
205.00000583
 21
-100.14999958
 31
0.0
100
AcDbText
  0
TEXT
  5
D9
330
1F
100
AcDbEntity
  8
22
 62
     2
100
AcDbText
 10
74.65000382
 20
-73.24999918000002
 30
0.0
 40
3.5
  1
＜表面処理＞
 41
0.7446808537799908
  7
dcStyle0
 72
     5
 11
95.65000411999999
 21
-73.24999918000002
 31
0.0
100
AcDbText
  0
TEXT
  5
DA
330
1F
100
AcDbEntity
  8
22
 62
     2
100
AcDbText
 10
79.6500039
 20
-78.24999925
 30
0.0
 40
3.5
  1
本体：溶融亜鉛メッキ
 41
0.7446808537256675
  7
dcStyle0
 72
     5
 11
114.65000439
 21
-78.24999925
 31
0.0
100
AcDbText
  0
TEXT
  5
DB
330
1F
100
AcDbEntity
  8
22
 62
     2
100
AcDbText
 10
24.90000308
 20
-78.24999925
 30
0.0
 40
3.0
  1
本体重量：
 41
0.6944444478395061
  7
dcStyle0
 72
     5
 11
37.40000328
 21
-78.24999925
 31
0.0
100
AcDbText
  0
TEXT
  5
DC
330
1F
100
AcDbEntity
  8
22
 62
     2
100
AcDbText
 10
37.40000327000001
 20
-78.24999925
 30
0.0
 40
3.0
  1
 12.1
 41
0.666666670222222
  7
dcStyle0
 72
     5
 11
47.40000343000001
 21
-78.24999925
 31
0.0
100
AcDbText
  0
TEXT
  5
DD
330
1F
100
AcDbEntity
  8
22
 62
     2
100
AcDbText
 10
47.40000342
 20
-78.24999925
 30
0.0
 40
3.0
  1
Kg
 41
0.6666666699999997
  7
dcStyle0
 72
     5
 11
51.40000348
 21
-78.24999925
 31
0.0
100
AcDbText
  0
TEXT
  5
DE
330
1F
100
AcDbEntity
  8
22
 62
     2
100
AcDbText
 10
-107.57599987
 20
81.15000312000001
 30
0.0
 40
2.5
  1
ベアリングバー：
 41
0.8333333352777776
  7
dcStyle0
 72
     5
 11
-87.57599959000002
 21
81.15000312000001
 31
0.0
100
AcDbText
  0
TEXT
  5
DF
330
1F
100
AcDbEntity
  8
22
 62
     2
100
AcDbText
 10
-87.57599957000001
 20
81.15000312000001
 30
0.0
 40
2.5
  1
NF-
 41
0.9999999999999994
  7
dcStyle0
 72
     5
 11
-80.07599945000001
 21
81.15000312000001
 31
0.0
100
AcDbText
  0
TEXT
  5
E0
330
1F
100
AcDbEntity
  8
22
 62
     2
100
AcDbText
 10
-82.07599949000002
 20
81.15000312000001
 30
0.0
 40
2.5
  1
 3 
 41
0.9999999999999994
  7
dcStyle0
 72
     5
 11
-74.57599937000002
 21
81.15000312000001
 31
0.0
100
AcDbText
  0
TEXT
  5
E1
330
1F
100
AcDbEntity
  8
22
 62
     2
100
AcDbText
 10
-77.07599941
 20
81.15000312000001
 30
0.0
 40
2.5
  1
×
 41
0.8333333333333334
  7
dcStyle0
 72
     5
 11
-74.57599941
 21
81.15000312000001
 31
0.0
100
AcDbText
  0
TEXT
  5
E2
330
1F
100
AcDbEntity
  8
22
 62
     2
100
AcDbText
 10
-76.57599941
 20
81.15000312000001
 30
0.0
 40
2.5
  1
 19 
 41
1.0
  7
dcStyle0
 72
     5
 11
-66.57599925999999
 21
81.15000312000001
 31
0.0
100
AcDbText
  0
TEXT
  5
E3
330
1F
100
AcDbEntity
  8
22
 62
     2
100
AcDbText
 10
-103.82199591
 20
76.65000305000001
 30
0.0
 40
2.5
  1
クロスバー：
 41
0.8333333351851854
  7
dcStyle0
 72
     5
 11
-88.82199571
 21
76.65000305000001
 31
0.0
100
AcDbText
  0
TEXT
  5
E4
330
1F
100
AcDbEntity
  8
22
 62
     2
100
AcDbText
 10
-88.82199568
 20
76.65000305000001
 30
0.0
 40
2.5
  1
φ
 41
0.8333333333333334
  7
dcStyle0
 72
     5
 11
-86.32199568
 21
76.65000305000001
 31
0.0
100
AcDbText
  0
TEXT
  5
E5
330
1F
100
AcDbEntity
  8
22
 62
     2
100
AcDbText
 10
-87.32199566
 20
76.65000305000001
 30
0.0
 40
2.5
  1
 5 
 41
0.9999999999999994
  7
dcStyle0
 72
     5
 11
-79.82199554
 21
76.65000305000001
 31
0.0
100
AcDbText
  0
TEXT
  5
E6
330
1F
100
AcDbEntity
  8
22
 62
     2
100
AcDbText
 10
-101.51199831
 20
71.65000298
 30
0.0
 40
2.5
  1
エンドプレート：
 41
0.8333333352777776
  7
dcStyle0
 72
     5
 11
-81.51199803
 21
71.65000298
 31
0.0
100
AcDbText
  0
TEXT
  5
E7
330
1F
100
AcDbEntity
  8
22
 62
     2
100
AcDbText
 10
-81.51199801000001
 20
71.65000298
 30
0.0
 40
2.5
  1
FB
 41
0.9999999999999998
  7
dcStyle0
 72
     5
 11
-76.51199794000001
 21
71.65000298
 31
0.0
100
AcDbText
  0
TEXT
  5
E8
330
1F
100
AcDbEntity
  8
22
 62
     2
100
AcDbText
 10
-78.51199797
 20
71.65000298
 30
0.0
 40
2.5
  1
 3 
 41
0.9999999999999994
  7
dcStyle0
 72
     5
 11
-71.01199785
 21
71.65000298
 31
0.0
100
AcDbText
  0
TEXT
  5
E9
330
1F
100
AcDbEntity
  8
22
 62
     2
100
AcDbText
 10
-73.5119979
 20
71.65000298
 30
0.0
 40
2.5
  1
×
 41
0.8333333333333334
  7
dcStyle0
 72
     5
 11
-71.0119979
 21
71.65000298
 31
0.0
100
AcDbText
  0
TEXT
  5
EA
330
1F
100
AcDbEntity
  8
22
 62
     2
100
AcDbText
 10
-73.01199789
 20
71.65000298
 30
0.0
 40
2.5
  1
 19 
 41
0.9999999999999998
  7
dcStyle0
 72
     5
 11
-63.01199774000001
 21
71.65000298
 31
0.0
100
AcDbText
  0
TEXT
  5
EB
330
1F
100
AcDbEntity
  8
22
 62
     2
100
AcDbText
 10
-106.93199914
 20
-59.14999897000001
 30
0.0
 40
3.0
  1
 12.5 
 41
0.8333333351851854
  7
dcStyle0
 72
     5
 11
-91.93199894
 21
-59.14999897000001
 31
0.0
100
AcDbText
  0
TEXT
  5
EC
330
1F
100
AcDbEntity
  8
22
 62
     2
100
AcDbText
 10
-98.34999875
 20
-52.14999887
 30
0.0
 40
3.0
  1
 493 
 41
0.8333333355555557
  7
dcStyle0
 72
     5
 11
-85.84999855
 21
-52.14999887
 31
0.0
100
AcDbText
  0
TEXT
  5
ED
330
1F
100
AcDbEntity
  8
22
 62
     2
100
AcDbText
 10
-98.34999875
 20
-89.94999943
 30
0.0
 40
3.0
  1
 492 
 41
0.8333333355555557
  7
dcStyle0
 72
     5
 11
-85.84999855
 21
-89.94999943
 31
0.0
100
AcDbText
  0
TEXT
  5
EE
330
1F
100
AcDbEntity
  8
22
 62
     2
100
AcDbText
 10
-3.29999733599362
 20
38.55000249480766
 30
0.0
 40
3.0
  1
 80 
 50
90.0000001836389
 41
0.8333333354166659
  7
dcStyle0
 72
     5
 11
-3.299997368044655
 21
48.55000264480765
 31
0.0
100
AcDbText
  0
TEXT
  5
EF
330
1F
100
AcDbEntity
  8
22
 62
     2
100
AcDbText
 10
-3.299997335993621
 20
19.30000220480765
 30
0.0
 40
3.0
  1
 100 
 50
90.0000001836389
 41
0.8333333355555557
  7
dcStyle0
 72
     5
 11
-3.299997376057415
 21
31.80000240480766
 31
0.0
100
AcDbText
  0
TEXT
  5
F0
330
1F
100
AcDbEntity
  8
22
 62
     2
100
AcDbText
 10
-10.29999743599362
 20
9.300002054807656
 30
0.0
 40
3.0
  1
 360 
 50
90.0000001836389
 41
0.8333333355555557
  7
dcStyle0
 72
     5
 11
-10.29999747605742
 21
21.80000225480766
 31
0.0
100
AcDbText
  0
TEXT
  5
F1
330
1F
100
AcDbEntity
  8
22
 62
     2
100
AcDbText
 10
30.70000317400638
 20
9.300002054807656
 30
0.0
 40
3.0
  1
 348 
 50
90.0000001836389
 41
0.8333333355555554
  7
dcStyle0
 72
     5
 11
30.70000313394258
 21
21.80000225480766
 31
0.0
100
AcDbText
  0
TEXT
  5
F2
330
1F
100
AcDbEntity
  8
22
 62
     2
100
AcDbText
 10
35.70000324480765
 20
8.050002034807655
 30
0.0
 40
3.0
  1
嵩上材外寸
 50
90.0000001836389
 41
0.8333333355555556
  7
dcStyle0
 72
     5
 11
35.7000031967311
 21
23.05000227480765
 31
0.0
100
AcDbText
  0
TEXT
  5
F3
330
1F
100
AcDbEntity
  8
22
 62
     2
100
AcDbText
 10
-6.799997390000001
 20
-34.94999861
 30
0.0
 40
3.0
  1
 19 
 41
0.8333333354166667
  7
dcStyle0
 72
     5
 11
3.200002759999999
 21
-34.94999861
 31
0.0
100
AcDbText
  0
TEXT
  5
F4
330
1F
100
AcDbEntity
  8
22
 62
     2
100
AcDbText
 10
6.1000028
 20
-41.94999871
 30
0.0
 40
3.0
  1
 89 
 41
0.8333333354166667
  7
dcStyle0
 72
     5
 11
16.10000295
 21
-41.94999871
 31
0.0
100
AcDbText
  0
TEXT
  5
F5
330
1F
100
AcDbEntity
  8
22
 62
     2
100
AcDbText
 10
25.81519355544144
 20
71.43763965614772
 30
0.0
 40
3.0
  1
□-3.2X70X40
 41
1.0
  7
dcStyle0
 72
     5
 11
52.21519355544145
 21
71.43763965614772
 31
0.0
100
AcDbText
  0
LINE
  5
F6
330
1F
100
AcDbEntity
  8
32
  6
Continuous
 62
     4
370
    25
100
AcDbLine
 10
-182.0
 20
-128.25
 30
0.0
 11
-178.9999999552965
 21
-128.25
 31
0.0
  0
LINE
  5
F7
330
1F
100
AcDbEntity
  8
32
  6
Continuous
 62
     4
370
    25
100
AcDbLine
 10
-178.9999999552965
 20
-128.25
 30
0.0
 11
-178.9999999552965
 21
-125.2499999552965
 31
0.0
  0
LINE
  5
F8
330
1F
100
AcDbEntity
  8
32
  6
Continuous
 62
     4
370
    25
100
AcDbLine
 10
-178.9999999552965
 20
-125.2499999552965
 30
0.0
 11
-182.0
 21
-125.2499999552965
 31
0.0
  0
LINE
  5
F9
330
1F
100
AcDbEntity
  8
32
  6
Continuous
 62
     4
370
    25
100
AcDbLine
 10
-182.0
 20
-125.2499999552965
 30
0.0
 11
-182.0
 21
-128.25
 31
0.0
  0
LINE
  5
FA
330
1F
100
AcDbEntity
  8
32
  6
Continuous
 62
     4
370
    25
100
AcDbLine
 10
-182.0
 20
-128.25
 30
0.0
 11
-178.9999999552965
 21
-128.25
 31
0.0
  0
LINE
  5
FB
330
1F
100
AcDbEntity
  8
32
  6
Continuous
 62
     4
370
    25
100
AcDbLine
 10
-178.9999999552965
 20
-128.25
 30
0.0
 11
-178.9999999552965
 21
-125.2499999552965
 31
0.0
  0
LINE
  5
FC
330
1F
100
AcDbEntity
  8
32
  6
Continuous
 62
     4
370
    25
100
AcDbLine
 10
-178.9999999552965
 20
-125.2499999552965
 30
0.0
 11
-182.0
 21
-125.2499999552965
 31
0.0
  0
LINE
  5
FD
330
1F
100
AcDbEntity
  8
32
  6
Continuous
 62
     4
370
    25
100
AcDbLine
 10
-182.0
 20
-125.2499999552965
 30
0.0
 11
-182.0
 21
-128.25
 31
0.0
  0
LINE
  5
FE
330
1F
100
AcDbEntity
  8
32
  6
Continuous
 62
     4
370
    25
100
AcDbLine
 10
-182.0
 20
-128.25
 30
0.0
 11
-178.9999999552965
 21
-128.25
 31
0.0
  0
LINE
  5
FF
330
1F
100
AcDbEntity
  8
32
  6
Continuous
 62
     4
370
    25
100
AcDbLine
 10
-178.9999999552965
 20
-128.25
 30
0.0
 11
-178.9999999552965
 21
-125.2499999552965
 31
0.0
  0
LINE
  5
100
330
1F
100
AcDbEntity
  8
32
  6
Continuous
 62
     4
370
    25
100
AcDbLine
 10
-178.9999999552965
 20
-125.2499999552965
 30
0.0
 11
-182.0
 21
-125.2499999552965
 31
0.0
  0
LINE
  5
101
330
1F
100
AcDbEntity
  8
32
  6
Continuous
 62
     4
370
    25
100
AcDbLine
 10
-182.0
 20
-125.2499999552965
 30
0.0
 11
-182.0
 21
-128.25
 31
0.0
  0
LINE
  5
102
330
1F
100
AcDbEntity
  8
32
  6
Continuous
 62
     4
370
    25
100
AcDbLine
 10
-182.0
 20
-128.25
 30
0.0
 11
-178.9999999552965
 21
-128.25
 31
0.0
  0
LINE
  5
103
330
1F
100
AcDbEntity
  8
32
  6
Continuous
 62
     4
370
    25
100
AcDbLine
 10
-178.9999999552965
 20
-128.25
 30
0.0
 11
-178.9999999552965
 21
-125.2499999552965
 31
0.0
  0
LINE
  5
104
330
1F
100
AcDbEntity
  8
32
  6
Continuous
 62
     4
370
    25
100
AcDbLine
 10
-178.9999999552965
 20
-125.2499999552965
 30
0.0
 11
-182.0
 21
-125.2499999552965
 31
0.0
  0
LINE
  5
105
330
1F
100
AcDbEntity
  8
32
  6
Continuous
 62
     4
370
    25
100
AcDbLine
 10
-182.0
 20
-125.2499999552965
 30
0.0
 11
-182.0
 21
-128.25
 31
0.0
  0
LINE
  5
106
330
1F
100
AcDbEntity
  8
32
  6
Continuous
 62
     4
370
    25
100
AcDbLine
 10
-182.0
 20
-128.25
 30
0.0
 11
-178.9999999552965
 21
-128.25
 31
0.0
  0
LINE
  5
107
330
1F
100
AcDbEntity
  8
32
  6
Continuous
 62
     4
370
    25
100
AcDbLine
 10
-178.9999999552965
 20
-128.25
 30
0.0
 11
-178.9999999552965
 21
-125.2499999552965
 31
0.0
  0
LINE
  5
108
330
1F
100
AcDbEntity
  8
32
  6
Continuous
 62
     4
370
    25
100
AcDbLine
 10
-178.9999999552965
 20
-125.2499999552965
 30
0.0
 11
-182.0
 21
-125.2499999552965
 31
0.0
  0
LINE
  5
109
330
1F
100
AcDbEntity
  8
32
  6
Continuous
 62
     4
370
    25
100
AcDbLine
 10
-182.0
 20
-125.2499999552965
 30
0.0
 11
-182.0
 21
-128.25
 31
0.0
  0
LINE
  5
10A
330
1F
100
AcDbEntity
  8
32
  6
Continuous
 62
     4
370
    25
100
AcDbLine
 10
-3.099997334182262
 20
-87.64999939501286
 30
0.0
 11
-1.599997334182262
 21
-87.64999939501286
 31
0.0
  0
LINE
  5
10B
330
1F
100
AcDbEntity
  8
32
  6
Continuous
 62
     4
370
    25
100
AcDbLine
 10
-1.599997334182262
 20
-87.64999939501286
 30
0.0
 11
-1.599997334182262
 21
-107.6499993950129
 31
0.0
  0
LINE
  5
10C
330
1F
100
AcDbEntity
  8
32
  6
Continuous
 62
     4
370
    25
100
AcDbLine
 10
-3.099997334182262
 20
-107.6499993950129
 30
0.0
 11
-3.099997334182262
 21
-87.64999939501286
 31
0.0
  0
LINE
  5
10D
330
1F
100
AcDbEntity
  8
32
  6
Continuous
 62
     4
370
    25
100
AcDbLine
 10
-3.099997334182262
 20
-88.64999939501286
 30
0.0
 11
-1.599997334182262
 21
-88.64999939501286
 31
0.0
  0
LINE
  5
10E
330
1F
100
AcDbEntity
  8
32
  6
Continuous
 62
     4
370
    25
100
AcDbLine
 10
-1.599997334182262
 20
-89.14999939501286
 30
0.0
 11
-3.099997334182262
 21
-89.14999939501286
 31
0.0
  0
LINE
  5
10F
330
1F
100
AcDbEntity
  8
32
  6
Continuous
 62
     4
370
    25
100
AcDbLine
 10
-3.099997334182262
 20
-91.64999939501286
 30
0.0
 11
-1.599997334182262
 21
-91.64999939501286
 31
0.0
  0
LINE
  5
110
330
1F
100
AcDbEntity
  8
32
  6
Continuous
 62
     4
370
    25
100
AcDbLine
 10
-1.599997334182262
 20
-92.14999939501286
 30
0.0
 11
-3.099997334182262
 21
-92.14999939501286
 31
0.0
  0
LINE
  5
111
330
1F
100
AcDbEntity
  8
32
  6
Continuous
 62
     4
370
    25
100
AcDbLine
 10
-3.099997334182262
 20
-95.64999939501286
 30
0.0
 11
-1.599997334182262
 21
-95.64999939501286
 31
0.0
  0
LINE
  5
112
330
1F
100
AcDbEntity
  8
32
  6
Continuous
 62
     4
370
    25
100
AcDbLine
 10
-1.599997334182262
 20
-96.14999939501286
 30
0.0
 11
-3.099997334182262
 21
-96.14999939501286
 31
0.0
  0
LINE
  5
113
330
1F
100
AcDbEntity
  8
32
  6
Continuous
 62
     4
370
    25
100
AcDbLine
 10
-3.099997334182262
 20
-98.64999939501286
 30
0.0
 11
-1.599997334182262
 21
-98.64999939501286
 31
0.0
  0
LINE
  5
114
330
1F
100
AcDbEntity
  8
32
  6
Continuous
 62
     4
370
    25
100
AcDbLine
 10
-1.599997334182262
 20
-99.14999939501286
 30
0.0
 11
-3.099997334182262
 21
-99.14999939501286
 31
0.0
  0
LINE
  5
115
330
1F
100
AcDbEntity
  8
32
  6
Continuous
 62
     4
370
    25
100
AcDbLine
 10
-3.099997334182262
 20
-102.6499993950129
 30
0.0
 11
-1.599997334182262
 21
-102.6499993950129
 31
0.0
  0
LINE
  5
116
330
1F
100
AcDbEntity
  8
32
  6
Continuous
 62
     4
370
    25
100
AcDbLine
 10
-1.599997334182262
 20
-103.1499993950129
 30
0.0
 11
-3.099997334182262
 21
-103.1499993950129
 31
0.0
  0
LINE
  5
117
330
1F
100
AcDbEntity
  8
32
  6
Continuous
 62
     4
370
    25
100
AcDbLine
 10
-3.099997334182262
 20
-105.6499993950129
 30
0.0
 11
-1.599997334182262
 21
-105.6499993950129
 31
0.0
  0
LINE
  5
118
330
1F
100
AcDbEntity
  8
32
  6
Continuous
 62
     4
370
    25
100
AcDbLine
 10
-1.599997334182262
 20
-106.1499993950129
 30
0.0
 11
-3.099997334182262
 21
-106.1499993950129
 31
0.0
  0
LINE
  5
119
330
1F
100
AcDbEntity
  8
32
  6
Continuous
 62
     4
370
    25
100
AcDbLine
 10
-3.099997334182262
 20
-87.14999938756227
 30
0.0
 11
-3.099997334182262
 21
-83.14999932795763
 31
0.0
  0
LINE
  5
11A
330
1F
100
AcDbEntity
  8
32
  6
Continuous
 62
     4
370
    25
100
AcDbLine
 10
-3.099997334182262
 20
-83.64999933540821
 30
0.0
 11
-4.599997356534004
 21
-83.24999932944775
 31
0.0
  0
LINE
  5
11B
330
1F
100
AcDbEntity
  8
32
  6
Continuous
 62
     4
370
    25
100
AcDbLine
 10
-4.599997356534004
 20
-84.04999934136868
 30
0.0
 11
-3.099997334182262
 21
-83.64999933540821
 31
0.0
  0
LINE
  5
11C
330
1F
100
AcDbEntity
  8
32
  6
Continuous
 62
     4
370
    25
100
AcDbLine
 10
-3.099997334182262
 20
-83.64999933540821
 30
0.0
 11
-6.099997378885746
 21
-83.64999933540821
 31
0.0
  0
LINE
  5
11D
330
1F
100
AcDbEntity
  8
32
  6
Continuous
 62
     4
370
    25
100
AcDbLine
 10
-3.099997334182262
 20
-83.64999933540821
 30
0.0
 11
-1.599997311830521
 21
-83.64999933540821
 31
0.0
  0
LINE
  5
11E
330
1F
100
AcDbEntity
  8
32
  6
Continuous
 62
     4
370
    25
100
AcDbLine
 10
-1.599997311830521
 20
-83.64999933540821
 30
0.0
 11
-0.0999972894787788
 21
-83.24999932944775
 31
0.0
  0
LINE
  5
11F
330
1F
100
AcDbEntity
  8
32
  6
Continuous
 62
     4
370
    25
100
AcDbLine
 10
-0.0999972894787788
 20
-84.04999934136868
 30
0.0
 11
-1.599997311830521
 21
-83.64999933540821
 31
0.0
  0
LINE
  5
120
330
1F
100
AcDbEntity
  8
32
  6
Continuous
 62
     4
370
    25
100
AcDbLine
 10
-1.599997311830521
 20
-83.64999933540821
 30
0.0
 11
1.400002732872963
 21
-83.64999933540821
 31
0.0
  0
LINE
  5
121
330
1F
100
AcDbEntity
  8
32
  6
Continuous
 62
     4
370
    25
100
AcDbLine
 10
-1.599997311830521
 20
-83.14999932795763
 30
0.0
 11
-1.599997311830521
 21
-87.14999938756227
 31
0.0
  0
LINE
  5
122
330
1F
100
AcDbEntity
  8
32
  6
Continuous
 62
     4
370
    25
100
AcDbLine
 10
6.400003030896187
 20
-113.1499994024634
 30
0.0
 11
-19.09999734908342
 21
-113.1499994024634
 31
0.0
  0
TEXT
  5
123
330
1F
100
AcDbEntity
  8
32
 62
     2
100
AcDbText
 10
-3.34999734
 20
-83.14999933
 30
0.0
 40
2.5
  1
3
 41
0.8
  7
dcStyle0
 72
     5
 11
-1.34999734
 21
-83.14999933
 31
0.0
100
AcDbText
  0
TEXT
  5
124
330
1F
100
AcDbEntity
  8
32
 62
     2
100
AcDbText
 10
-18.09999733
 20
-112.6499994
 30
0.0
 40
2.5
  1
主部材ノンスリップ部詳細
 41
0.6666666697222222
  7
dcStyle0
 72
     5
 11
5.900002999999998
 21
-112.6499994
 31
0.0
100
AcDbText
  0
LINE
  5
125
330
1F
100
AcDbEntity
  8
16
  6
Continuous
 62
     3
370
    25
100
AcDbLine
 10
-182.0
 20
-128.25
 30
0.0
 11
-178.9999999552965
 21
-128.25
 31
0.0
  0
LINE
  5
126
330
1F
100
AcDbEntity
  8
16
  6
Continuous
 62
     3
370
    25
100
AcDbLine
 10
-178.9999999552965
 20
-128.25
 30
0.0
 11
-178.9999999552965
 21
-125.2499999552965
 31
0.0
  0
LINE
  5
127
330
1F
100
AcDbEntity
  8
16
  6
Continuous
 62
     3
370
    25
100
AcDbLine
 10
-178.9999999552965
 20
-125.2499999552965
 30
0.0
 11
-182.0
 21
-125.2499999552965
 31
0.0
  0
LINE
  5
128
330
1F
100
AcDbEntity
  8
16
  6
Continuous
 62
     3
370
    25
100
AcDbLine
 10
-182.0
 20
-125.2499999552965
 30
0.0
 11
-182.0
 21
-128.25
 31
0.0
  0
LINE
  5
129
330
1F
100
AcDbEntity
  8
16
  6
Continuous
 62
     3
370
    25
100
AcDbLine
 10
-182.0
 20
-128.25
 30
0.0
 11
-178.9999999552965
 21
-128.25
 31
0.0
  0
LINE
  5
12A
330
1F
100
AcDbEntity
  8
16
  6
Continuous
 62
     3
370
    25
100
AcDbLine
 10
-178.9999999552965
 20
-128.25
 30
0.0
 11
-178.9999999552965
 21
-125.2499999552965
 31
0.0
  0
LINE
  5
12B
330
1F
100
AcDbEntity
  8
16
  6
Continuous
 62
     3
370
    25
100
AcDbLine
 10
-178.9999999552965
 20
-125.2499999552965
 30
0.0
 11
-182.0
 21
-125.2499999552965
 31
0.0
  0
LINE
  5
12C
330
1F
100
AcDbEntity
  8
16
  6
Continuous
 62
     3
370
    25
100
AcDbLine
 10
-182.0
 20
-125.2499999552965
 30
0.0
 11
-182.0
 21
-128.25
 31
0.0
  0
LINE
  5
12D
330
1F
100
AcDbEntity
  8
16
  6
Continuous
 62
     3
370
    25
100
AcDbLine
 10
-182.0
 20
-128.25
 30
0.0
 11
-178.9999999552965
 21
-128.25
 31
0.0
  0
LINE
  5
12E
330
1F
100
AcDbEntity
  8
16
  6
Continuous
 62
     3
370
    25
100
AcDbLine
 10
-178.9999999552965
 20
-128.25
 30
0.0
 11
-178.9999999552965
 21
-125.2499999552965
 31
0.0
  0
LINE
  5
12F
330
1F
100
AcDbEntity
  8
16
  6
Continuous
 62
     3
370
    25
100
AcDbLine
 10
-178.9999999552965
 20
-125.2499999552965
 30
0.0
 11
-182.0
 21
-125.2499999552965
 31
0.0
  0
LINE
  5
130
330
1F
100
AcDbEntity
  8
16
  6
Continuous
 62
     3
370
    25
100
AcDbLine
 10
-182.0
 20
-125.2499999552965
 30
0.0
 11
-182.0
 21
-128.25
 31
0.0
  0
LINE
  5
131
330
1F
100
AcDbEntity
  8
16
  6
Continuous
 62
     3
370
    25
100
AcDbLine
 10
-182.0
 20
-128.25
 30
0.0
 11
-178.9999999552965
 21
-128.25
 31
0.0
  0
LINE
  5
132
330
1F
100
AcDbEntity
  8
16
  6
Continuous
 62
     3
370
    25
100
AcDbLine
 10
-178.9999999552965
 20
-128.25
 30
0.0
 11
-178.9999999552965
 21
-125.2499999552965
 31
0.0
  0
LINE
  5
133
330
1F
100
AcDbEntity
  8
16
  6
Continuous
 62
     3
370
    25
100
AcDbLine
 10
-178.9999999552965
 20
-125.2499999552965
 30
0.0
 11
-182.0
 21
-125.2499999552965
 31
0.0
  0
LINE
  5
134
330
1F
100
AcDbEntity
  8
16
  6
Continuous
 62
     3
370
    25
100
AcDbLine
 10
-182.0
 20
-125.2499999552965
 30
0.0
 11
-182.0
 21
-128.25
 31
0.0
  0
LINE
  5
135
330
1F
100
AcDbEntity
  8
16
  6
Continuous
 62
     3
370
    25
100
AcDbLine
 10
-182.0
 20
-128.25
 30
0.0
 11
-178.9999999552965
 21
-128.25
 31
0.0
  0
LINE
  5
136
330
1F
100
AcDbEntity
  8
16
  6
Continuous
 62
     3
370
    25
100
AcDbLine
 10
-178.9999999552965
 20
-128.25
 30
0.0
 11
-178.9999999552965
 21
-125.2499999552965
 31
0.0
  0
LINE
  5
137
330
1F
100
AcDbEntity
  8
16
  6
Continuous
 62
     3
370
    25
100
AcDbLine
 10
-178.9999999552965
 20
-125.2499999552965
 30
0.0
 11
-182.0
 21
-125.2499999552965
 31
0.0
  0
LINE
  5
138
330
1F
100
AcDbEntity
  8
16
  6
Continuous
 62
     3
370
    25
100
AcDbLine
 10
-182.0
 20
-125.2499999552965
 30
0.0
 11
-182.0
 21
-128.25
 31
0.0
  0
LINE
  5
139
330
1F
100
AcDbEntity
  8
16
  6
Continuous
 62
     3
370
    25
100
AcDbLine
 10
-141.3999993950129
 20
51.55000267922878
 30
0.0
 11
-42.79999792575836
 21
51.55000267922878
 31
0.0
  0
LINE
  5
13A
330
1F
100
AcDbEntity
  8
16
  6
Continuous
 62
     3
370
    25
100
AcDbLine
 10
-42.79999792575836
 20
51.55000267922878
 30
0.0
 11
-42.79999792575836
 21
50.95000267028809
 31
0.0
  0
LINE
  5
13B
330
1F
100
AcDbEntity
  8
16
  6
Continuous
 62
     3
370
    25
100
AcDbLine
 10
-42.79999792575836
 20
50.95000267028809
 30
0.0
 11
-141.3999993950129
 21
50.95000267028809
 31
0.0
  0
LINE
  5
13C
330
1F
100
AcDbEntity
  8
16
  6
Continuous
 62
     3
370
    25
100
AcDbLine
 10
-141.3999993950129
 20
50.95000267028809
 30
0.0
 11
-141.3999993950129
 21
51.55000267922878
 31
0.0
  0
LINE
  5
13D
330
1F
100
AcDbEntity
  8
16
  6
Continuous
 62
     3
370
    25
100
AcDbLine
 10
-141.3999993950129
 20
-19.84999838471413
 30
0.0
 11
-42.79999792575836
 21
-19.84999838471413
 31
0.0
  0
LINE
  5
13E
330
1F
100
AcDbEntity
  8
16
  6
Continuous
 62
     3
370
    25
100
AcDbLine
 10
-42.79999792575836
 20
-19.84999838471413
 30
0.0
 11
-42.79999792575836
 21
-20.44999839365482
 31
0.0
  0
LINE
  5
13F
330
1F
100
AcDbEntity
  8
16
  6
Continuous
 62
     3
370
    25
100
AcDbLine
 10
-42.79999792575836
 20
-20.44999839365482
 30
0.0
 11
-141.3999993950129
 21
-20.44999839365482
 31
0.0
  0
LINE
  5
140
330
1F
100
AcDbEntity
  8
16
  6
Continuous
 62
     3
370
    25
100
AcDbLine
 10
-141.3999993950129
 20
-20.44999839365482
 30
0.0
 11
-141.3999993950129
 21
-19.84999838471413
 31
0.0
  0
LINE
  5
141
330
1F
100
AcDbEntity
  8
16
  6
Continuous
 62
     3
370
    25
100
AcDbLine
 10
-141.3999993950129
 20
36.05000244826078
 30
0.0
 11
-42.79999792575836
 21
36.05000244826078
 31
0.0
  0
LINE
  5
142
330
1F
100
AcDbEntity
  8
16
  6
Continuous
 62
     3
370
    25
100
AcDbLine
 10
-42.79999792575836
 20
36.05000244826078
 30
0.0
 11
-42.79999792575836
 21
35.05000243335962
 31
0.0
  0
LINE
  5
143
330
1F
100
AcDbEntity
  8
16
  6
Continuous
 62
     3
370
    25
100
AcDbLine
 10
-42.79999792575836
 20
35.05000243335962
 30
0.0
 11
-141.3999993950129
 21
35.05000243335962
 31
0.0
  0
LINE
  5
144
330
1F
100
AcDbEntity
  8
16
  6
Continuous
 62
     3
370
    25
100
AcDbLine
 10
-141.3999993950129
 20
35.05000243335962
 30
0.0
 11
-141.3999993950129
 21
36.05000244826078
 31
0.0
  0
LINE
  5
145
330
1F
100
AcDbEntity
  8
16
  6
Continuous
 62
     3
370
    25
100
AcDbLine
 10
-141.3999993950129
 20
16.05000215023756
 30
0.0
 11
-42.79999792575836
 21
16.05000215023756
 31
0.0
  0
LINE
  5
146
330
1F
100
AcDbEntity
  8
16
  6
Continuous
 62
     3
370
    25
100
AcDbLine
 10
-42.79999792575836
 20
15.0500021353364
 30
0.0
 11
-42.79999792575836
 21
16.05000215023756
 31
0.0
  0
LINE
  5
147
330
1F
100
AcDbEntity
  8
16
  6
Continuous
 62
     3
370
    25
100
AcDbLine
 10
-141.3999993950129
 20
15.0500021353364
 30
0.0
 11
-42.79999792575836
 21
15.0500021353364
 31
0.0
  0
LINE
  5
148
330
1F
100
AcDbEntity
  8
16
  6
Continuous
 62
     3
370
    25
100
AcDbLine
 10
-141.3999993950129
 20
15.0500021353364
 30
0.0
 11
-141.3999993950129
 21
16.05000215023756
 31
0.0
  0
LINE
  5
149
330
1F
100
AcDbEntity
  8
16
  6
Continuous
 62
     3
370
    25
100
AcDbLine
 10
-141.3999993950129
 20
-3.949998147785664
 30
0.0
 11
-42.79999792575836
 21
-3.949998147785664
 31
0.0
  0
LINE
  5
14A
330
1F
100
AcDbEntity
  8
16
  6
Continuous
 62
     3
370
    25
100
AcDbLine
 10
-42.79999792575836
 20
-4.949998162686825
 30
0.0
 11
-42.79999792575836
 21
-3.949998147785664
 31
0.0
  0
LINE
  5
14B
330
1F
100
AcDbEntity
  8
16
  6
Continuous
 62
     3
370
    25
100
AcDbLine
 10
-141.3999993950129
 20
-4.949998162686825
 30
0.0
 11
-42.79999792575836
 21
-4.949998162686825
 31
0.0
  0
LINE
  5
14C
330
1F
100
AcDbEntity
  8
16
  6
Continuous
 62
     3
370
    25
100
AcDbLine
 10
-141.3999993950129
 20
-4.949998162686825
 30
0.0
 11
-141.3999993950129
 21
-3.949998147785664
 31
0.0
  0
LINE
  5
14D
330
1F
100
AcDbEntity
  8
16
  6
Continuous
 62
     3
370
    25
100
AcDbLine
 10
-141.3999993950129
 20
-19.84999838471413
 30
0.0
 11
-141.3999993950129
 21
50.95000267028809
 31
0.0
  0
LINE
  5
14E
330
1F
100
AcDbEntity
  8
16
  6
Continuous
 62
     3
370
    25
100
AcDbLine
 10
-141.3999993950129
 20
-19.84999838471413
 30
0.0
 11
-140.7999993860722
 21
-19.84999838471413
 31
0.0
  0
LINE
  5
14F
330
1F
100
AcDbEntity
  8
16
  6
Continuous
 62
     3
370
    25
100
AcDbLine
 10
-140.7999993860722
 20
-19.84999838471413
 30
0.0
 11
-140.7999993860722
 21
-4.949998162686825
 31
0.0
  0
LINE
  5
150
330
1F
100
AcDbEntity
  8
16
  6
Continuous
 62
     3
370
    25
100
AcDbLine
 10
-140.7999993860722
 20
-3.949998147785664
 30
0.0
 11
-140.7999993860722
 21
15.0500021353364
 31
0.0
  0
LINE
  5
151
330
1F
100
AcDbEntity
  8
16
  6
Continuous
 62
     3
370
    25
100
AcDbLine
 10
-140.7999993860722
 20
16.05000215023756
 30
0.0
 11
-140.7999993860722
 21
35.05000243335962
 31
0.0
  0
LINE
  5
152
330
1F
100
AcDbEntity
  8
16
  6
Continuous
 62
     3
370
    25
100
AcDbLine
 10
-140.7999993860722
 20
36.05000244826078
 30
0.0
 11
-140.7999993860722
 21
50.95000267028809
 31
0.0
  0
LINE
  5
153
330
1F
100
AcDbEntity
  8
16
  6
Continuous
 62
     3
370
    25
100
AcDbLine
 10
-141.3999993950129
 20
50.95000267028809
 30
0.0
 11
-140.7999993860722
 21
50.95000267028809
 31
0.0
  0
LINE
  5
154
330
1F
100
AcDbEntity
  8
16
  6
Continuous
 62
     3
370
    25
100
AcDbLine
 10
-138.8879998458624
 20
-19.84999838471413
 30
0.0
 11
-138.8879998458624
 21
-4.949998162686825
 31
0.0
  0
LINE
  5
155
330
1F
100
AcDbEntity
  8
16
  6
Continuous
 62
     3
370
    25
100
AcDbLine
 10
-138.8879998458624
 20
-3.949998147785664
 30
0.0
 11
-138.8879998458624
 21
15.0500021353364
 31
0.0
  0
LINE
  5
156
330
1F
100
AcDbEntity
  8
16
  6
Continuous
 62
     3
370
    25
100
AcDbLine
 10
-138.8879998458624
 20
16.05000215023756
 30
0.0
 11
-138.8879998458624
 21
35.05000243335962
 31
0.0
  0
LINE
  5
157
330
1F
100
AcDbEntity
  8
16
  6
Continuous
 62
     3
370
    25
100
AcDbLine
 10
-138.8879998458624
 20
36.05000244826078
 30
0.0
 11
-138.8879998458624
 21
50.95000267028809
 31
0.0
  0
LINE
  5
158
330
1F
100
AcDbEntity
  8
16
  6
Continuous
 62
     3
370
    25
100
AcDbLine
 10
-138.8879998458624
 20
-19.84999838471413
 30
0.0
 11
-138.2879998369217
 21
-19.84999838471413
 31
0.0
  0
LINE
  5
159
330
1F
100
AcDbEntity
  8
16
  6
Continuous
 62
     3
370
    25
100
AcDbLine
 10
-138.2879998369217
 20
-19.84999838471413
 30
0.0
 11
-138.2879998369217
 21
-4.949998162686825
 31
0.0
  0
LINE
  5
15A
330
1F
100
AcDbEntity
  8
16
  6
Continuous
 62
     3
370
    25
100
AcDbLine
 10
-138.2879998369217
 20
-3.949998147785664
 30
0.0
 11
-138.2879998369217
 21
15.0500021353364
 31
0.0
  0
LINE
  5
15B
330
1F
100
AcDbEntity
  8
16
  6
Continuous
 62
     3
370
    25
100
AcDbLine
 10
-138.2879998369217
 20
16.05000215023756
 30
0.0
 11
-138.2879998369217
 21
35.05000243335962
 31
0.0
  0
LINE
  5
15C
330
1F
100
AcDbEntity
  8
16
  6
Continuous
 62
     3
370
    25
100
AcDbLine
 10
-138.2879998369217
 20
36.05000244826078
 30
0.0
 11
-138.2879998369217
 21
50.95000267028809
 31
0.0
  0
LINE
  5
15D
330
1F
100
AcDbEntity
  8
16
  6
Continuous
 62
     3
370
    25
100
AcDbLine
 10
-138.8879998458624
 20
50.95000267028809
 30
0.0
 11
-138.2879998369217
 21
50.95000267028809
 31
0.0
  0
LINE
  5
15E
330
1F
100
AcDbEntity
  8
16
  6
Continuous
 62
     3
370
    25
100
AcDbLine
 10
-136.3760002967119
 20
-19.84999838471413
 30
0.0
 11
-136.3760002967119
 21
-4.949998162686825
 31
0.0
  0
LINE
  5
15F
330
1F
100
AcDbEntity
  8
16
  6
Continuous
 62
     3
370
    25
100
AcDbLine
 10
-136.3760002967119
 20
-3.949998147785664
 30
0.0
 11
-136.3760002967119
 21
15.0500021353364
 31
0.0
  0
LINE
  5
160
330
1F
100
AcDbEntity
  8
16
  6
Continuous
 62
     3
370
    25
100
AcDbLine
 10
-136.3760002967119
 20
16.05000215023756
 30
0.0
 11
-136.3760002967119
 21
35.05000243335962
 31
0.0
  0
LINE
  5
161
330
1F
100
AcDbEntity
  8
16
  6
Continuous
 62
     3
370
    25
100
AcDbLine
 10
-136.3760002967119
 20
36.05000244826078
 30
0.0
 11
-136.3760002967119
 21
50.95000267028809
 31
0.0
  0
LINE
  5
162
330
1F
100
AcDbEntity
  8
16
  6
Continuous
 62
     3
370
    25
100
AcDbLine
 10
-136.3760002967119
 20
-19.84999838471413
 30
0.0
 11
-135.7760002877712
 21
-19.84999838471413
 31
0.0
  0
LINE
  5
163
330
1F
100
AcDbEntity
  8
16
  6
Continuous
 62
     3
370
    25
100
AcDbLine
 10
-135.7760002877712
 20
-19.84999838471413
 30
0.0
 11
-135.7760002877712
 21
-4.949998162686825
 31
0.0
  0
LINE
  5
164
330
1F
100
AcDbEntity
  8
16
  6
Continuous
 62
     3
370
    25
100
AcDbLine
 10
-135.7760002877712
 20
-3.949998147785664
 30
0.0
 11
-135.7760002877712
 21
15.0500021353364
 31
0.0
  0
LINE
  5
165
330
1F
100
AcDbEntity
  8
16
  6
Continuous
 62
     3
370
    25
100
AcDbLine
 10
-135.7760002877712
 20
16.05000215023756
 30
0.0
 11
-135.7760002877712
 21
35.05000243335962
 31
0.0
  0
LINE
  5
166
330
1F
100
AcDbEntity
  8
16
  6
Continuous
 62
     3
370
    25
100
AcDbLine
 10
-135.7760002877712
 20
36.05000244826078
 30
0.0
 11
-135.7760002877712
 21
50.95000267028809
 31
0.0
  0
LINE
  5
167
330
1F
100
AcDbEntity
  8
16
  6
Continuous
 62
     3
370
    25
100
AcDbLine
 10
-136.3760002967119
 20
50.95000267028809
 30
0.0
 11
-135.7760002877712
 21
50.95000267028809
 31
0.0
  0
LINE
  5
168
330
1F
100
AcDbEntity
  8
16
  6
Continuous
 62
     3
370
    25
100
AcDbLine
 10
-133.8640007475615
 20
-19.84999838471413
 30
0.0
 11
-133.8640007475615
 21
-4.949998162686825
 31
0.0
  0
LINE
  5
169
330
1F
100
AcDbEntity
  8
16
  6
Continuous
 62
     3
370
    25
100
AcDbLine
 10
-133.8640007475615
 20
-3.949998147785664
 30
0.0
 11
-133.8640007475615
 21
15.0500021353364
 31
0.0
  0
LINE
  5
16A
330
1F
100
AcDbEntity
  8
16
  6
Continuous
 62
     3
370
    25
100
AcDbLine
 10
-133.8640007475615
 20
16.05000215023756
 30
0.0
 11
-133.8640007475615
 21
35.05000243335962
 31
0.0
  0
LINE
  5
16B
330
1F
100
AcDbEntity
  8
16
  6
Continuous
 62
     3
370
    25
100
AcDbLine
 10
-133.8640007475615
 20
36.05000244826078
 30
0.0
 11
-133.8640007475615
 21
50.95000267028809
 31
0.0
  0
LINE
  5
16C
330
1F
100
AcDbEntity
  8
16
  6
Continuous
 62
     3
370
    25
100
AcDbLine
 10
-133.8640007475615
 20
-19.84999838471413
 30
0.0
 11
-133.2640007386208
 21
-19.84999838471413
 31
0.0
  0
LINE
  5
16D
330
1F
100
AcDbEntity
  8
16
  6
Continuous
 62
     3
370
    25
100
AcDbLine
 10
-133.2640007386208
 20
-19.84999838471413
 30
0.0
 11
-133.2640007386208
 21
-4.949998162686825
 31
0.0
  0
LINE
  5
16E
330
1F
100
AcDbEntity
  8
16
  6
Continuous
 62
     3
370
    25
100
AcDbLine
 10
-133.2640007386208
 20
-3.949998147785664
 30
0.0
 11
-133.2640007386208
 21
15.0500021353364
 31
0.0
  0
LINE
  5
16F
330
1F
100
AcDbEntity
  8
16
  6
Continuous
 62
     3
370
    25
100
AcDbLine
 10
-133.2640007386208
 20
16.05000215023756
 30
0.0
 11
-133.2640007386208
 21
35.05000243335962
 31
0.0
  0
LINE
  5
170
330
1F
100
AcDbEntity
  8
16
  6
Continuous
 62
     3
370
    25
100
AcDbLine
 10
-133.2640007386208
 20
36.05000244826078
 30
0.0
 11
-133.2640007386208
 21
50.95000267028809
 31
0.0
  0
LINE
  5
171
330
1F
100
AcDbEntity
  8
16
  6
Continuous
 62
     3
370
    25
100
AcDbLine
 10
-133.8640007475615
 20
50.95000267028809
 30
0.0
 11
-133.2640007386208
 21
50.95000267028809
 31
0.0
  0
LINE
  5
172
330
1F
100
AcDbEntity
  8
16
  6
Continuous
 62
     3
370
    25
100
AcDbLine
 10
-131.3519981466532
 20
-19.84999838471413
 30
0.0
 11
-131.3519981466532
 21
-4.949998162686825
 31
0.0
  0
LINE
  5
173
330
1F
100
AcDbEntity
  8
16
  6
Continuous
 62
     3
370
    25
100
AcDbLine
 10
-131.3519981466532
 20
-3.949998147785664
 30
0.0
 11
-131.3519981466532
 21
15.0500021353364
 31
0.0
  0
LINE
  5
174
330
1F
100
AcDbEntity
  8
16
  6
Continuous
 62
     3
370
    25
100
AcDbLine
 10
-131.3519981466532
 20
16.05000215023756
 30
0.0
 11
-131.3519981466532
 21
35.05000243335962
 31
0.0
  0
LINE
  5
175
330
1F
100
AcDbEntity
  8
16
  6
Continuous
 62
     3
370
    25
100
AcDbLine
 10
-131.3519981466532
 20
36.05000244826078
 30
0.0
 11
-131.3519981466532
 21
50.95000267028809
 31
0.0
  0
LINE
  5
176
330
1F
100
AcDbEntity
  8
16
  6
Continuous
 62
     3
370
    25
100
AcDbLine
 10
-131.3519981466532
 20
-19.84999838471413
 30
0.0
 11
-130.7519981377125
 21
-19.84999838471413
 31
0.0
  0
LINE
  5
177
330
1F
100
AcDbEntity
  8
16
  6
Continuous
 62
     3
370
    25
100
AcDbLine
 10
-130.7519981377125
 20
-19.84999838471413
 30
0.0
 11
-130.7519981377125
 21
-4.949998162686825
 31
0.0
  0
LINE
  5
178
330
1F
100
AcDbEntity
  8
16
  6
Continuous
 62
     3
370
    25
100
AcDbLine
 10
-130.7519981377125
 20
-3.949998147785664
 30
0.0
 11
-130.7519981377125
 21
15.0500021353364
 31
0.0
  0
LINE
  5
179
330
1F
100
AcDbEntity
  8
16
  6
Continuous
 62
     3
370
    25
100
AcDbLine
 10
-130.7519981377125
 20
16.05000215023756
 30
0.0
 11
-130.7519981377125
 21
35.05000243335962
 31
0.0
  0
LINE
  5
17A
330
1F
100
AcDbEntity
  8
16
  6
Continuous
 62
     3
370
    25
100
AcDbLine
 10
-130.7519981377125
 20
36.05000244826078
 30
0.0
 11
-130.7519981377125
 21
50.95000267028809
 31
0.0
  0
LINE
  5
17B
330
1F
100
AcDbEntity
  8
16
  6
Continuous
 62
     3
370
    25
100
AcDbLine
 10
-131.3519981466532
 20
50.95000267028809
 30
0.0
 11
-130.7519981377125
 21
50.95000267028809
 31
0.0
  0
LINE
  5
17C
330
1F
100
AcDbEntity
  8
16
  6
Continuous
 62
     3
370
    25
100
AcDbLine
 10
-128.8400016492606
 20
-19.84999838471413
 30
0.0
 11
-128.8400016492606
 21
-4.949998162686825
 31
0.0
  0
LINE
  5
17D
330
1F
100
AcDbEntity
  8
16
  6
Continuous
 62
     3
370
    25
100
AcDbLine
 10
-128.8400016492606
 20
-3.949998147785664
 30
0.0
 11
-128.8400016492606
 21
15.0500021353364
 31
0.0
  0
LINE
  5
17E
330
1F
100
AcDbEntity
  8
16
  6
Continuous
 62
     3
370
    25
100
AcDbLine
 10
-128.8400016492606
 20
16.05000215023756
 30
0.0
 11
-128.8400016492606
 21
35.05000243335962
 31
0.0
  0
LINE
  5
17F
330
1F
100
AcDbEntity
  8
16
  6
Continuous
 62
     3
370
    25
100
AcDbLine
 10
-128.8400016492606
 20
36.05000244826078
 30
0.0
 11
-128.8400016492606
 21
50.95000267028809
 31
0.0
  0
LINE
  5
180
330
1F
100
AcDbEntity
  8
16
  6
Continuous
 62
     3
370
    25
100
AcDbLine
 10
-128.8400016492606
 20
-19.84999838471413
 30
0.0
 11
-128.2400016403199
 21
-19.84999838471413
 31
0.0
  0
LINE
  5
181
330
1F
100
AcDbEntity
  8
16
  6
Continuous
 62
     3
370
    25
100
AcDbLine
 10
-128.2400016403199
 20
-19.84999838471413
 30
0.0
 11
-128.2400016403199
 21
-4.949998162686825
 31
0.0
  0
LINE
  5
182
330
1F
100
AcDbEntity
  8
16
  6
Continuous
 62
     3
370
    25
100
AcDbLine
 10
-128.2400016403199
 20
-3.949998147785664
 30
0.0
 11
-128.2400016403199
 21
15.0500021353364
 31
0.0
  0
LINE
  5
183
330
1F
100
AcDbEntity
  8
16
  6
Continuous
 62
     3
370
    25
100
AcDbLine
 10
-128.2400016403199
 20
16.05000215023756
 30
0.0
 11
-128.2400016403199
 21
35.05000243335962
 31
0.0
  0
LINE
  5
184
330
1F
100
AcDbEntity
  8
16
  6
Continuous
 62
     3
370
    25
100
AcDbLine
 10
-128.2400016403199
 20
36.05000244826078
 30
0.0
 11
-128.2400016403199
 21
50.95000267028809
 31
0.0
  0
LINE
  5
185
330
1F
100
AcDbEntity
  8
16
  6
Continuous
 62
     3
370
    25
100
AcDbLine
 10
-128.8400016492606
 20
50.95000267028809
 30
0.0
 11
-128.2400016403199
 21
50.95000267028809
 31
0.0
  0
LINE
  5
186
330
1F
100
AcDbEntity
  8
16
  6
Continuous
 62
     3
370
    25
100
AcDbLine
 10
-126.3280021001101
 20
-19.84999838471413
 30
0.0
 11
-126.3280021001101
 21
-4.949998162686825
 31
0.0
  0
LINE
  5
187
330
1F
100
AcDbEntity
  8
16
  6
Continuous
 62
     3
370
    25
100
AcDbLine
 10
-126.3280021001101
 20
-3.949998147785664
 30
0.0
 11
-126.3280021001101
 21
15.0500021353364
 31
0.0
  0
LINE
  5
188
330
1F
100
AcDbEntity
  8
16
  6
Continuous
 62
     3
370
    25
100
AcDbLine
 10
-126.3280021001101
 20
16.05000215023756
 30
0.0
 11
-126.3280021001101
 21
35.05000243335962
 31
0.0
  0
LINE
  5
189
330
1F
100
AcDbEntity
  8
16
  6
Continuous
 62
     3
370
    25
100
AcDbLine
 10
-126.3280021001101
 20
36.05000244826078
 30
0.0
 11
-126.3280021001101
 21
50.95000267028809
 31
0.0
  0
LINE
  5
18A
330
1F
100
AcDbEntity
  8
16
  6
Continuous
 62
     3
370
    25
100
AcDbLine
 10
-126.3280021001101
 20
-19.84999838471413
 30
0.0
 11
-125.7280020911694
 21
-19.84999838471413
 31
0.0
  0
LINE
  5
18B
330
1F
100
AcDbEntity
  8
16
  6
Continuous
 62
     3
370
    25
100
AcDbLine
 10
-125.7280020911694
 20
-19.84999838471413
 30
0.0
 11
-125.7280020911694
 21
-4.949998162686825
 31
0.0
  0
LINE
  5
18C
330
1F
100
AcDbEntity
  8
16
  6
Continuous
 62
     3
370
    25
100
AcDbLine
 10
-125.7280020911694
 20
-3.949998147785664
 30
0.0
 11
-125.7280020911694
 21
15.0500021353364
 31
0.0
  0
LINE
  5
18D
330
1F
100
AcDbEntity
  8
16
  6
Continuous
 62
     3
370
    25
100
AcDbLine
 10
-125.7280020911694
 20
16.05000215023756
 30
0.0
 11
-125.7280020911694
 21
35.05000243335962
 31
0.0
  0
LINE
  5
18E
330
1F
100
AcDbEntity
  8
16
  6
Continuous
 62
     3
370
    25
100
AcDbLine
 10
-125.7280020911694
 20
36.05000244826078
 30
0.0
 11
-125.7280020911694
 21
50.95000267028809
 31
0.0
  0
LINE
  5
18F
330
1F
100
AcDbEntity
  8
16
  6
Continuous
 62
     3
370
    25
100
AcDbLine
 10
-126.3280021001101
 20
50.95000267028809
 30
0.0
 11
-125.7280020911694
 21
50.95000267028809
 31
0.0
  0
LINE
  5
190
330
1F
100
AcDbEntity
  8
16
  6
Continuous
 62
     3
370
    25
100
AcDbLine
 10
-123.8159964474439
 20
-19.84999838471413
 30
0.0
 11
-123.8159964474439
 21
-4.949998162686825
 31
0.0
  0
LINE
  5
191
330
1F
100
AcDbEntity
  8
16
  6
Continuous
 62
     3
370
    25
100
AcDbLine
 10
-123.8159964474439
 20
-3.949998147785664
 30
0.0
 11
-123.8159964474439
 21
15.0500021353364
 31
0.0
  0
LINE
  5
192
330
1F
100
AcDbEntity
  8
16
  6
Continuous
 62
     3
370
    25
100
AcDbLine
 10
-123.8159964474439
 20
16.05000215023756
 30
0.0
 11
-123.8159964474439
 21
35.05000243335962
 31
0.0
  0
LINE
  5
193
330
1F
100
AcDbEntity
  8
16
  6
Continuous
 62
     3
370
    25
100
AcDbLine
 10
-123.8159964474439
 20
36.05000244826078
 30
0.0
 11
-123.8159964474439
 21
50.95000267028809
 31
0.0
  0
LINE
  5
194
330
1F
100
AcDbEntity
  8
16
  6
Continuous
 62
     3
370
    25
100
AcDbLine
 10
-123.8159964474439
 20
-19.84999838471413
 30
0.0
 11
-123.2159964385032
 21
-19.84999838471413
 31
0.0
  0
LINE
  5
195
330
1F
100
AcDbEntity
  8
16
  6
Continuous
 62
     3
370
    25
100
AcDbLine
 10
-123.2159964385032
 20
-19.84999838471413
 30
0.0
 11
-123.2159964385032
 21
-4.949998162686825
 31
0.0
  0
LINE
  5
196
330
1F
100
AcDbEntity
  8
16
  6
Continuous
 62
     3
370
    25
100
AcDbLine
 10
-123.2159964385032
 20
-3.949998147785664
 30
0.0
 11
-123.2159964385032
 21
15.0500021353364
 31
0.0
  0
LINE
  5
197
330
1F
100
AcDbEntity
  8
16
  6
Continuous
 62
     3
370
    25
100
AcDbLine
 10
-123.2159964385032
 20
16.05000215023756
 30
0.0
 11
-123.2159964385032
 21
35.05000243335962
 31
0.0
  0
LINE
  5
198
330
1F
100
AcDbEntity
  8
16
  6
Continuous
 62
     3
370
    25
100
AcDbLine
 10
-123.2159964385032
 20
36.05000244826078
 30
0.0
 11
-123.2159964385032
 21
50.95000267028809
 31
0.0
  0
LINE
  5
199
330
1F
100
AcDbEntity
  8
16
  6
Continuous
 62
     3
370
    25
100
AcDbLine
 10
-123.8159964474439
 20
50.95000267028809
 30
0.0
 11
-123.2159964385032
 21
50.95000267028809
 31
0.0
  0
LINE
  5
19A
330
1F
100
AcDbEntity
  8
16
  6
Continuous
 62
     3
370
    25
100
AcDbLine
 10
-121.3039968982935
 20
-19.84999838471413
 30
0.0
 11
-121.3039968982935
 21
-4.949998162686825
 31
0.0
  0
LINE
  5
19B
330
1F
100
AcDbEntity
  8
16
  6
Continuous
 62
     3
370
    25
100
AcDbLine
 10
-121.3039968982935
 20
-3.949998147785664
 30
0.0
 11
-121.3039968982935
 21
15.0500021353364
 31
0.0
  0
LINE
  5
19C
330
1F
100
AcDbEntity
  8
16
  6
Continuous
 62
     3
370
    25
100
AcDbLine
 10
-121.3039968982935
 20
16.05000215023756
 30
0.0
 11
-121.3039968982935
 21
35.05000243335962
 31
0.0
  0
LINE
  5
19D
330
1F
100
AcDbEntity
  8
16
  6
Continuous
 62
     3
370
    25
100
AcDbLine
 10
-121.3039968982935
 20
36.05000244826078
 30
0.0
 11
-121.3039968982935
 21
50.95000267028809
 31
0.0
  0
LINE
  5
19E
330
1F
100
AcDbEntity
  8
16
  6
Continuous
 62
     3
370
    25
100
AcDbLine
 10
-121.3039968982935
 20
-19.84999838471413
 30
0.0
 11
-120.7039968893528
 21
-19.84999838471413
 31
0.0
  0
LINE
  5
19F
330
1F
100
AcDbEntity
  8
16
  6
Continuous
 62
     3
370
    25
100
AcDbLine
 10
-120.7039968893528
 20
-19.84999838471413
 30
0.0
 11
-120.7039968893528
 21
-4.949998162686825
 31
0.0
  0
LINE
  5
1A0
330
1F
100
AcDbEntity
  8
16
  6
Continuous
 62
     3
370
    25
100
AcDbLine
 10
-120.7039968893528
 20
-3.949998147785664
 30
0.0
 11
-120.7039968893528
 21
15.0500021353364
 31
0.0
  0
LINE
  5
1A1
330
1F
100
AcDbEntity
  8
16
  6
Continuous
 62
     3
370
    25
100
AcDbLine
 10
-120.7039968893528
 20
16.05000215023756
 30
0.0
 11
-120.7039968893528
 21
35.05000243335962
 31
0.0
  0
LINE
  5
1A2
330
1F
100
AcDbEntity
  8
16
  6
Continuous
 62
     3
370
    25
100
AcDbLine
 10
-120.7039968893528
 20
36.05000244826078
 30
0.0
 11
-120.7039968893528
 21
50.95000267028809
 31
0.0
  0
LINE
  5
1A3
330
1F
100
AcDbEntity
  8
16
  6
Continuous
 62
     3
370
    25
100
AcDbLine
 10
-121.3039968982935
 20
50.95000267028809
 30
0.0
 11
-120.7039968893528
 21
50.95000267028809
 31
0.0
  0
LINE
  5
1A4
330
1F
100
AcDbEntity
  8
16
  6
Continuous
 62
     3
370
    25
100
AcDbLine
 10
-118.791997349143
 20
-19.84999838471413
 30
0.0
 11
-118.791997349143
 21
-4.949998162686825
 31
0.0
  0
LINE
  5
1A5
330
1F
100
AcDbEntity
  8
16
  6
Continuous
 62
     3
370
    25
100
AcDbLine
 10
-118.791997349143
 20
-3.949998147785664
 30
0.0
 11
-118.791997349143
 21
15.0500021353364
 31
0.0
  0
LINE
  5
1A6
330
1F
100
AcDbEntity
  8
16
  6
Continuous
 62
     3
370
    25
100
AcDbLine
 10
-118.791997349143
 20
16.05000215023756
 30
0.0
 11
-118.791997349143
 21
35.05000243335962
 31
0.0
  0
LINE
  5
1A7
330
1F
100
AcDbEntity
  8
16
  6
Continuous
 62
     3
370
    25
100
AcDbLine
 10
-118.791997349143
 20
36.05000244826078
 30
0.0
 11
-118.791997349143
 21
50.95000267028809
 31
0.0
  0
LINE
  5
1A8
330
1F
100
AcDbEntity
  8
16
  6
Continuous
 62
     3
370
    25
100
AcDbLine
 10
-118.791997349143
 20
-19.84999838471413
 30
0.0
 11
-118.1919973402023
 21
-19.84999838471413
 31
0.0
  0
LINE
  5
1A9
330
1F
100
AcDbEntity
  8
16
  6
Continuous
 62
     3
370
    25
100
AcDbLine
 10
-118.1919973402023
 20
-19.84999838471413
 30
0.0
 11
-118.1919973402023
 21
-4.949998162686825
 31
0.0
  0
LINE
  5
1AA
330
1F
100
AcDbEntity
  8
16
  6
Continuous
 62
     3
370
    25
100
AcDbLine
 10
-118.1919973402023
 20
-3.949998147785664
 30
0.0
 11
-118.1919973402023
 21
15.0500021353364
 31
0.0
  0
LINE
  5
1AB
330
1F
100
AcDbEntity
  8
16
  6
Continuous
 62
     3
370
    25
100
AcDbLine
 10
-118.1919973402023
 20
16.05000215023756
 30
0.0
 11
-118.1919973402023
 21
35.05000243335962
 31
0.0
  0
LINE
  5
1AC
330
1F
100
AcDbEntity
  8
16
  6
Continuous
 62
     3
370
    25
100
AcDbLine
 10
-118.1919973402023
 20
36.05000244826078
 30
0.0
 11
-118.1919973402023
 21
50.95000267028809
 31
0.0
  0
LINE
  5
1AD
330
1F
100
AcDbEntity
  8
16
  6
Continuous
 62
     3
370
    25
100
AcDbLine
 10
-118.791997349143
 20
50.95000267028809
 30
0.0
 11
-118.1919973402023
 21
50.95000267028809
 31
0.0
  0
LINE
  5
1AE
330
1F
100
AcDbEntity
  8
16
  6
Continuous
 62
     3
370
    25
100
AcDbLine
 10
-116.2799977999925
 20
-19.84999838471413
 30
0.0
 11
-116.2799977999925
 21
-4.949998162686825
 31
0.0
  0
LINE
  5
1AF
330
1F
100
AcDbEntity
  8
16
  6
Continuous
 62
     3
370
    25
100
AcDbLine
 10
-116.2799977999925
 20
-3.949998147785664
 30
0.0
 11
-116.2799977999925
 21
15.0500021353364
 31
0.0
  0
LINE
  5
1B0
330
1F
100
AcDbEntity
  8
16
  6
Continuous
 62
     3
370
    25
100
AcDbLine
 10
-116.2799977999925
 20
16.05000215023756
 30
0.0
 11
-116.2799977999925
 21
35.05000243335962
 31
0.0
  0
LINE
  5
1B1
330
1F
100
AcDbEntity
  8
16
  6
Continuous
 62
     3
370
    25
100
AcDbLine
 10
-116.2799977999925
 20
36.05000244826078
 30
0.0
 11
-116.2799977999925
 21
50.95000267028809
 31
0.0
  0
LINE
  5
1B2
330
1F
100
AcDbEntity
  8
16
  6
Continuous
 62
     3
370
    25
100
AcDbLine
 10
-116.2799977999925
 20
-19.84999838471413
 30
0.0
 11
-115.6799977910518
 21
-19.84999838471413
 31
0.0
  0
LINE
  5
1B3
330
1F
100
AcDbEntity
  8
16
  6
Continuous
 62
     3
370
    25
100
AcDbLine
 10
-115.6799977910518
 20
-19.84999838471413
 30
0.0
 11
-115.6799977910518
 21
-4.949998162686825
 31
0.0
  0
LINE
  5
1B4
330
1F
100
AcDbEntity
  8
16
  6
Continuous
 62
     3
370
    25
100
AcDbLine
 10
-115.6799977910518
 20
-3.949998147785664
 30
0.0
 11
-115.6799977910518
 21
15.0500021353364
 31
0.0
  0
LINE
  5
1B5
330
1F
100
AcDbEntity
  8
16
  6
Continuous
 62
     3
370
    25
100
AcDbLine
 10
-115.6799977910518
 20
16.05000215023756
 30
0.0
 11
-115.6799977910518
 21
35.05000243335962
 31
0.0
  0
LINE
  5
1B6
330
1F
100
AcDbEntity
  8
16
  6
Continuous
 62
     3
370
    25
100
AcDbLine
 10
-115.6799977910518
 20
36.05000244826078
 30
0.0
 11
-115.6799977910518
 21
50.95000267028809
 31
0.0
  0
LINE
  5
1B7
330
1F
100
AcDbEntity
  8
16
  6
Continuous
 62
     3
370
    25
100
AcDbLine
 10
-116.2799977999925
 20
50.95000267028809
 30
0.0
 11
-115.6799977910518
 21
50.95000267028809
 31
0.0
  0
LINE
  5
1B8
330
1F
100
AcDbEntity
  8
16
  6
Continuous
 62
     3
370
    25
100
AcDbLine
 10
-113.7679982508421
 20
-19.84999838471413
 30
0.0
 11
-113.7679982508421
 21
-4.949998162686825
 31
0.0
  0
LINE
  5
1B9
330
1F
100
AcDbEntity
  8
16
  6
Continuous
 62
     3
370
    25
100
AcDbLine
 10
-113.7679982508421
 20
-3.949998147785664
 30
0.0
 11
-113.7679982508421
 21
15.0500021353364
 31
0.0
  0
LINE
  5
1BA
330
1F
100
AcDbEntity
  8
16
  6
Continuous
 62
     3
370
    25
100
AcDbLine
 10
-113.7679982508421
 20
16.05000215023756
 30
0.0
 11
-113.7679982508421
 21
35.05000243335962
 31
0.0
  0
LINE
  5
1BB
330
1F
100
AcDbEntity
  8
16
  6
Continuous
 62
     3
370
    25
100
AcDbLine
 10
-113.7679982508421
 20
36.05000244826078
 30
0.0
 11
-113.7679982508421
 21
50.95000267028809
 31
0.0
  0
LINE
  5
1BC
330
1F
100
AcDbEntity
  8
16
  6
Continuous
 62
     3
370
    25
100
AcDbLine
 10
-113.7679982508421
 20
-19.84999838471413
 30
0.0
 11
-113.1679982419014
 21
-19.84999838471413
 31
0.0
  0
LINE
  5
1BD
330
1F
100
AcDbEntity
  8
16
  6
Continuous
 62
     3
370
    25
100
AcDbLine
 10
-113.1679982419014
 20
-19.84999838471413
 30
0.0
 11
-113.1679982419014
 21
-4.949998162686825
 31
0.0
  0
LINE
  5
1BE
330
1F
100
AcDbEntity
  8
16
  6
Continuous
 62
     3
370
    25
100
AcDbLine
 10
-113.1679982419014
 20
-3.949998147785664
 30
0.0
 11
-113.1679982419014
 21
15.0500021353364
 31
0.0
  0
LINE
  5
1BF
330
1F
100
AcDbEntity
  8
16
  6
Continuous
 62
     3
370
    25
100
AcDbLine
 10
-113.1679982419014
 20
16.05000215023756
 30
0.0
 11
-113.1679982419014
 21
35.05000243335962
 31
0.0
  0
LINE
  5
1C0
330
1F
100
AcDbEntity
  8
16
  6
Continuous
 62
     3
370
    25
100
AcDbLine
 10
-113.1679982419014
 20
36.05000244826078
 30
0.0
 11
-113.1679982419014
 21
50.95000267028809
 31
0.0
  0
LINE
  5
1C1
330
1F
100
AcDbEntity
  8
16
  6
Continuous
 62
     3
370
    25
100
AcDbLine
 10
-113.7679982508421
 20
50.95000267028809
 30
0.0
 11
-113.1679982419014
 21
50.95000267028809
 31
0.0
  0
LINE
  5
1C2
330
1F
100
AcDbEntity
  8
16
  6
Continuous
 62
     3
370
    25
100
AcDbLine
 10
-111.2559987016916
 20
-19.84999838471413
 30
0.0
 11
-111.2559987016916
 21
-4.949998162686825
 31
0.0
  0
LINE
  5
1C3
330
1F
100
AcDbEntity
  8
16
  6
Continuous
 62
     3
370
    25
100
AcDbLine
 10
-111.2559987016916
 20
-3.949998147785664
 30
0.0
 11
-111.2559987016916
 21
15.0500021353364
 31
0.0
  0
LINE
  5
1C4
330
1F
100
AcDbEntity
  8
16
  6
Continuous
 62
     3
370
    25
100
AcDbLine
 10
-111.2559987016916
 20
16.05000215023756
 30
0.0
 11
-111.2559987016916
 21
35.05000243335962
 31
0.0
  0
LINE
  5
1C5
330
1F
100
AcDbEntity
  8
16
  6
Continuous
 62
     3
370
    25
100
AcDbLine
 10
-111.2559987016916
 20
36.05000244826078
 30
0.0
 11
-111.2559987016916
 21
50.95000267028809
 31
0.0
  0
LINE
  5
1C6
330
1F
100
AcDbEntity
  8
16
  6
Continuous
 62
     3
370
    25
100
AcDbLine
 10
-111.2559987016916
 20
-19.84999838471413
 30
0.0
 11
-110.6559986927509
 21
-19.84999838471413
 31
0.0
  0
LINE
  5
1C7
330
1F
100
AcDbEntity
  8
16
  6
Continuous
 62
     3
370
    25
100
AcDbLine
 10
-110.6559986927509
 20
-19.84999838471413
 30
0.0
 11
-110.6559986927509
 21
-4.949998162686825
 31
0.0
  0
LINE
  5
1C8
330
1F
100
AcDbEntity
  8
16
  6
Continuous
 62
     3
370
    25
100
AcDbLine
 10
-110.6559986927509
 20
-3.949998147785664
 30
0.0
 11
-110.6559986927509
 21
15.0500021353364
 31
0.0
  0
LINE
  5
1C9
330
1F
100
AcDbEntity
  8
16
  6
Continuous
 62
     3
370
    25
100
AcDbLine
 10
-110.6559986927509
 20
16.05000215023756
 30
0.0
 11
-110.6559986927509
 21
35.05000243335962
 31
0.0
  0
LINE
  5
1CA
330
1F
100
AcDbEntity
  8
16
  6
Continuous
 62
     3
370
    25
100
AcDbLine
 10
-110.6559986927509
 20
36.05000244826078
 30
0.0
 11
-110.6559986927509
 21
50.95000267028809
 31
0.0
  0
LINE
  5
1CB
330
1F
100
AcDbEntity
  8
16
  6
Continuous
 62
     3
370
    25
100
AcDbLine
 10
-111.2559987016916
 20
50.95000267028809
 30
0.0
 11
-110.6559986927509
 21
50.95000267028809
 31
0.0
  0
LINE
  5
1CC
330
1F
100
AcDbEntity
  8
16
  6
Continuous
 62
     3
370
    25
100
AcDbLine
 10
-108.7439991525412
 20
-19.84999838471413
 30
0.0
 11
-108.7439991525412
 21
-4.949998162686825
 31
0.0
  0
LINE
  5
1CD
330
1F
100
AcDbEntity
  8
16
  6
Continuous
 62
     3
370
    25
100
AcDbLine
 10
-108.7439991525412
 20
-3.949998147785664
 30
0.0
 11
-108.7439991525412
 21
15.0500021353364
 31
0.0
  0
LINE
  5
1CE
330
1F
100
AcDbEntity
  8
16
  6
Continuous
 62
     3
370
    25
100
AcDbLine
 10
-108.7439991525412
 20
16.05000215023756
 30
0.0
 11
-108.7439991525412
 21
35.05000243335962
 31
0.0
  0
LINE
  5
1CF
330
1F
100
AcDbEntity
  8
16
  6
Continuous
 62
     3
370
    25
100
AcDbLine
 10
-108.7439991525412
 20
36.05000244826078
 30
0.0
 11
-108.7439991525412
 21
50.95000267028809
 31
0.0
  0
LINE
  5
1D0
330
1F
100
AcDbEntity
  8
16
  6
Continuous
 62
     3
370
    25
100
AcDbLine
 10
-108.7439991525412
 20
-19.84999838471413
 30
0.0
 11
-108.1439991436005
 21
-19.84999838471413
 31
0.0
  0
LINE
  5
1D1
330
1F
100
AcDbEntity
  8
16
  6
Continuous
 62
     3
370
    25
100
AcDbLine
 10
-108.1439991436005
 20
-19.84999838471413
 30
0.0
 11
-108.1439991436005
 21
-4.949998162686825
 31
0.0
  0
LINE
  5
1D2
330
1F
100
AcDbEntity
  8
16
  6
Continuous
 62
     3
370
    25
100
AcDbLine
 10
-108.1439991436005
 20
-3.949998147785664
 30
0.0
 11
-108.1439991436005
 21
15.0500021353364
 31
0.0
  0
LINE
  5
1D3
330
1F
100
AcDbEntity
  8
16
  6
Continuous
 62
     3
370
    25
100
AcDbLine
 10
-108.1439991436005
 20
16.05000215023756
 30
0.0
 11
-108.1439991436005
 21
35.05000243335962
 31
0.0
  0
LINE
  5
1D4
330
1F
100
AcDbEntity
  8
16
  6
Continuous
 62
     3
370
    25
100
AcDbLine
 10
-108.1439991436005
 20
36.05000244826078
 30
0.0
 11
-108.1439991436005
 21
50.95000267028809
 31
0.0
  0
LINE
  5
1D5
330
1F
100
AcDbEntity
  8
16
  6
Continuous
 62
     3
370
    25
100
AcDbLine
 10
-108.7439991525412
 20
50.95000267028809
 30
0.0
 11
-108.1439991436005
 21
50.95000267028809
 31
0.0
  0
LINE
  5
1D6
330
1F
100
AcDbEntity
  8
16
  6
Continuous
 62
     3
370
    25
100
AcDbLine
 10
-106.2319996033907
 20
-19.84999838471413
 30
0.0
 11
-106.2319996033907
 21
-4.949998162686825
 31
0.0
  0
LINE
  5
1D7
330
1F
100
AcDbEntity
  8
16
  6
Continuous
 62
     3
370
    25
100
AcDbLine
 10
-106.2319996033907
 20
-3.949998147785664
 30
0.0
 11
-106.2319996033907
 21
15.0500021353364
 31
0.0
  0
LINE
  5
1D8
330
1F
100
AcDbEntity
  8
16
  6
Continuous
 62
     3
370
    25
100
AcDbLine
 10
-106.2319996033907
 20
16.05000215023756
 30
0.0
 11
-106.2319996033907
 21
35.05000243335962
 31
0.0
  0
LINE
  5
1D9
330
1F
100
AcDbEntity
  8
16
  6
Continuous
 62
     3
370
    25
100
AcDbLine
 10
-106.2319996033907
 20
36.05000244826078
 30
0.0
 11
-106.2319996033907
 21
50.95000267028809
 31
0.0
  0
LINE
  5
1DA
330
1F
100
AcDbEntity
  8
16
  6
Continuous
 62
     3
370
    25
100
AcDbLine
 10
-106.2319996033907
 20
-19.84999838471413
 30
0.0
 11
-105.63199959445
 21
-19.84999838471413
 31
0.0
  0
LINE
  5
1DB
330
1F
100
AcDbEntity
  8
16
  6
Continuous
 62
     3
370
    25
100
AcDbLine
 10
-105.63199959445
 20
-19.84999838471413
 30
0.0
 11
-105.63199959445
 21
-4.949998162686825
 31
0.0
  0
LINE
  5
1DC
330
1F
100
AcDbEntity
  8
16
  6
Continuous
 62
     3
370
    25
100
AcDbLine
 10
-105.63199959445
 20
-3.949998147785664
 30
0.0
 11
-105.63199959445
 21
15.0500021353364
 31
0.0
  0
LINE
  5
1DD
330
1F
100
AcDbEntity
  8
16
  6
Continuous
 62
     3
370
    25
100
AcDbLine
 10
-105.63199959445
 20
16.05000215023756
 30
0.0
 11
-105.63199959445
 21
35.05000243335962
 31
0.0
  0
LINE
  5
1DE
330
1F
100
AcDbEntity
  8
16
  6
Continuous
 62
     3
370
    25
100
AcDbLine
 10
-105.63199959445
 20
36.05000244826078
 30
0.0
 11
-105.63199959445
 21
50.95000267028809
 31
0.0
  0
LINE
  5
1DF
330
1F
100
AcDbEntity
  8
16
  6
Continuous
 62
     3
370
    25
100
AcDbLine
 10
-106.2319996033907
 20
50.95000267028809
 30
0.0
 11
-105.63199959445
 21
50.95000267028809
 31
0.0
  0
LINE
  5
1E0
330
1F
100
AcDbEntity
  8
16
  6
Continuous
 62
     3
370
    25
100
AcDbLine
 10
-103.7200000542402
 20
-19.84999838471413
 30
0.0
 11
-103.7200000542402
 21
-4.949998162686825
 31
0.0
  0
LINE
  5
1E1
330
1F
100
AcDbEntity
  8
16
  6
Continuous
 62
     3
370
    25
100
AcDbLine
 10
-103.7200000542402
 20
-3.949998147785664
 30
0.0
 11
-103.7200000542402
 21
15.0500021353364
 31
0.0
  0
LINE
  5
1E2
330
1F
100
AcDbEntity
  8
16
  6
Continuous
 62
     3
370
    25
100
AcDbLine
 10
-103.7200000542402
 20
16.05000215023756
 30
0.0
 11
-103.7200000542402
 21
35.05000243335962
 31
0.0
  0
LINE
  5
1E3
330
1F
100
AcDbEntity
  8
16
  6
Continuous
 62
     3
370
    25
100
AcDbLine
 10
-103.7200000542402
 20
36.05000244826078
 30
0.0
 11
-103.7200000542402
 21
50.95000267028809
 31
0.0
  0
LINE
  5
1E4
330
1F
100
AcDbEntity
  8
16
  6
Continuous
 62
     3
370
    25
100
AcDbLine
 10
-103.7200000542402
 20
-19.84999838471413
 30
0.0
 11
-103.1200000452995
 21
-19.84999838471413
 31
0.0
  0
LINE
  5
1E5
330
1F
100
AcDbEntity
  8
16
  6
Continuous
 62
     3
370
    25
100
AcDbLine
 10
-103.1200000452995
 20
-19.84999838471413
 30
0.0
 11
-103.1200000452995
 21
-4.949998162686825
 31
0.0
  0
LINE
  5
1E6
330
1F
100
AcDbEntity
  8
16
  6
Continuous
 62
     3
370
    25
100
AcDbLine
 10
-103.1200000452995
 20
-3.949998147785664
 30
0.0
 11
-103.1200000452995
 21
15.0500021353364
 31
0.0
  0
LINE
  5
1E7
330
1F
100
AcDbEntity
  8
16
  6
Continuous
 62
     3
370
    25
100
AcDbLine
 10
-103.1200000452995
 20
16.05000215023756
 30
0.0
 11
-103.1200000452995
 21
35.05000243335962
 31
0.0
  0
LINE
  5
1E8
330
1F
100
AcDbEntity
  8
16
  6
Continuous
 62
     3
370
    25
100
AcDbLine
 10
-103.1200000452995
 20
36.05000244826078
 30
0.0
 11
-103.1200000452995
 21
50.95000267028809
 31
0.0
  0
LINE
  5
1E9
330
1F
100
AcDbEntity
  8
16
  6
Continuous
 62
     3
370
    25
100
AcDbLine
 10
-103.7200000542402
 20
50.95000267028809
 30
0.0
 11
-103.1200000452995
 21
50.95000267028809
 31
0.0
  0
LINE
  5
1EA
330
1F
100
AcDbEntity
  8
16
  6
Continuous
 62
     3
370
    25
100
AcDbLine
 10
-101.2080005050898
 20
-19.84999838471413
 30
0.0
 11
-101.2080005050898
 21
-4.949998162686825
 31
0.0
  0
LINE
  5
1EB
330
1F
100
AcDbEntity
  8
16
  6
Continuous
 62
     3
370
    25
100
AcDbLine
 10
-101.2080005050898
 20
-3.949998147785664
 30
0.0
 11
-101.2080005050898
 21
15.0500021353364
 31
0.0
  0
LINE
  5
1EC
330
1F
100
AcDbEntity
  8
16
  6
Continuous
 62
     3
370
    25
100
AcDbLine
 10
-101.2080005050898
 20
16.05000215023756
 30
0.0
 11
-101.2080005050898
 21
35.05000243335962
 31
0.0
  0
LINE
  5
1ED
330
1F
100
AcDbEntity
  8
16
  6
Continuous
 62
     3
370
    25
100
AcDbLine
 10
-101.2080005050898
 20
36.05000244826078
 30
0.0
 11
-101.2080005050898
 21
50.95000267028809
 31
0.0
  0
LINE
  5
1EE
330
1F
100
AcDbEntity
  8
16
  6
Continuous
 62
     3
370
    25
100
AcDbLine
 10
-101.2080005050898
 20
-19.84999838471413
 30
0.0
 11
-100.6080004961491
 21
-19.84999838471413
 31
0.0
  0
LINE
  5
1EF
330
1F
100
AcDbEntity
  8
16
  6
Continuous
 62
     3
370
    25
100
AcDbLine
 10
-100.6080004961491
 20
-19.84999838471413
 30
0.0
 11
-100.6080004961491
 21
-4.949998162686825
 31
0.0
  0
LINE
  5
1F0
330
1F
100
AcDbEntity
  8
16
  6
Continuous
 62
     3
370
    25
100
AcDbLine
 10
-100.6080004961491
 20
-3.949998147785664
 30
0.0
 11
-100.6080004961491
 21
15.0500021353364
 31
0.0
  0
LINE
  5
1F1
330
1F
100
AcDbEntity
  8
16
  6
Continuous
 62
     3
370
    25
100
AcDbLine
 10
-100.6080004961491
 20
16.05000215023756
 30
0.0
 11
-100.6080004961491
 21
35.05000243335962
 31
0.0
  0
LINE
  5
1F2
330
1F
100
AcDbEntity
  8
16
  6
Continuous
 62
     3
370
    25
100
AcDbLine
 10
-100.6080004961491
 20
36.05000244826078
 30
0.0
 11
-100.6080004961491
 21
50.95000267028809
 31
0.0
  0
LINE
  5
1F3
330
1F
100
AcDbEntity
  8
16
  6
Continuous
 62
     3
370
    25
100
AcDbLine
 10
-101.2080005050898
 20
50.95000267028809
 30
0.0
 11
-100.6080004961491
 21
50.95000267028809
 31
0.0
  0
LINE
  5
1F4
330
1F
100
AcDbEntity
  8
16
  6
Continuous
 62
     3
370
    25
100
AcDbLine
 10
-98.69600095593933
 20
-19.84999838471413
 30
0.0
 11
-98.69600095593933
 21
-4.949998162686825
 31
0.0
  0
LINE
  5
1F5
330
1F
100
AcDbEntity
  8
16
  6
Continuous
 62
     3
370
    25
100
AcDbLine
 10
-98.69600095593933
 20
-3.949998147785664
 30
0.0
 11
-98.69600095593933
 21
15.0500021353364
 31
0.0
  0
LINE
  5
1F6
330
1F
100
AcDbEntity
  8
16
  6
Continuous
 62
     3
370
    25
100
AcDbLine
 10
-98.69600095593933
 20
16.05000215023756
 30
0.0
 11
-98.69600095593933
 21
35.05000243335962
 31
0.0
  0
LINE
  5
1F7
330
1F
100
AcDbEntity
  8
16
  6
Continuous
 62
     3
370
    25
100
AcDbLine
 10
-98.69600095593933
 20
36.05000244826078
 30
0.0
 11
-98.69600095593933
 21
50.95000267028809
 31
0.0
  0
LINE
  5
1F8
330
1F
100
AcDbEntity
  8
16
  6
Continuous
 62
     3
370
    25
100
AcDbLine
 10
-98.69600095593933
 20
-19.84999838471413
 30
0.0
 11
-98.09600094699863
 21
-19.84999838471413
 31
0.0
  0
LINE
  5
1F9
330
1F
100
AcDbEntity
  8
16
  6
Continuous
 62
     3
370
    25
100
AcDbLine
 10
-98.09600094699863
 20
-19.84999838471413
 30
0.0
 11
-98.09600094699863
 21
-4.949998162686825
 31
0.0
  0
LINE
  5
1FA
330
1F
100
AcDbEntity
  8
16
  6
Continuous
 62
     3
370
    25
100
AcDbLine
 10
-98.09600094699863
 20
-3.949998147785664
 30
0.0
 11
-98.09600094699863
 21
15.0500021353364
 31
0.0
  0
LINE
  5
1FB
330
1F
100
AcDbEntity
  8
16
  6
Continuous
 62
     3
370
    25
100
AcDbLine
 10
-98.09600094699863
 20
16.05000215023756
 30
0.0
 11
-98.09600094699863
 21
35.05000243335962
 31
0.0
  0
LINE
  5
1FC
330
1F
100
AcDbEntity
  8
16
  6
Continuous
 62
     3
370
    25
100
AcDbLine
 10
-98.09600094699863
 20
36.05000244826078
 30
0.0
 11
-98.09600094699863
 21
50.95000267028809
 31
0.0
  0
LINE
  5
1FD
330
1F
100
AcDbEntity
  8
16
  6
Continuous
 62
     3
370
    25
100
AcDbLine
 10
-98.69600095593933
 20
50.95000267028809
 30
0.0
 11
-98.09600094699863
 21
50.95000267028809
 31
0.0
  0
LINE
  5
1FE
330
1F
100
AcDbEntity
  8
16
  6
Continuous
 62
     3
370
    25
100
AcDbLine
 10
-96.18400140678887
 20
-19.84999838471413
 30
0.0
 11
-96.18400140678887
 21
-4.949998162686825
 31
0.0
  0
LINE
  5
1FF
330
1F
100
AcDbEntity
  8
16
  6
Continuous
 62
     3
370
    25
100
AcDbLine
 10
-96.18400140678887
 20
-3.949998147785664
 30
0.0
 11
-96.18400140678887
 21
15.0500021353364
 31
0.0
  0
LINE
  5
200
330
1F
100
AcDbEntity
  8
16
  6
Continuous
 62
     3
370
    25
100
AcDbLine
 10
-96.18400140678887
 20
16.05000215023756
 30
0.0
 11
-96.18400140678887
 21
35.05000243335962
 31
0.0
  0
LINE
  5
201
330
1F
100
AcDbEntity
  8
16
  6
Continuous
 62
     3
370
    25
100
AcDbLine
 10
-96.18400140678887
 20
36.05000244826078
 30
0.0
 11
-96.18400140678887
 21
50.95000267028809
 31
0.0
  0
LINE
  5
202
330
1F
100
AcDbEntity
  8
16
  6
Continuous
 62
     3
370
    25
100
AcDbLine
 10
-96.18400140678887
 20
-19.84999838471413
 30
0.0
 11
-95.58400139784817
 21
-19.84999838471413
 31
0.0
  0
LINE
  5
203
330
1F
100
AcDbEntity
  8
16
  6
Continuous
 62
     3
370
    25
100
AcDbLine
 10
-95.58400139784817
 20
-19.84999838471413
 30
0.0
 11
-95.58400139784817
 21
-4.949998162686825
 31
0.0
  0
LINE
  5
204
330
1F
100
AcDbEntity
  8
16
  6
Continuous
 62
     3
370
    25
100
AcDbLine
 10
-95.58400139784817
 20
-3.949998147785664
 30
0.0
 11
-95.58400139784817
 21
15.0500021353364
 31
0.0
  0
LINE
  5
205
330
1F
100
AcDbEntity
  8
16
  6
Continuous
 62
     3
370
    25
100
AcDbLine
 10
-95.58400139784817
 20
16.05000215023756
 30
0.0
 11
-95.58400139784817
 21
35.05000243335962
 31
0.0
  0
LINE
  5
206
330
1F
100
AcDbEntity
  8
16
  6
Continuous
 62
     3
370
    25
100
AcDbLine
 10
-95.58400139784817
 20
36.05000244826078
 30
0.0
 11
-95.58400139784817
 21
50.95000267028809
 31
0.0
  0
LINE
  5
207
330
1F
100
AcDbEntity
  8
16
  6
Continuous
 62
     3
370
    25
100
AcDbLine
 10
-96.18400140678887
 20
50.95000267028809
 30
0.0
 11
-95.58400139784817
 21
50.95000267028809
 31
0.0
  0
LINE
  5
208
330
1F
100
AcDbEntity
  8
16
  6
Continuous
 62
     3
370
    25
100
AcDbLine
 10
-93.67199575412269
 20
-19.84999838471413
 30
0.0
 11
-93.67199575412269
 21
-4.949998162686825
 31
0.0
  0
LINE
  5
209
330
1F
100
AcDbEntity
  8
16
  6
Continuous
 62
     3
370
    25
100
AcDbLine
 10
-93.67199575412269
 20
-3.949998147785664
 30
0.0
 11
-93.67199575412269
 21
15.0500021353364
 31
0.0
  0
LINE
  5
20A
330
1F
100
AcDbEntity
  8
16
  6
Continuous
 62
     3
370
    25
100
AcDbLine
 10
-93.67199575412269
 20
16.05000215023756
 30
0.0
 11
-93.67199575412269
 21
35.05000243335962
 31
0.0
  0
LINE
  5
20B
330
1F
100
AcDbEntity
  8
16
  6
Continuous
 62
     3
370
    25
100
AcDbLine
 10
-93.67199575412269
 20
36.05000244826078
 30
0.0
 11
-93.67199575412269
 21
50.95000267028809
 31
0.0
  0
LINE
  5
20C
330
1F
100
AcDbEntity
  8
16
  6
Continuous
 62
     3
370
    25
100
AcDbLine
 10
-93.67199575412269
 20
-19.84999838471413
 30
0.0
 11
-93.071995745182
 21
-19.84999838471413
 31
0.0
  0
LINE
  5
20D
330
1F
100
AcDbEntity
  8
16
  6
Continuous
 62
     3
370
    25
100
AcDbLine
 10
-93.071995745182
 20
-19.84999838471413
 30
0.0
 11
-93.071995745182
 21
-4.949998162686825
 31
0.0
  0
LINE
  5
20E
330
1F
100
AcDbEntity
  8
16
  6
Continuous
 62
     3
370
    25
100
AcDbLine
 10
-93.071995745182
 20
-3.949998147785664
 30
0.0
 11
-93.071995745182
 21
15.0500021353364
 31
0.0
  0
LINE
  5
20F
330
1F
100
AcDbEntity
  8
16
  6
Continuous
 62
     3
370
    25
100
AcDbLine
 10
-93.071995745182
 20
16.05000215023756
 30
0.0
 11
-93.071995745182
 21
35.05000243335962
 31
0.0
  0
LINE
  5
210
330
1F
100
AcDbEntity
  8
16
  6
Continuous
 62
     3
370
    25
100
AcDbLine
 10
-93.071995745182
 20
36.05000244826078
 30
0.0
 11
-93.071995745182
 21
50.95000267028809
 31
0.0
  0
LINE
  5
211
330
1F
100
AcDbEntity
  8
16
  6
Continuous
 62
     3
370
    25
100
AcDbLine
 10
-93.67199575412269
 20
50.95000267028809
 30
0.0
 11
-93.071995745182
 21
50.95000267028809
 31
0.0
  0
LINE
  5
212
330
1F
100
AcDbEntity
  8
16
  6
Continuous
 62
     3
370
    25
100
AcDbLine
 10
-91.15999620497223
 20
-19.84999838471413
 30
0.0
 11
-91.15999620497223
 21
-4.949998162686825
 31
0.0
  0
LINE
  5
213
330
1F
100
AcDbEntity
  8
16
  6
Continuous
 62
     3
370
    25
100
AcDbLine
 10
-91.15999620497223
 20
-3.949998147785664
 30
0.0
 11
-91.15999620497223
 21
15.0500021353364
 31
0.0
  0
LINE
  5
214
330
1F
100
AcDbEntity
  8
16
  6
Continuous
 62
     3
370
    25
100
AcDbLine
 10
-91.15999620497223
 20
16.05000215023756
 30
0.0
 11
-91.15999620497223
 21
35.05000243335962
 31
0.0
  0
LINE
  5
215
330
1F
100
AcDbEntity
  8
16
  6
Continuous
 62
     3
370
    25
100
AcDbLine
 10
-91.15999620497223
 20
36.05000244826078
 30
0.0
 11
-91.15999620497223
 21
50.95000267028809
 31
0.0
  0
LINE
  5
216
330
1F
100
AcDbEntity
  8
16
  6
Continuous
 62
     3
370
    25
100
AcDbLine
 10
-91.15999620497223
 20
-19.84999838471413
 30
0.0
 11
-90.55999619603153
 21
-19.84999838471413
 31
0.0
  0
LINE
  5
217
330
1F
100
AcDbEntity
  8
16
  6
Continuous
 62
     3
370
    25
100
AcDbLine
 10
-90.55999619603153
 20
-19.84999838471413
 30
0.0
 11
-90.55999619603153
 21
-4.949998162686825
 31
0.0
  0
LINE
  5
218
330
1F
100
AcDbEntity
  8
16
  6
Continuous
 62
     3
370
    25
100
AcDbLine
 10
-90.55999619603153
 20
-3.949998147785664
 30
0.0
 11
-90.55999619603153
 21
15.0500021353364
 31
0.0
  0
LINE
  5
219
330
1F
100
AcDbEntity
  8
16
  6
Continuous
 62
     3
370
    25
100
AcDbLine
 10
-90.55999619603153
 20
16.05000215023756
 30
0.0
 11
-90.55999619603153
 21
35.05000243335962
 31
0.0
  0
LINE
  5
21A
330
1F
100
AcDbEntity
  8
16
  6
Continuous
 62
     3
370
    25
100
AcDbLine
 10
-90.55999619603153
 20
36.05000244826078
 30
0.0
 11
-90.55999619603153
 21
50.95000267028809
 31
0.0
  0
LINE
  5
21B
330
1F
100
AcDbEntity
  8
16
  6
Continuous
 62
     3
370
    25
100
AcDbLine
 10
-91.15999620497223
 20
50.95000267028809
 30
0.0
 11
-90.55999619603153
 21
50.95000267028809
 31
0.0
  0
LINE
  5
21C
330
1F
100
AcDbEntity
  8
16
  6
Continuous
 62
     3
370
    25
100
AcDbLine
 10
-88.64799665582177
 20
-19.84999838471413
 30
0.0
 11
-88.64799665582177
 21
-4.949998162686825
 31
0.0
  0
LINE
  5
21D
330
1F
100
AcDbEntity
  8
16
  6
Continuous
 62
     3
370
    25
100
AcDbLine
 10
-88.64799665582177
 20
-3.949998147785664
 30
0.0
 11
-88.64799665582177
 21
15.0500021353364
 31
0.0
  0
LINE
  5
21E
330
1F
100
AcDbEntity
  8
16
  6
Continuous
 62
     3
370
    25
100
AcDbLine
 10
-88.64799665582177
 20
16.05000215023756
 30
0.0
 11
-88.64799665582177
 21
35.05000243335962
 31
0.0
  0
LINE
  5
21F
330
1F
100
AcDbEntity
  8
16
  6
Continuous
 62
     3
370
    25
100
AcDbLine
 10
-88.64799665582177
 20
36.05000244826078
 30
0.0
 11
-88.64799665582177
 21
50.95000267028809
 31
0.0
  0
LINE
  5
220
330
1F
100
AcDbEntity
  8
16
  6
Continuous
 62
     3
370
    25
100
AcDbLine
 10
-88.64799665582177
 20
-19.84999838471413
 30
0.0
 11
-88.04799664688107
 21
-19.84999838471413
 31
0.0
  0
LINE
  5
221
330
1F
100
AcDbEntity
  8
16
  6
Continuous
 62
     3
370
    25
100
AcDbLine
 10
-88.04799664688107
 20
-19.84999838471413
 30
0.0
 11
-88.04799664688107
 21
-4.949998162686825
 31
0.0
  0
LINE
  5
222
330
1F
100
AcDbEntity
  8
16
  6
Continuous
 62
     3
370
    25
100
AcDbLine
 10
-88.04799664688107
 20
-3.949998147785664
 30
0.0
 11
-88.04799664688107
 21
15.0500021353364
 31
0.0
  0
LINE
  5
223
330
1F
100
AcDbEntity
  8
16
  6
Continuous
 62
     3
370
    25
100
AcDbLine
 10
-88.04799664688107
 20
16.05000215023756
 30
0.0
 11
-88.04799664688107
 21
35.05000243335962
 31
0.0
  0
LINE
  5
224
330
1F
100
AcDbEntity
  8
16
  6
Continuous
 62
     3
370
    25
100
AcDbLine
 10
-88.04799664688107
 20
36.05000244826078
 30
0.0
 11
-88.04799664688107
 21
50.95000267028809
 31
0.0
  0
LINE
  5
225
330
1F
100
AcDbEntity
  8
16
  6
Continuous
 62
     3
370
    25
100
AcDbLine
 10
-88.64799665582177
 20
50.95000267028809
 30
0.0
 11
-88.04799664688107
 21
50.95000267028809
 31
0.0
  0
LINE
  5
226
330
1F
100
AcDbEntity
  8
16
  6
Continuous
 62
     3
370
    25
100
AcDbLine
 10
-86.13599710667131
 20
-19.84999838471413
 30
0.0
 11
-86.13599710667131
 21
-4.949998162686825
 31
0.0
  0
LINE
  5
227
330
1F
100
AcDbEntity
  8
16
  6
Continuous
 62
     3
370
    25
100
AcDbLine
 10
-86.13599710667131
 20
-3.949998147785664
 30
0.0
 11
-86.13599710667131
 21
15.0500021353364
 31
0.0
  0
LINE
  5
228
330
1F
100
AcDbEntity
  8
16
  6
Continuous
 62
     3
370
    25
100
AcDbLine
 10
-86.13599710667131
 20
16.05000215023756
 30
0.0
 11
-86.13599710667131
 21
35.05000243335962
 31
0.0
  0
LINE
  5
229
330
1F
100
AcDbEntity
  8
16
  6
Continuous
 62
     3
370
    25
100
AcDbLine
 10
-86.13599710667131
 20
36.05000244826078
 30
0.0
 11
-86.13599710667131
 21
50.95000267028809
 31
0.0
  0
LINE
  5
22A
330
1F
100
AcDbEntity
  8
16
  6
Continuous
 62
     3
370
    25
100
AcDbLine
 10
-86.13599710667131
 20
-19.84999838471413
 30
0.0
 11
-85.53599709773061
 21
-19.84999838471413
 31
0.0
  0
LINE
  5
22B
330
1F
100
AcDbEntity
  8
16
  6
Continuous
 62
     3
370
    25
100
AcDbLine
 10
-85.53599709773061
 20
-19.84999838471413
 30
0.0
 11
-85.53599709773061
 21
-4.949998162686825
 31
0.0
  0
LINE
  5
22C
330
1F
100
AcDbEntity
  8
16
  6
Continuous
 62
     3
370
    25
100
AcDbLine
 10
-85.53599709773061
 20
-3.949998147785664
 30
0.0
 11
-85.53599709773061
 21
15.0500021353364
 31
0.0
  0
LINE
  5
22D
330
1F
100
AcDbEntity
  8
16
  6
Continuous
 62
     3
370
    25
100
AcDbLine
 10
-85.53599709773061
 20
16.05000215023756
 30
0.0
 11
-85.53599709773061
 21
35.05000243335962
 31
0.0
  0
LINE
  5
22E
330
1F
100
AcDbEntity
  8
16
  6
Continuous
 62
     3
370
    25
100
AcDbLine
 10
-85.53599709773061
 20
36.05000244826078
 30
0.0
 11
-85.53599709773061
 21
50.95000267028809
 31
0.0
  0
LINE
  5
22F
330
1F
100
AcDbEntity
  8
16
  6
Continuous
 62
     3
370
    25
100
AcDbLine
 10
-86.13599710667131
 20
50.95000267028809
 30
0.0
 11
-85.53599709773061
 21
50.95000267028809
 31
0.0
  0
LINE
  5
230
330
1F
100
AcDbEntity
  8
16
  6
Continuous
 62
     3
370
    25
100
AcDbLine
 10
-83.62399755752085
 20
-19.84999838471413
 30
0.0
 11
-83.62399755752085
 21
-4.949998162686825
 31
0.0
  0
LINE
  5
231
330
1F
100
AcDbEntity
  8
16
  6
Continuous
 62
     3
370
    25
100
AcDbLine
 10
-83.62399755752085
 20
-3.949998147785664
 30
0.0
 11
-83.62399755752085
 21
15.0500021353364
 31
0.0
  0
LINE
  5
232
330
1F
100
AcDbEntity
  8
16
  6
Continuous
 62
     3
370
    25
100
AcDbLine
 10
-83.62399755752085
 20
16.05000215023756
 30
0.0
 11
-83.62399755752085
 21
35.05000243335962
 31
0.0
  0
LINE
  5
233
330
1F
100
AcDbEntity
  8
16
  6
Continuous
 62
     3
370
    25
100
AcDbLine
 10
-83.62399755752085
 20
36.05000244826078
 30
0.0
 11
-83.62399755752085
 21
50.95000267028809
 31
0.0
  0
LINE
  5
234
330
1F
100
AcDbEntity
  8
16
  6
Continuous
 62
     3
370
    25
100
AcDbLine
 10
-83.62399755752085
 20
-19.84999838471413
 30
0.0
 11
-83.02399754858016
 21
-19.84999838471413
 31
0.0
  0
LINE
  5
235
330
1F
100
AcDbEntity
  8
16
  6
Continuous
 62
     3
370
    25
100
AcDbLine
 10
-83.02399754858016
 20
-19.84999838471413
 30
0.0
 11
-83.02399754858016
 21
-4.949998162686825
 31
0.0
  0
LINE
  5
236
330
1F
100
AcDbEntity
  8
16
  6
Continuous
 62
     3
370
    25
100
AcDbLine
 10
-83.02399754858016
 20
-3.949998147785664
 30
0.0
 11
-83.02399754858016
 21
15.0500021353364
 31
0.0
  0
LINE
  5
237
330
1F
100
AcDbEntity
  8
16
  6
Continuous
 62
     3
370
    25
100
AcDbLine
 10
-83.02399754858016
 20
16.05000215023756
 30
0.0
 11
-83.02399754858016
 21
35.05000243335962
 31
0.0
  0
LINE
  5
238
330
1F
100
AcDbEntity
  8
16
  6
Continuous
 62
     3
370
    25
100
AcDbLine
 10
-83.02399754858016
 20
36.05000244826078
 30
0.0
 11
-83.02399754858016
 21
50.95000267028809
 31
0.0
  0
LINE
  5
239
330
1F
100
AcDbEntity
  8
16
  6
Continuous
 62
     3
370
    25
100
AcDbLine
 10
-83.62399755752085
 20
50.95000267028809
 30
0.0
 11
-83.02399754858016
 21
50.95000267028809
 31
0.0
  0
LINE
  5
23A
330
1F
100
AcDbEntity
  8
16
  6
Continuous
 62
     3
370
    25
100
AcDbLine
 10
-81.11199800837039
 20
-19.84999838471413
 30
0.0
 11
-81.11199800837039
 21
-4.949998162686825
 31
0.0
  0
LINE
  5
23B
330
1F
100
AcDbEntity
  8
16
  6
Continuous
 62
     3
370
    25
100
AcDbLine
 10
-81.11199800837039
 20
-3.949998147785664
 30
0.0
 11
-81.11199800837039
 21
15.0500021353364
 31
0.0
  0
LINE
  5
23C
330
1F
100
AcDbEntity
  8
16
  6
Continuous
 62
     3
370
    25
100
AcDbLine
 10
-81.11199800837039
 20
16.05000215023756
 30
0.0
 11
-81.11199800837039
 21
35.05000243335962
 31
0.0
  0
LINE
  5
23D
330
1F
100
AcDbEntity
  8
16
  6
Continuous
 62
     3
370
    25
100
AcDbLine
 10
-81.11199800837039
 20
36.05000244826078
 30
0.0
 11
-81.11199800837039
 21
50.95000267028809
 31
0.0
  0
LINE
  5
23E
330
1F
100
AcDbEntity
  8
16
  6
Continuous
 62
     3
370
    25
100
AcDbLine
 10
-81.11199800837039
 20
-19.84999838471413
 30
0.0
 11
-80.5119979994297
 21
-19.84999838471413
 31
0.0
  0
LINE
  5
23F
330
1F
100
AcDbEntity
  8
16
  6
Continuous
 62
     3
370
    25
100
AcDbLine
 10
-80.5119979994297
 20
-19.84999838471413
 30
0.0
 11
-80.5119979994297
 21
-4.949998162686825
 31
0.0
  0
LINE
  5
240
330
1F
100
AcDbEntity
  8
16
  6
Continuous
 62
     3
370
    25
100
AcDbLine
 10
-80.5119979994297
 20
-3.949998147785664
 30
0.0
 11
-80.5119979994297
 21
15.0500021353364
 31
0.0
  0
LINE
  5
241
330
1F
100
AcDbEntity
  8
16
  6
Continuous
 62
     3
370
    25
100
AcDbLine
 10
-80.5119979994297
 20
16.05000215023756
 30
0.0
 11
-80.5119979994297
 21
35.05000243335962
 31
0.0
  0
LINE
  5
242
330
1F
100
AcDbEntity
  8
16
  6
Continuous
 62
     3
370
    25
100
AcDbLine
 10
-80.5119979994297
 20
36.05000244826078
 30
0.0
 11
-80.5119979994297
 21
50.95000267028809
 31
0.0
  0
LINE
  5
243
330
1F
100
AcDbEntity
  8
16
  6
Continuous
 62
     3
370
    25
100
AcDbLine
 10
-81.11199800837039
 20
50.95000267028809
 30
0.0
 11
-80.5119979994297
 21
50.95000267028809
 31
0.0
  0
LINE
  5
244
330
1F
100
AcDbEntity
  8
16
  6
Continuous
 62
     3
370
    25
100
AcDbLine
 10
-78.59999845921993
 20
-19.84999838471413
 30
0.0
 11
-78.59999845921993
 21
-4.949998162686825
 31
0.0
  0
LINE
  5
245
330
1F
100
AcDbEntity
  8
16
  6
Continuous
 62
     3
370
    25
100
AcDbLine
 10
-78.59999845921993
 20
-3.949998147785664
 30
0.0
 11
-78.59999845921993
 21
15.0500021353364
 31
0.0
  0
LINE
  5
246
330
1F
100
AcDbEntity
  8
16
  6
Continuous
 62
     3
370
    25
100
AcDbLine
 10
-78.59999845921993
 20
16.05000215023756
 30
0.0
 11
-78.59999845921993
 21
35.05000243335962
 31
0.0
  0
LINE
  5
247
330
1F
100
AcDbEntity
  8
16
  6
Continuous
 62
     3
370
    25
100
AcDbLine
 10
-78.59999845921993
 20
36.05000244826078
 30
0.0
 11
-78.59999845921993
 21
50.95000267028809
 31
0.0
  0
LINE
  5
248
330
1F
100
AcDbEntity
  8
16
  6
Continuous
 62
     3
370
    25
100
AcDbLine
 10
-78.59999845921993
 20
-19.84999838471413
 30
0.0
 11
-77.99999845027924
 21
-19.84999838471413
 31
0.0
  0
LINE
  5
249
330
1F
100
AcDbEntity
  8
16
  6
Continuous
 62
     3
370
    25
100
AcDbLine
 10
-77.99999845027924
 20
-19.84999838471413
 30
0.0
 11
-77.99999845027924
 21
-4.949998162686825
 31
0.0
  0
LINE
  5
24A
330
1F
100
AcDbEntity
  8
16
  6
Continuous
 62
     3
370
    25
100
AcDbLine
 10
-77.99999845027924
 20
-3.949998147785664
 30
0.0
 11
-77.99999845027924
 21
15.0500021353364
 31
0.0
  0
LINE
  5
24B
330
1F
100
AcDbEntity
  8
16
  6
Continuous
 62
     3
370
    25
100
AcDbLine
 10
-77.99999845027924
 20
16.05000215023756
 30
0.0
 11
-77.99999845027924
 21
35.05000243335962
 31
0.0
  0
LINE
  5
24C
330
1F
100
AcDbEntity
  8
16
  6
Continuous
 62
     3
370
    25
100
AcDbLine
 10
-77.99999845027924
 20
36.05000244826078
 30
0.0
 11
-77.99999845027924
 21
50.95000267028809
 31
0.0
  0
LINE
  5
24D
330
1F
100
AcDbEntity
  8
16
  6
Continuous
 62
     3
370
    25
100
AcDbLine
 10
-78.59999845921993
 20
50.95000267028809
 30
0.0
 11
-77.99999845027924
 21
50.95000267028809
 31
0.0
  0
LINE
  5
24E
330
1F
100
AcDbEntity
  8
16
  6
Continuous
 62
     3
370
    25
100
AcDbLine
 10
-76.08799891006947
 20
-19.84999838471413
 30
0.0
 11
-76.08799891006947
 21
-4.949998162686825
 31
0.0
  0
LINE
  5
24F
330
1F
100
AcDbEntity
  8
16
  6
Continuous
 62
     3
370
    25
100
AcDbLine
 10
-76.08799891006947
 20
-3.949998147785664
 30
0.0
 11
-76.08799891006947
 21
15.0500021353364
 31
0.0
  0
LINE
  5
250
330
1F
100
AcDbEntity
  8
16
  6
Continuous
 62
     3
370
    25
100
AcDbLine
 10
-76.08799891006947
 20
16.05000215023756
 30
0.0
 11
-76.08799891006947
 21
35.05000243335962
 31
0.0
  0
LINE
  5
251
330
1F
100
AcDbEntity
  8
16
  6
Continuous
 62
     3
370
    25
100
AcDbLine
 10
-76.08799891006947
 20
36.05000244826078
 30
0.0
 11
-76.08799891006947
 21
50.95000267028809
 31
0.0
  0
LINE
  5
252
330
1F
100
AcDbEntity
  8
16
  6
Continuous
 62
     3
370
    25
100
AcDbLine
 10
-76.08799891006947
 20
-19.84999838471413
 30
0.0
 11
-75.48799890112878
 21
-19.84999838471413
 31
0.0
  0
LINE
  5
253
330
1F
100
AcDbEntity
  8
16
  6
Continuous
 62
     3
370
    25
100
AcDbLine
 10
-75.48799890112878
 20
-19.84999838471413
 30
0.0
 11
-75.48799890112878
 21
-4.949998162686825
 31
0.0
  0
LINE
  5
254
330
1F
100
AcDbEntity
  8
16
  6
Continuous
 62
     3
370
    25
100
AcDbLine
 10
-75.48799890112878
 20
-3.949998147785664
 30
0.0
 11
-75.48799890112878
 21
15.0500021353364
 31
0.0
  0
LINE
  5
255
330
1F
100
AcDbEntity
  8
16
  6
Continuous
 62
     3
370
    25
100
AcDbLine
 10
-75.48799890112878
 20
16.05000215023756
 30
0.0
 11
-75.48799890112878
 21
35.05000243335962
 31
0.0
  0
LINE
  5
256
330
1F
100
AcDbEntity
  8
16
  6
Continuous
 62
     3
370
    25
100
AcDbLine
 10
-75.48799890112878
 20
36.05000244826078
 30
0.0
 11
-75.48799890112878
 21
50.95000267028809
 31
0.0
  0
LINE
  5
257
330
1F
100
AcDbEntity
  8
16
  6
Continuous
 62
     3
370
    25
100
AcDbLine
 10
-76.08799891006947
 20
50.95000267028809
 30
0.0
 11
-75.48799890112878
 21
50.95000267028809
 31
0.0
  0
LINE
  5
258
330
1F
100
AcDbEntity
  8
16
  6
Continuous
 62
     3
370
    25
100
AcDbLine
 10
-73.57599936091901
 20
-19.84999838471413
 30
0.0
 11
-73.57599936091901
 21
-4.949998162686825
 31
0.0
  0
LINE
  5
259
330
1F
100
AcDbEntity
  8
16
  6
Continuous
 62
     3
370
    25
100
AcDbLine
 10
-73.57599936091901
 20
-3.949998147785664
 30
0.0
 11
-73.57599936091901
 21
15.0500021353364
 31
0.0
  0
LINE
  5
25A
330
1F
100
AcDbEntity
  8
16
  6
Continuous
 62
     3
370
    25
100
AcDbLine
 10
-73.57599936091901
 20
16.05000215023756
 30
0.0
 11
-73.57599936091901
 21
35.05000243335962
 31
0.0
  0
LINE
  5
25B
330
1F
100
AcDbEntity
  8
16
  6
Continuous
 62
     3
370
    25
100
AcDbLine
 10
-73.57599936091901
 20
36.05000244826078
 30
0.0
 11
-73.57599936091901
 21
50.95000267028809
 31
0.0
  0
LINE
  5
25C
330
1F
100
AcDbEntity
  8
16
  6
Continuous
 62
     3
370
    25
100
AcDbLine
 10
-73.57599936091901
 20
-19.84999838471413
 30
0.0
 11
-72.97599935197832
 21
-19.84999838471413
 31
0.0
  0
LINE
  5
25D
330
1F
100
AcDbEntity
  8
16
  6
Continuous
 62
     3
370
    25
100
AcDbLine
 10
-72.97599935197832
 20
-19.84999838471413
 30
0.0
 11
-72.97599935197832
 21
-4.949998162686825
 31
0.0
  0
LINE
  5
25E
330
1F
100
AcDbEntity
  8
16
  6
Continuous
 62
     3
370
    25
100
AcDbLine
 10
-72.97599935197832
 20
-3.949998147785664
 30
0.0
 11
-72.97599935197832
 21
15.0500021353364
 31
0.0
  0
LINE
  5
25F
330
1F
100
AcDbEntity
  8
16
  6
Continuous
 62
     3
370
    25
100
AcDbLine
 10
-72.97599935197832
 20
16.05000215023756
 30
0.0
 11
-72.97599935197832
 21
35.05000243335962
 31
0.0
  0
LINE
  5
260
330
1F
100
AcDbEntity
  8
16
  6
Continuous
 62
     3
370
    25
100
AcDbLine
 10
-72.97599935197832
 20
36.05000244826078
 30
0.0
 11
-72.97599935197832
 21
50.95000267028809
 31
0.0
  0
LINE
  5
261
330
1F
100
AcDbEntity
  8
16
  6
Continuous
 62
     3
370
    25
100
AcDbLine
 10
-73.57599936091901
 20
50.95000267028809
 30
0.0
 11
-72.97599935197832
 21
50.95000267028809
 31
0.0
  0
LINE
  5
262
330
1F
100
AcDbEntity
  8
16
  6
Continuous
 62
     3
370
    25
100
AcDbLine
 10
-71.06399981176855
 20
-19.84999838471413
 30
0.0
 11
-71.06399981176855
 21
-4.949998162686825
 31
0.0
  0
LINE
  5
263
330
1F
100
AcDbEntity
  8
16
  6
Continuous
 62
     3
370
    25
100
AcDbLine
 10
-71.06399981176855
 20
-3.949998147785664
 30
0.0
 11
-71.06399981176855
 21
15.0500021353364
 31
0.0
  0
LINE
  5
264
330
1F
100
AcDbEntity
  8
16
  6
Continuous
 62
     3
370
    25
100
AcDbLine
 10
-71.06399981176855
 20
16.05000215023756
 30
0.0
 11
-71.06399981176855
 21
35.05000243335962
 31
0.0
  0
LINE
  5
265
330
1F
100
AcDbEntity
  8
16
  6
Continuous
 62
     3
370
    25
100
AcDbLine
 10
-71.06399981176855
 20
36.05000244826078
 30
0.0
 11
-71.06399981176855
 21
50.95000267028809
 31
0.0
  0
LINE
  5
266
330
1F
100
AcDbEntity
  8
16
  6
Continuous
 62
     3
370
    25
100
AcDbLine
 10
-71.06399981176855
 20
-19.84999838471413
 30
0.0
 11
-70.46399980282786
 21
-19.84999838471413
 31
0.0
  0
LINE
  5
267
330
1F
100
AcDbEntity
  8
16
  6
Continuous
 62
     3
370
    25
100
AcDbLine
 10
-70.46399980282786
 20
-19.84999838471413
 30
0.0
 11
-70.46399980282786
 21
-4.949998162686825
 31
0.0
  0
LINE
  5
268
330
1F
100
AcDbEntity
  8
16
  6
Continuous
 62
     3
370
    25
100
AcDbLine
 10
-70.46399980282786
 20
-3.949998147785664
 30
0.0
 11
-70.46399980282786
 21
15.0500021353364
 31
0.0
  0
LINE
  5
269
330
1F
100
AcDbEntity
  8
16
  6
Continuous
 62
     3
370
    25
100
AcDbLine
 10
-70.46399980282786
 20
16.05000215023756
 30
0.0
 11
-70.46399980282786
 21
35.05000243335962
 31
0.0
  0
LINE
  5
26A
330
1F
100
AcDbEntity
  8
16
  6
Continuous
 62
     3
370
    25
100
AcDbLine
 10
-70.46399980282786
 20
36.05000244826078
 30
0.0
 11
-70.46399980282786
 21
50.95000267028809
 31
0.0
  0
LINE
  5
26B
330
1F
100
AcDbEntity
  8
16
  6
Continuous
 62
     3
370
    25
100
AcDbLine
 10
-71.06399981176855
 20
50.95000267028809
 30
0.0
 11
-70.46399980282786
 21
50.95000267028809
 31
0.0
  0
LINE
  5
26C
330
1F
100
AcDbEntity
  8
16
  6
Continuous
 62
     3
370
    25
100
AcDbLine
 10
-68.5520002626181
 20
-19.84999838471413
 30
0.0
 11
-68.5520002626181
 21
-4.949998162686825
 31
0.0
  0
LINE
  5
26D
330
1F
100
AcDbEntity
  8
16
  6
Continuous
 62
     3
370
    25
100
AcDbLine
 10
-68.5520002626181
 20
-3.949998147785664
 30
0.0
 11
-68.5520002626181
 21
15.0500021353364
 31
0.0
  0
LINE
  5
26E
330
1F
100
AcDbEntity
  8
16
  6
Continuous
 62
     3
370
    25
100
AcDbLine
 10
-68.5520002626181
 20
16.05000215023756
 30
0.0
 11
-68.5520002626181
 21
35.05000243335962
 31
0.0
  0
LINE
  5
26F
330
1F
100
AcDbEntity
  8
16
  6
Continuous
 62
     3
370
    25
100
AcDbLine
 10
-68.5520002626181
 20
36.05000244826078
 30
0.0
 11
-68.5520002626181
 21
50.95000267028809
 31
0.0
  0
LINE
  5
270
330
1F
100
AcDbEntity
  8
16
  6
Continuous
 62
     3
370
    25
100
AcDbLine
 10
-68.5520002626181
 20
-19.84999838471413
 30
0.0
 11
-67.9520002536774
 21
-19.84999838471413
 31
0.0
  0
LINE
  5
271
330
1F
100
AcDbEntity
  8
16
  6
Continuous
 62
     3
370
    25
100
AcDbLine
 10
-67.9520002536774
 20
-19.84999838471413
 30
0.0
 11
-67.9520002536774
 21
-4.949998162686825
 31
0.0
  0
LINE
  5
272
330
1F
100
AcDbEntity
  8
16
  6
Continuous
 62
     3
370
    25
100
AcDbLine
 10
-67.9520002536774
 20
-3.949998147785664
 30
0.0
 11
-67.9520002536774
 21
15.0500021353364
 31
0.0
  0
LINE
  5
273
330
1F
100
AcDbEntity
  8
16
  6
Continuous
 62
     3
370
    25
100
AcDbLine
 10
-67.9520002536774
 20
16.05000215023756
 30
0.0
 11
-67.9520002536774
 21
35.05000243335962
 31
0.0
  0
LINE
  5
274
330
1F
100
AcDbEntity
  8
16
  6
Continuous
 62
     3
370
    25
100
AcDbLine
 10
-67.9520002536774
 20
36.05000244826078
 30
0.0
 11
-67.9520002536774
 21
50.95000267028809
 31
0.0
  0
LINE
  5
275
330
1F
100
AcDbEntity
  8
16
  6
Continuous
 62
     3
370
    25
100
AcDbLine
 10
-68.5520002626181
 20
50.95000267028809
 30
0.0
 11
-67.9520002536774
 21
50.95000267028809
 31
0.0
  0
LINE
  5
276
330
1F
100
AcDbEntity
  8
16
  6
Continuous
 62
     3
370
    25
100
AcDbLine
 10
-66.04000071346763
 20
-19.84999838471413
 30
0.0
 11
-66.04000071346763
 21
-4.949998162686825
 31
0.0
  0
LINE
  5
277
330
1F
100
AcDbEntity
  8
16
  6
Continuous
 62
     3
370
    25
100
AcDbLine
 10
-66.04000071346763
 20
-3.949998147785664
 30
0.0
 11
-66.04000071346763
 21
15.0500021353364
 31
0.0
  0
LINE
  5
278
330
1F
100
AcDbEntity
  8
16
  6
Continuous
 62
     3
370
    25
100
AcDbLine
 10
-66.04000071346763
 20
16.05000215023756
 30
0.0
 11
-66.04000071346763
 21
35.05000243335962
 31
0.0
  0
LINE
  5
279
330
1F
100
AcDbEntity
  8
16
  6
Continuous
 62
     3
370
    25
100
AcDbLine
 10
-66.04000071346763
 20
36.05000244826078
 30
0.0
 11
-66.04000071346763
 21
50.95000267028809
 31
0.0
  0
LINE
  5
27A
330
1F
100
AcDbEntity
  8
16
  6
Continuous
 62
     3
370
    25
100
AcDbLine
 10
-66.04000071346763
 20
-19.84999838471413
 30
0.0
 11
-65.44000070452694
 21
-19.84999838471413
 31
0.0
  0
LINE
  5
27B
330
1F
100
AcDbEntity
  8
16
  6
Continuous
 62
     3
370
    25
100
AcDbLine
 10
-65.44000070452694
 20
-19.84999838471413
 30
0.0
 11
-65.44000070452694
 21
-4.949998162686825
 31
0.0
  0
LINE
  5
27C
330
1F
100
AcDbEntity
  8
16
  6
Continuous
 62
     3
370
    25
100
AcDbLine
 10
-65.44000070452694
 20
-3.949998147785664
 30
0.0
 11
-65.44000070452694
 21
15.0500021353364
 31
0.0
  0
LINE
  5
27D
330
1F
100
AcDbEntity
  8
16
  6
Continuous
 62
     3
370
    25
100
AcDbLine
 10
-65.44000070452694
 20
16.05000215023756
 30
0.0
 11
-65.44000070452694
 21
35.05000243335962
 31
0.0
  0
LINE
  5
27E
330
1F
100
AcDbEntity
  8
16
  6
Continuous
 62
     3
370
    25
100
AcDbLine
 10
-65.44000070452694
 20
36.05000244826078
 30
0.0
 11
-65.44000070452694
 21
50.95000267028809
 31
0.0
  0
LINE
  5
27F
330
1F
100
AcDbEntity
  8
16
  6
Continuous
 62
     3
370
    25
100
AcDbLine
 10
-66.04000071346763
 20
50.95000267028809
 30
0.0
 11
-65.44000070452694
 21
50.95000267028809
 31
0.0
  0
LINE
  5
280
330
1F
100
AcDbEntity
  8
16
  6
Continuous
 62
     3
370
    25
100
AcDbLine
 10
-63.52800116431717
 20
-19.84999838471413
 30
0.0
 11
-63.52800116431717
 21
-4.949998162686825
 31
0.0
  0
LINE
  5
281
330
1F
100
AcDbEntity
  8
16
  6
Continuous
 62
     3
370
    25
100
AcDbLine
 10
-63.52800116431717
 20
-3.949998147785664
 30
0.0
 11
-63.52800116431717
 21
15.0500021353364
 31
0.0
  0
LINE
  5
282
330
1F
100
AcDbEntity
  8
16
  6
Continuous
 62
     3
370
    25
100
AcDbLine
 10
-63.52800116431717
 20
16.05000215023756
 30
0.0
 11
-63.52800116431717
 21
35.05000243335962
 31
0.0
  0
LINE
  5
283
330
1F
100
AcDbEntity
  8
16
  6
Continuous
 62
     3
370
    25
100
AcDbLine
 10
-63.52800116431717
 20
36.05000244826078
 30
0.0
 11
-63.52800116431717
 21
50.95000267028809
 31
0.0
  0
LINE
  5
284
330
1F
100
AcDbEntity
  8
16
  6
Continuous
 62
     3
370
    25
100
AcDbLine
 10
-63.52800116431717
 20
-19.84999838471413
 30
0.0
 11
-62.92800115537648
 21
-19.84999838471413
 31
0.0
  0
LINE
  5
285
330
1F
100
AcDbEntity
  8
16
  6
Continuous
 62
     3
370
    25
100
AcDbLine
 10
-62.92800115537648
 20
-19.84999838471413
 30
0.0
 11
-62.92800115537648
 21
-4.949998162686825
 31
0.0
  0
LINE
  5
286
330
1F
100
AcDbEntity
  8
16
  6
Continuous
 62
     3
370
    25
100
AcDbLine
 10
-62.92800115537648
 20
-3.949998147785664
 30
0.0
 11
-62.92800115537648
 21
15.0500021353364
 31
0.0
  0
LINE
  5
287
330
1F
100
AcDbEntity
  8
16
  6
Continuous
 62
     3
370
    25
100
AcDbLine
 10
-62.92800115537648
 20
16.05000215023756
 30
0.0
 11
-62.92800115537648
 21
35.05000243335962
 31
0.0
  0
LINE
  5
288
330
1F
100
AcDbEntity
  8
16
  6
Continuous
 62
     3
370
    25
100
AcDbLine
 10
-62.92800115537648
 20
36.05000244826078
 30
0.0
 11
-62.92800115537648
 21
50.95000267028809
 31
0.0
  0
LINE
  5
289
330
1F
100
AcDbEntity
  8
16
  6
Continuous
 62
     3
370
    25
100
AcDbLine
 10
-63.52800116431717
 20
50.95000267028809
 30
0.0
 11
-62.92800115537648
 21
50.95000267028809
 31
0.0
  0
LINE
  5
28A
330
1F
100
AcDbEntity
  8
16
  6
Continuous
 62
     3
370
    25
100
AcDbLine
 10
-61.01600161516673
 20
-19.84999838471413
 30
0.0
 11
-61.01600161516673
 21
-4.949998162686825
 31
0.0
  0
LINE
  5
28B
330
1F
100
AcDbEntity
  8
16
  6
Continuous
 62
     3
370
    25
100
AcDbLine
 10
-61.01600161516673
 20
-3.949998147785664
 30
0.0
 11
-61.01600161516673
 21
15.0500021353364
 31
0.0
  0
LINE
  5
28C
330
1F
100
AcDbEntity
  8
16
  6
Continuous
 62
     3
370
    25
100
AcDbLine
 10
-61.01600161516673
 20
16.05000215023756
 30
0.0
 11
-61.01600161516673
 21
35.05000243335962
 31
0.0
  0
LINE
  5
28D
330
1F
100
AcDbEntity
  8
16
  6
Continuous
 62
     3
370
    25
100
AcDbLine
 10
-61.01600161516673
 20
36.05000244826078
 30
0.0
 11
-61.01600161516673
 21
50.95000267028809
 31
0.0
  0
LINE
  5
28E
330
1F
100
AcDbEntity
  8
16
  6
Continuous
 62
     3
370
    25
100
AcDbLine
 10
-61.01600161516673
 20
-19.84999838471413
 30
0.0
 11
-60.41600160622602
 21
-19.84999838471413
 31
0.0
  0
LINE
  5
28F
330
1F
100
AcDbEntity
  8
16
  6
Continuous
 62
     3
370
    25
100
AcDbLine
 10
-60.41600160622602
 20
-19.84999838471413
 30
0.0
 11
-60.41600160622602
 21
-4.949998162686825
 31
0.0
  0
LINE
  5
290
330
1F
100
AcDbEntity
  8
16
  6
Continuous
 62
     3
370
    25
100
AcDbLine
 10
-60.41600160622602
 20
-3.949998147785664
 30
0.0
 11
-60.41600160622602
 21
15.0500021353364
 31
0.0
  0
LINE
  5
291
330
1F
100
AcDbEntity
  8
16
  6
Continuous
 62
     3
370
    25
100
AcDbLine
 10
-60.41600160622602
 20
16.05000215023756
 30
0.0
 11
-60.41600160622602
 21
35.05000243335962
 31
0.0
  0
LINE
  5
292
330
1F
100
AcDbEntity
  8
16
  6
Continuous
 62
     3
370
    25
100
AcDbLine
 10
-60.41600160622602
 20
36.05000244826078
 30
0.0
 11
-60.41600160622602
 21
50.95000267028809
 31
0.0
  0
LINE
  5
293
330
1F
100
AcDbEntity
  8
16
  6
Continuous
 62
     3
370
    25
100
AcDbLine
 10
-61.01600161516673
 20
50.95000267028809
 30
0.0
 11
-60.41600160622602
 21
50.95000267028809
 31
0.0
  0
LINE
  5
294
330
1F
100
AcDbEntity
  8
16
  6
Continuous
 62
     3
370
    25
100
AcDbLine
 10
-58.50400206601625
 20
-19.84999838471413
 30
0.0
 11
-58.50400206601625
 21
-4.949998162686825
 31
0.0
  0
LINE
  5
295
330
1F
100
AcDbEntity
  8
16
  6
Continuous
 62
     3
370
    25
100
AcDbLine
 10
-58.50400206601625
 20
-3.949998147785664
 30
0.0
 11
-58.50400206601625
 21
15.0500021353364
 31
0.0
  0
LINE
  5
296
330
1F
100
AcDbEntity
  8
16
  6
Continuous
 62
     3
370
    25
100
AcDbLine
 10
-58.50400206601625
 20
16.05000215023756
 30
0.0
 11
-58.50400206601625
 21
35.05000243335962
 31
0.0
  0
LINE
  5
297
330
1F
100
AcDbEntity
  8
16
  6
Continuous
 62
     3
370
    25
100
AcDbLine
 10
-58.50400206601625
 20
36.05000244826078
 30
0.0
 11
-58.50400206601625
 21
50.95000267028809
 31
0.0
  0
LINE
  5
298
330
1F
100
AcDbEntity
  8
16
  6
Continuous
 62
     3
370
    25
100
AcDbLine
 10
-58.50400206601625
 20
-19.84999838471413
 30
0.0
 11
-57.90400205707556
 21
-19.84999838471413
 31
0.0
  0
LINE
  5
299
330
1F
100
AcDbEntity
  8
16
  6
Continuous
 62
     3
370
    25
100
AcDbLine
 10
-57.90400205707556
 20
-19.84999838471413
 30
0.0
 11
-57.90400205707556
 21
-4.949998162686825
 31
0.0
  0
LINE
  5
29A
330
1F
100
AcDbEntity
  8
16
  6
Continuous
 62
     3
370
    25
100
AcDbLine
 10
-57.90400205707556
 20
-3.949998147785664
 30
0.0
 11
-57.90400205707556
 21
15.0500021353364
 31
0.0
  0
LINE
  5
29B
330
1F
100
AcDbEntity
  8
16
  6
Continuous
 62
     3
370
    25
100
AcDbLine
 10
-57.90400205707556
 20
16.05000215023756
 30
0.0
 11
-57.90400205707556
 21
35.05000243335962
 31
0.0
  0
LINE
  5
29C
330
1F
100
AcDbEntity
  8
16
  6
Continuous
 62
     3
370
    25
100
AcDbLine
 10
-57.90400205707556
 20
36.05000244826078
 30
0.0
 11
-57.90400205707556
 21
50.95000267028809
 31
0.0
  0
LINE
  5
29D
330
1F
100
AcDbEntity
  8
16
  6
Continuous
 62
     3
370
    25
100
AcDbLine
 10
-58.50400206601625
 20
50.95000267028809
 30
0.0
 11
-57.90400205707556
 21
50.95000267028809
 31
0.0
  0
LINE
  5
29E
330
1F
100
AcDbEntity
  8
16
  6
Continuous
 62
     3
370
    25
100
AcDbLine
 10
-55.99200251686581
 20
-19.84999838471413
 30
0.0
 11
-55.99200251686581
 21
-4.949998162686825
 31
0.0
  0
LINE
  5
29F
330
1F
100
AcDbEntity
  8
16
  6
Continuous
 62
     3
370
    25
100
AcDbLine
 10
-55.99200251686581
 20
-3.949998147785664
 30
0.0
 11
-55.99200251686581
 21
15.0500021353364
 31
0.0
  0
LINE
  5
2A0
330
1F
100
AcDbEntity
  8
16
  6
Continuous
 62
     3
370
    25
100
AcDbLine
 10
-55.99200251686581
 20
16.05000215023756
 30
0.0
 11
-55.99200251686581
 21
35.05000243335962
 31
0.0
  0
LINE
  5
2A1
330
1F
100
AcDbEntity
  8
16
  6
Continuous
 62
     3
370
    25
100
AcDbLine
 10
-55.99200251686581
 20
36.05000244826078
 30
0.0
 11
-55.99200251686581
 21
50.95000267028809
 31
0.0
  0
LINE
  5
2A2
330
1F
100
AcDbEntity
  8
16
  6
Continuous
 62
     3
370
    25
100
AcDbLine
 10
-55.99200251686581
 20
-19.84999838471413
 30
0.0
 11
-55.3920025079251
 21
-19.84999838471413
 31
0.0
  0
LINE
  5
2A3
330
1F
100
AcDbEntity
  8
16
  6
Continuous
 62
     3
370
    25
100
AcDbLine
 10
-55.3920025079251
 20
-19.84999838471413
 30
0.0
 11
-55.3920025079251
 21
-4.949998162686825
 31
0.0
  0
LINE
  5
2A4
330
1F
100
AcDbEntity
  8
16
  6
Continuous
 62
     3
370
    25
100
AcDbLine
 10
-55.3920025079251
 20
-3.949998147785664
 30
0.0
 11
-55.3920025079251
 21
15.0500021353364
 31
0.0
  0
LINE
  5
2A5
330
1F
100
AcDbEntity
  8
16
  6
Continuous
 62
     3
370
    25
100
AcDbLine
 10
-55.3920025079251
 20
16.05000215023756
 30
0.0
 11
-55.3920025079251
 21
35.05000243335962
 31
0.0
  0
LINE
  5
2A6
330
1F
100
AcDbEntity
  8
16
  6
Continuous
 62
     3
370
    25
100
AcDbLine
 10
-55.3920025079251
 20
36.05000244826078
 30
0.0
 11
-55.3920025079251
 21
50.95000267028809
 31
0.0
  0
LINE
  5
2A7
330
1F
100
AcDbEntity
  8
16
  6
Continuous
 62
     3
370
    25
100
AcDbLine
 10
-55.99200251686581
 20
50.95000267028809
 30
0.0
 11
-55.3920025079251
 21
50.95000267028809
 31
0.0
  0
LINE
  5
2A8
330
1F
100
AcDbEntity
  8
16
  6
Continuous
 62
     3
370
    25
100
AcDbLine
 10
-53.48000296771535
 20
-19.84999838471413
 30
0.0
 11
-53.48000296771535
 21
-4.949998162686825
 31
0.0
  0
LINE
  5
2A9
330
1F
100
AcDbEntity
  8
16
  6
Continuous
 62
     3
370
    25
100
AcDbLine
 10
-53.48000296771535
 20
-3.949998147785664
 30
0.0
 11
-53.48000296771535
 21
15.0500021353364
 31
0.0
  0
LINE
  5
2AA
330
1F
100
AcDbEntity
  8
16
  6
Continuous
 62
     3
370
    25
100
AcDbLine
 10
-53.48000296771535
 20
16.05000215023756
 30
0.0
 11
-53.48000296771535
 21
35.05000243335962
 31
0.0
  0
LINE
  5
2AB
330
1F
100
AcDbEntity
  8
16
  6
Continuous
 62
     3
370
    25
100
AcDbLine
 10
-53.48000296771535
 20
36.05000244826078
 30
0.0
 11
-53.48000296771535
 21
50.95000267028809
 31
0.0
  0
LINE
  5
2AC
330
1F
100
AcDbEntity
  8
16
  6
Continuous
 62
     3
370
    25
100
AcDbLine
 10
-53.48000296771535
 20
-19.84999838471413
 30
0.0
 11
-52.88000295877464
 21
-19.84999838471413
 31
0.0
  0
LINE
  5
2AD
330
1F
100
AcDbEntity
  8
16
  6
Continuous
 62
     3
370
    25
100
AcDbLine
 10
-52.88000295877464
 20
-19.84999838471413
 30
0.0
 11
-52.88000295877464
 21
-4.949998162686825
 31
0.0
  0
LINE
  5
2AE
330
1F
100
AcDbEntity
  8
16
  6
Continuous
 62
     3
370
    25
100
AcDbLine
 10
-52.88000295877464
 20
-3.949998147785664
 30
0.0
 11
-52.88000295877464
 21
15.0500021353364
 31
0.0
  0
LINE
  5
2AF
330
1F
100
AcDbEntity
  8
16
  6
Continuous
 62
     3
370
    25
100
AcDbLine
 10
-52.88000295877464
 20
16.05000215023756
 30
0.0
 11
-52.88000295877464
 21
35.05000243335962
 31
0.0
  0
LINE
  5
2B0
330
1F
100
AcDbEntity
  8
16
  6
Continuous
 62
     3
370
    25
100
AcDbLine
 10
-52.88000295877464
 20
36.05000244826078
 30
0.0
 11
-52.88000295877464
 21
50.95000267028809
 31
0.0
  0
LINE
  5
2B1
330
1F
100
AcDbEntity
  8
16
  6
Continuous
 62
     3
370
    25
100
AcDbLine
 10
-53.48000296771535
 20
50.95000267028809
 30
0.0
 11
-52.88000295877464
 21
50.95000267028809
 31
0.0
  0
LINE
  5
2B2
330
1F
100
AcDbEntity
  8
16
  6
Continuous
 62
     3
370
    25
100
AcDbLine
 10
-50.96800341856488
 20
-19.84999838471413
 30
0.0
 11
-50.96800341856488
 21
-4.949998162686825
 31
0.0
  0
LINE
  5
2B3
330
1F
100
AcDbEntity
  8
16
  6
Continuous
 62
     3
370
    25
100
AcDbLine
 10
-50.96800341856488
 20
-3.949998147785664
 30
0.0
 11
-50.96800341856488
 21
15.0500021353364
 31
0.0
  0
LINE
  5
2B4
330
1F
100
AcDbEntity
  8
16
  6
Continuous
 62
     3
370
    25
100
AcDbLine
 10
-50.96800341856488
 20
16.05000215023756
 30
0.0
 11
-50.96800341856488
 21
35.05000243335962
 31
0.0
  0
LINE
  5
2B5
330
1F
100
AcDbEntity
  8
16
  6
Continuous
 62
     3
370
    25
100
AcDbLine
 10
-50.96800341856488
 20
36.05000244826078
 30
0.0
 11
-50.96800341856488
 21
50.95000267028809
 31
0.0
  0
LINE
  5
2B6
330
1F
100
AcDbEntity
  8
16
  6
Continuous
 62
     3
370
    25
100
AcDbLine
 10
-50.96800341856488
 20
-19.84999838471413
 30
0.0
 11
-50.36800340962418
 21
-19.84999838471413
 31
0.0
  0
LINE
  5
2B7
330
1F
100
AcDbEntity
  8
16
  6
Continuous
 62
     3
370
    25
100
AcDbLine
 10
-50.36800340962418
 20
-19.84999838471413
 30
0.0
 11
-50.36800340962418
 21
-4.949998162686825
 31
0.0
  0
LINE
  5
2B8
330
1F
100
AcDbEntity
  8
16
  6
Continuous
 62
     3
370
    25
100
AcDbLine
 10
-50.36800340962418
 20
-3.949998147785664
 30
0.0
 11
-50.36800340962418
 21
15.0500021353364
 31
0.0
  0
LINE
  5
2B9
330
1F
100
AcDbEntity
  8
16
  6
Continuous
 62
     3
370
    25
100
AcDbLine
 10
-50.36800340962418
 20
16.05000215023756
 30
0.0
 11
-50.36800340962418
 21
35.05000243335962
 31
0.0
  0
LINE
  5
2BA
330
1F
100
AcDbEntity
  8
16
  6
Continuous
 62
     3
370
    25
100
AcDbLine
 10
-50.36800340962418
 20
36.05000244826078
 30
0.0
 11
-50.36800340962418
 21
50.95000267028809
 31
0.0
  0
LINE
  5
2BB
330
1F
100
AcDbEntity
  8
16
  6
Continuous
 62
     3
370
    25
100
AcDbLine
 10
-50.96800341856488
 20
50.95000267028809
 30
0.0
 11
-50.36800340962418
 21
50.95000267028809
 31
0.0
  0
LINE
  5
2BC
330
1F
100
AcDbEntity
  8
16
  6
Continuous
 62
     3
370
    25
100
AcDbLine
 10
-48.45600386941442
 20
-19.84999838471413
 30
0.0
 11
-48.45600386941442
 21
-4.949998162686825
 31
0.0
  0
LINE
  5
2BD
330
1F
100
AcDbEntity
  8
16
  6
Continuous
 62
     3
370
    25
100
AcDbLine
 10
-48.45600386941442
 20
-3.949998147785664
 30
0.0
 11
-48.45600386941442
 21
15.0500021353364
 31
0.0
  0
LINE
  5
2BE
330
1F
100
AcDbEntity
  8
16
  6
Continuous
 62
     3
370
    25
100
AcDbLine
 10
-48.45600386941442
 20
16.05000215023756
 30
0.0
 11
-48.45600386941442
 21
35.05000243335962
 31
0.0
  0
LINE
  5
2BF
330
1F
100
AcDbEntity
  8
16
  6
Continuous
 62
     3
370
    25
100
AcDbLine
 10
-48.45600386941442
 20
36.05000244826078
 30
0.0
 11
-48.45600386941442
 21
50.95000267028809
 31
0.0
  0
LINE
  5
2C0
330
1F
100
AcDbEntity
  8
16
  6
Continuous
 62
     3
370
    25
100
AcDbLine
 10
-48.45600386941442
 20
-19.84999838471413
 30
0.0
 11
-47.85600386047372
 21
-19.84999838471413
 31
0.0
  0
LINE
  5
2C1
330
1F
100
AcDbEntity
  8
16
  6
Continuous
 62
     3
370
    25
100
AcDbLine
 10
-47.85600386047372
 20
-19.84999838471413
 30
0.0
 11
-47.85600386047372
 21
-4.949998162686825
 31
0.0
  0
LINE
  5
2C2
330
1F
100
AcDbEntity
  8
16
  6
Continuous
 62
     3
370
    25
100
AcDbLine
 10
-47.85600386047372
 20
-3.949998147785664
 30
0.0
 11
-47.85600386047372
 21
15.0500021353364
 31
0.0
  0
LINE
  5
2C3
330
1F
100
AcDbEntity
  8
16
  6
Continuous
 62
     3
370
    25
100
AcDbLine
 10
-47.85600386047372
 20
16.05000215023756
 30
0.0
 11
-47.85600386047372
 21
35.05000243335962
 31
0.0
  0
LINE
  5
2C4
330
1F
100
AcDbEntity
  8
16
  6
Continuous
 62
     3
370
    25
100
AcDbLine
 10
-47.85600386047372
 20
36.05000244826078
 30
0.0
 11
-47.85600386047372
 21
50.95000267028809
 31
0.0
  0
LINE
  5
2C5
330
1F
100
AcDbEntity
  8
16
  6
Continuous
 62
     3
370
    25
100
AcDbLine
 10
-48.45600386941442
 20
50.95000267028809
 30
0.0
 11
-47.85600386047372
 21
50.95000267028809
 31
0.0
  0
LINE
  5
2C6
330
1F
100
AcDbEntity
  8
16
  6
Continuous
 62
     3
370
    25
100
AcDbLine
 10
-45.94399211323253
 20
-19.84999838471413
 30
0.0
 11
-45.94399211323253
 21
-4.949998162686825
 31
0.0
  0
LINE
  5
2C7
330
1F
100
AcDbEntity
  8
16
  6
Continuous
 62
     3
370
    25
100
AcDbLine
 10
-45.94399211323253
 20
-3.949998147785664
 30
0.0
 11
-45.94399211323253
 21
15.0500021353364
 31
0.0
  0
LINE
  5
2C8
330
1F
100
AcDbEntity
  8
16
  6
Continuous
 62
     3
370
    25
100
AcDbLine
 10
-45.94399211323253
 20
16.05000215023756
 30
0.0
 11
-45.94399211323253
 21
35.05000243335962
 31
0.0
  0
LINE
  5
2C9
330
1F
100
AcDbEntity
  8
16
  6
Continuous
 62
     3
370
    25
100
AcDbLine
 10
-45.94399211323253
 20
36.05000244826078
 30
0.0
 11
-45.94399211323253
 21
50.95000267028809
 31
0.0
  0
LINE
  5
2CA
330
1F
100
AcDbEntity
  8
16
  6
Continuous
 62
     3
370
    25
100
AcDbLine
 10
-45.94399211323253
 20
-19.84999838471413
 30
0.0
 11
-45.34399210429183
 21
-19.84999838471413
 31
0.0
  0
LINE
  5
2CB
330
1F
100
AcDbEntity
  8
16
  6
Continuous
 62
     3
370
    25
100
AcDbLine
 10
-45.34399210429183
 20
-19.84999838471413
 30
0.0
 11
-45.34399210429183
 21
-4.949998162686825
 31
0.0
  0
LINE
  5
2CC
330
1F
100
AcDbEntity
  8
16
  6
Continuous
 62
     3
370
    25
100
AcDbLine
 10
-45.34399210429183
 20
-3.949998147785664
 30
0.0
 11
-45.34399210429183
 21
15.0500021353364
 31
0.0
  0
LINE
  5
2CD
330
1F
100
AcDbEntity
  8
16
  6
Continuous
 62
     3
370
    25
100
AcDbLine
 10
-45.34399210429183
 20
16.05000215023756
 30
0.0
 11
-45.34399210429183
 21
35.05000243335962
 31
0.0
  0
LINE
  5
2CE
330
1F
100
AcDbEntity
  8
16
  6
Continuous
 62
     3
370
    25
100
AcDbLine
 10
-45.34399210429183
 20
36.05000244826078
 30
0.0
 11
-45.34399210429183
 21
50.95000267028809
 31
0.0
  0
LINE
  5
2CF
330
1F
100
AcDbEntity
  8
16
  6
Continuous
 62
     3
370
    25
100
AcDbLine
 10
-45.94399211323253
 20
50.95000267028809
 30
0.0
 11
-45.34399210429183
 21
50.95000267028809
 31
0.0
  0
LINE
  5
2D0
330
1F
100
AcDbEntity
  8
16
  6
Continuous
 62
     3
370
    25
100
AcDbLine
 10
-43.39999793469906
 20
-19.84999838471413
 30
0.0
 11
-43.39999793469906
 21
-4.949998162686825
 31
0.0
  0
LINE
  5
2D1
330
1F
100
AcDbEntity
  8
16
  6
Continuous
 62
     3
370
    25
100
AcDbLine
 10
-43.39999793469906
 20
-3.949998147785664
 30
0.0
 11
-43.39999793469906
 21
15.0500021353364
 31
0.0
  0
LINE
  5
2D2
330
1F
100
AcDbEntity
  8
16
  6
Continuous
 62
     3
370
    25
100
AcDbLine
 10
-43.39999793469906
 20
16.05000215023756
 30
0.0
 11
-43.39999793469906
 21
35.05000243335962
 31
0.0
  0
LINE
  5
2D3
330
1F
100
AcDbEntity
  8
16
  6
Continuous
 62
     3
370
    25
100
AcDbLine
 10
-43.39999793469906
 20
36.05000244826078
 30
0.0
 11
-43.39999793469906
 21
50.95000267028809
 31
0.0
  0
LINE
  5
2D4
330
1F
100
AcDbEntity
  8
16
  6
Continuous
 62
     3
370
    25
100
AcDbLine
 10
-43.39999793469906
 20
-19.84999838471413
 30
0.0
 11
-42.79999792575836
 21
-19.84999838471413
 31
0.0
  0
LINE
  5
2D5
330
1F
100
AcDbEntity
  8
16
  6
Continuous
 62
     3
370
    25
100
AcDbLine
 10
-42.79999792575836
 20
-19.84999838471413
 30
0.0
 11
-42.79999792575836
 21
50.95000267028809
 31
0.0
  0
LINE
  5
2D6
330
1F
100
AcDbEntity
  8
16
  6
Continuous
 62
     3
370
    25
100
AcDbLine
 10
-43.39999793469906
 20
50.95000267028809
 30
0.0
 11
-42.79999792575836
 21
50.95000267028809
 31
0.0
  0
LINE
  5
2D7
330
1F
100
AcDbEntity
  8
16
  6
Continuous
 62
     3
370
    25
100
AcDbLine
 10
-140.7999993860722
 20
42.9500025510788
 30
0.0
 11
-138.8879992736578
 21
42.9500025510788
 31
0.0
  0
LINE
  5
2D8
330
1F
100
AcDbEntity
  8
16
  6
Continuous
 62
     3
370
    25
100
AcDbLine
 10
-138.2879998369217
 20
42.9500025510788
 30
0.0
 11
-136.3759997245073
 21
42.9500025510788
 31
0.0
  0
LINE
  5
2D9
330
1F
100
AcDbEntity
  8
16
  6
Continuous
 62
     3
370
    25
100
AcDbLine
 10
-135.7760002877712
 20
42.9500025510788
 30
0.0
 11
-133.8640001753569
 21
42.9500025510788
 31
0.0
  0
LINE
  5
2DA
330
1F
100
AcDbEntity
  8
16
  6
Continuous
 62
     3
370
    25
100
AcDbLine
 10
-133.2640007386208
 20
42.9500025510788
 30
0.0
 11
-131.3520006262064
 21
42.9500025510788
 31
0.0
  0
LINE
  5
2DB
330
1F
100
AcDbEntity
  8
16
  6
Continuous
 62
     3
370
    25
100
AcDbLine
 10
-130.7520011894703
 20
42.9500025510788
 30
0.0
 11
-128.840001077056
 21
42.9500025510788
 31
0.0
  0
LINE
  5
2DC
330
1F
100
AcDbEntity
  8
16
  6
Continuous
 62
     3
370
    25
100
AcDbLine
 10
-128.2400016403199
 20
42.9500025510788
 30
0.0
 11
-126.3280015279055
 21
42.9500025510788
 31
0.0
  0
LINE
  5
2DD
330
1F
100
AcDbEntity
  8
16
  6
Continuous
 62
     3
370
    25
100
AcDbLine
 10
-125.7280020911694
 20
42.9500025510788
 30
0.0
 11
-123.816001978755
 21
42.9500025510788
 31
0.0
  0
LINE
  5
2DE
330
1F
100
AcDbEntity
  8
16
  6
Continuous
 62
     3
370
    25
100
AcDbLine
 10
-123.2159964385032
 20
42.9500025510788
 30
0.0
 11
-121.3039963260889
 21
42.9500025510788
 31
0.0
  0
LINE
  5
2DF
330
1F
100
AcDbEntity
  8
16
  6
Continuous
 62
     3
370
    25
100
AcDbLine
 10
-120.7039968893528
 20
42.9500025510788
 30
0.0
 11
-118.7919967769384
 21
42.9500025510788
 31
0.0
  0
LINE
  5
2E0
330
1F
100
AcDbEntity
  8
16
  6
Continuous
 62
     3
370
    25
100
AcDbLine
 10
-118.1919973402023
 20
42.9500025510788
 30
0.0
 11
-116.2799972277879
 21
42.9500025510788
 31
0.0
  0
LINE
  5
2E1
330
1F
100
AcDbEntity
  8
16
  6
Continuous
 62
     3
370
    25
100
AcDbLine
 10
-115.6799977910518
 20
42.9500025510788
 30
0.0
 11
-113.7679976786375
 21
42.9500025510788
 31
0.0
  0
LINE
  5
2E2
330
1F
100
AcDbEntity
  8
16
  6
Continuous
 62
     3
370
    25
100
AcDbLine
 10
-113.1679982419014
 20
42.9500025510788
 30
0.0
 11
-111.255998129487
 21
42.9500025510788
 31
0.0
  0
LINE
  5
2E3
330
1F
100
AcDbEntity
  8
16
  6
Continuous
 62
     3
370
    25
100
AcDbLine
 10
-110.6559986927509
 20
42.9500025510788
 30
0.0
 11
-108.7439985803366
 21
42.9500025510788
 31
0.0
  0
LINE
  5
2E4
330
1F
100
AcDbEntity
  8
16
  6
Continuous
 62
     3
370
    25
100
AcDbLine
 10
-108.1439991436005
 20
42.9500025510788
 30
0.0
 11
-106.2319990311861
 21
42.9500025510788
 31
0.0
  0
LINE
  5
2E5
330
1F
100
AcDbEntity
  8
16
  6
Continuous
 62
     3
370
    25
100
AcDbLine
 10
-105.63199959445
 20
42.9500025510788
 30
0.0
 11
-103.7199994820356
 21
42.9500025510788
 31
0.0
  0
LINE
  5
2E6
330
1F
100
AcDbEntity
  8
16
  6
Continuous
 62
     3
370
    25
100
AcDbLine
 10
-103.1200000452995
 20
42.9500025510788
 30
0.0
 11
-101.2079999328852
 21
42.9500025510788
 31
0.0
  0
LINE
  5
2E7
330
1F
100
AcDbEntity
  8
16
  6
Continuous
 62
     3
370
    25
100
AcDbLine
 10
-100.6080004961491
 20
42.9500025510788
 30
0.0
 11
-98.69600038373473
 21
42.9500025510788
 31
0.0
  0
LINE
  5
2E8
330
1F
100
AcDbEntity
  8
16
  6
Continuous
 62
     3
370
    25
100
AcDbLine
 10
-98.09600094699863
 20
42.9500025510788
 30
0.0
 11
-96.18400083458427
 21
42.9500025510788
 31
0.0
  0
LINE
  5
2E9
330
1F
100
AcDbEntity
  8
16
  6
Continuous
 62
     3
370
    25
100
AcDbLine
 10
-95.58400139784817
 20
42.9500025510788
 30
0.0
 11
-93.67200128543381
 21
42.9500025510788
 31
0.0
  0
LINE
  5
2EA
330
1F
100
AcDbEntity
  8
16
  6
Continuous
 62
     3
370
    25
100
AcDbLine
 10
-93.071995745182
 20
42.9500025510788
 30
0.0
 11
-91.15999563276763
 21
42.9500025510788
 31
0.0
  0
LINE
  5
2EB
330
1F
100
AcDbEntity
  8
16
  6
Continuous
 62
     3
370
    25
100
AcDbLine
 10
-90.55999619603153
 20
42.9500025510788
 30
0.0
 11
-88.64799608361717
 21
42.9500025510788
 31
0.0
  0
LINE
  5
2EC
330
1F
100
AcDbEntity
  8
16
  6
Continuous
 62
     3
370
    25
100
AcDbLine
 10
-88.04799664688107
 20
42.9500025510788
 30
0.0
 11
-86.13599653446671
 21
42.9500025510788
 31
0.0
  0
LINE
  5
2ED
330
1F
100
AcDbEntity
  8
16
  6
Continuous
 62
     3
370
    25
100
AcDbLine
 10
-85.53599709773061
 20
42.9500025510788
 30
0.0
 11
-83.62399698531625
 21
42.9500025510788
 31
0.0
  0
LINE
  5
2EE
330
1F
100
AcDbEntity
  8
16
  6
Continuous
 62
     3
370
    25
100
AcDbLine
 10
-83.02399754858016
 20
42.9500025510788
 30
0.0
 11
-81.1119974361658
 21
42.9500025510788
 31
0.0
  0
LINE
  5
2EF
330
1F
100
AcDbEntity
  8
16
  6
Continuous
 62
     3
370
    25
100
AcDbLine
 10
-80.5119979994297
 20
42.9500025510788
 30
0.0
 11
-78.59999788701533
 21
42.9500025510788
 31
0.0
  0
LINE
  5
2F0
330
1F
100
AcDbEntity
  8
16
  6
Continuous
 62
     3
370
    25
100
AcDbLine
 10
-77.99999845027924
 20
42.9500025510788
 30
0.0
 11
-76.08799833786487
 21
42.9500025510788
 31
0.0
  0
LINE
  5
2F1
330
1F
100
AcDbEntity
  8
16
  6
Continuous
 62
     3
370
    25
100
AcDbLine
 10
-75.48799890112878
 20
42.9500025510788
 30
0.0
 11
-73.57599878871441
 21
42.9500025510788
 31
0.0
  0
LINE
  5
2F2
330
1F
100
AcDbEntity
  8
16
  6
Continuous
 62
     3
370
    25
100
AcDbLine
 10
-72.97599935197832
 20
42.9500025510788
 30
0.0
 11
-71.06399923956396
 21
42.9500025510788
 31
0.0
  0
LINE
  5
2F3
330
1F
100
AcDbEntity
  8
16
  6
Continuous
 62
     3
370
    25
100
AcDbLine
 10
-70.46399980282786
 20
42.9500025510788
 30
0.0
 11
-68.5519996904135
 21
42.9500025510788
 31
0.0
  0
LINE
  5
2F4
330
1F
100
AcDbEntity
  8
16
  6
Continuous
 62
     3
370
    25
100
AcDbLine
 10
-67.9520002536774
 20
42.9500025510788
 30
0.0
 11
-66.04000014126304
 21
42.9500025510788
 31
0.0
  0
LINE
  5
2F5
330
1F
100
AcDbEntity
  8
16
  6
Continuous
 62
     3
370
    25
100
AcDbLine
 10
-65.44000070452694
 20
42.9500025510788
 30
0.0
 11
-63.52800059211259
 21
42.9500025510788
 31
0.0
  0
LINE
  5
2F6
330
1F
100
AcDbEntity
  8
16
  6
Continuous
 62
     3
370
    25
100
AcDbLine
 10
-62.92800115537648
 20
42.9500025510788
 30
0.0
 11
-61.01600104296212
 21
42.9500025510788
 31
0.0
  0
LINE
  5
2F7
330
1F
100
AcDbEntity
  8
16
  6
Continuous
 62
     3
370
    25
100
AcDbLine
 10
-60.41600160622602
 20
42.9500025510788
 30
0.0
 11
-58.50400149381166
 21
42.9500025510788
 31
0.0
  0
LINE
  5
2F8
330
1F
100
AcDbEntity
  8
16
  6
Continuous
 62
     3
370
    25
100
AcDbLine
 10
-57.90400205707556
 20
42.9500025510788
 30
0.0
 11
-55.9920019446612
 21
42.9500025510788
 31
0.0
  0
LINE
  5
2F9
330
1F
100
AcDbEntity
  8
16
  6
Continuous
 62
     3
370
    25
100
AcDbLine
 10
-55.3920025079251
 20
42.9500025510788
 30
0.0
 11
-53.48000239551074
 21
42.9500025510788
 31
0.0
  0
LINE
  5
2FA
330
1F
100
AcDbEntity
  8
16
  6
Continuous
 62
     3
370
    25
100
AcDbLine
 10
-52.88000295877464
 20
42.9500025510788
 30
0.0
 11
-50.96800284636028
 21
42.9500025510788
 31
0.0
  0
LINE
  5
2FB
330
1F
100
AcDbEntity
  8
16
  6
Continuous
 62
     3
370
    25
100
AcDbLine
 10
-50.36800340962418
 20
42.9500025510788
 30
0.0
 11
-48.45600329720982
 21
42.9500025510788
 31
0.0
  0
LINE
  5
2FC
330
1F
100
AcDbEntity
  8
16
  6
Continuous
 62
     3
370
    25
100
AcDbLine
 10
-47.85600386047372
 20
42.9500025510788
 30
0.0
 11
-45.94400374805936
 21
42.9500025510788
 31
0.0
  0
LINE
  5
2FD
330
1F
100
AcDbEntity
  8
16
  6
Continuous
 62
     3
370
    25
100
AcDbLine
 10
-45.34399210429183
 20
42.9500025510788
 30
0.0
 11
-43.39999812543392
 21
42.9500025510788
 31
0.0
  0
LINE
  5
2FE
330
1F
100
AcDbEntity
  8
16
  6
Continuous
 62
     3
370
    25
100
AcDbLine
 10
-140.7999993860722
 20
-11.84999826550484
 30
0.0
 11
-138.8879992736578
 21
-11.84999826550484
 31
0.0
  0
LINE
  5
2FF
330
1F
100
AcDbEntity
  8
16
  6
Continuous
 62
     3
370
    25
100
AcDbLine
 10
-138.2879998369217
 20
-11.84999826550484
 30
0.0
 11
-136.3759997245073
 21
-11.84999826550484
 31
0.0
  0
LINE
  5
300
330
1F
100
AcDbEntity
  8
16
  6
Continuous
 62
     3
370
    25
100
AcDbLine
 10
-135.7760002877712
 20
-11.84999826550484
 30
0.0
 11
-133.8640001753569
 21
-11.84999826550484
 31
0.0
  0
LINE
  5
301
330
1F
100
AcDbEntity
  8
16
  6
Continuous
 62
     3
370
    25
100
AcDbLine
 10
-133.2640007386208
 20
-11.84999826550484
 30
0.0
 11
-131.3520006262064
 21
-11.84999826550484
 31
0.0
  0
LINE
  5
302
330
1F
100
AcDbEntity
  8
16
  6
Continuous
 62
     3
370
    25
100
AcDbLine
 10
-130.7520011894703
 20
-11.84999826550484
 30
0.0
 11
-128.840001077056
 21
-11.84999826550484
 31
0.0
  0
LINE
  5
303
330
1F
100
AcDbEntity
  8
16
  6
Continuous
 62
     3
370
    25
100
AcDbLine
 10
-128.2400016403199
 20
-11.84999826550484
 30
0.0
 11
-126.3280015279055
 21
-11.84999826550484
 31
0.0
  0
LINE
  5
304
330
1F
100
AcDbEntity
  8
16
  6
Continuous
 62
     3
370
    25
100
AcDbLine
 10
-125.7280020911694
 20
-11.84999826550484
 30
0.0
 11
-123.816001978755
 21
-11.84999826550484
 31
0.0
  0
LINE
  5
305
330
1F
100
AcDbEntity
  8
16
  6
Continuous
 62
     3
370
    25
100
AcDbLine
 10
-123.2159964385032
 20
-11.84999826550484
 30
0.0
 11
-121.3039963260889
 21
-11.84999826550484
 31
0.0
  0
LINE
  5
306
330
1F
100
AcDbEntity
  8
16
  6
Continuous
 62
     3
370
    25
100
AcDbLine
 10
-120.7039968893528
 20
-11.84999826550484
 30
0.0
 11
-118.7919967769384
 21
-11.84999826550484
 31
0.0
  0
LINE
  5
307
330
1F
100
AcDbEntity
  8
16
  6
Continuous
 62
     3
370
    25
100
AcDbLine
 10
-118.1919973402023
 20
-11.84999826550484
 30
0.0
 11
-116.2799972277879
 21
-11.84999826550484
 31
0.0
  0
LINE
  5
308
330
1F
100
AcDbEntity
  8
16
  6
Continuous
 62
     3
370
    25
100
AcDbLine
 10
-115.6799977910518
 20
-11.84999826550484
 30
0.0
 11
-113.7679976786375
 21
-11.84999826550484
 31
0.0
  0
LINE
  5
309
330
1F
100
AcDbEntity
  8
16
  6
Continuous
 62
     3
370
    25
100
AcDbLine
 10
-113.1679982419014
 20
-11.84999826550484
 30
0.0
 11
-111.255998129487
 21
-11.84999826550484
 31
0.0
  0
LINE
  5
30A
330
1F
100
AcDbEntity
  8
16
  6
Continuous
 62
     3
370
    25
100
AcDbLine
 10
-110.6559986927509
 20
-11.84999826550484
 30
0.0
 11
-108.7439985803366
 21
-11.84999826550484
 31
0.0
  0
LINE
  5
30B
330
1F
100
AcDbEntity
  8
16
  6
Continuous
 62
     3
370
    25
100
AcDbLine
 10
-108.1439991436005
 20
-11.84999826550484
 30
0.0
 11
-106.2319990311861
 21
-11.84999826550484
 31
0.0
  0
LINE
  5
30C
330
1F
100
AcDbEntity
  8
16
  6
Continuous
 62
     3
370
    25
100
AcDbLine
 10
-105.63199959445
 20
-11.84999826550484
 30
0.0
 11
-103.7199994820356
 21
-11.84999826550484
 31
0.0
  0
LINE
  5
30D
330
1F
100
AcDbEntity
  8
16
  6
Continuous
 62
     3
370
    25
100
AcDbLine
 10
-103.1200000452995
 20
-11.84999826550484
 30
0.0
 11
-101.2079999328852
 21
-11.84999826550484
 31
0.0
  0
LINE
  5
30E
330
1F
100
AcDbEntity
  8
16
  6
Continuous
 62
     3
370
    25
100
AcDbLine
 10
-100.6080004961491
 20
-11.84999826550484
 30
0.0
 11
-98.69600038373473
 21
-11.84999826550484
 31
0.0
  0
LINE
  5
30F
330
1F
100
AcDbEntity
  8
16
  6
Continuous
 62
     3
370
    25
100
AcDbLine
 10
-98.09600094699863
 20
-11.84999826550484
 30
0.0
 11
-96.18400083458427
 21
-11.84999826550484
 31
0.0
  0
LINE
  5
310
330
1F
100
AcDbEntity
  8
16
  6
Continuous
 62
     3
370
    25
100
AcDbLine
 10
-95.58400139784817
 20
-11.84999826550484
 30
0.0
 11
-93.67200128543381
 21
-11.84999826550484
 31
0.0
  0
LINE
  5
311
330
1F
100
AcDbEntity
  8
16
  6
Continuous
 62
     3
370
    25
100
AcDbLine
 10
-93.071995745182
 20
-11.84999826550484
 30
0.0
 11
-91.15999563276763
 21
-11.84999826550484
 31
0.0
  0
LINE
  5
312
330
1F
100
AcDbEntity
  8
16
  6
Continuous
 62
     3
370
    25
100
AcDbLine
 10
-90.55999619603153
 20
-11.84999826550484
 30
0.0
 11
-88.64799608361717
 21
-11.84999826550484
 31
0.0
  0
LINE
  5
313
330
1F
100
AcDbEntity
  8
16
  6
Continuous
 62
     3
370
    25
100
AcDbLine
 10
-88.04799664688107
 20
-11.84999826550484
 30
0.0
 11
-86.13599653446671
 21
-11.84999826550484
 31
0.0
  0
LINE
  5
314
330
1F
100
AcDbEntity
  8
16
  6
Continuous
 62
     3
370
    25
100
AcDbLine
 10
-85.53599709773061
 20
-11.84999826550484
 30
0.0
 11
-83.62399698531625
 21
-11.84999826550484
 31
0.0
  0
LINE
  5
315
330
1F
100
AcDbEntity
  8
16
  6
Continuous
 62
     3
370
    25
100
AcDbLine
 10
-83.02399754858016
 20
-11.84999826550484
 30
0.0
 11
-81.1119974361658
 21
-11.84999826550484
 31
0.0
  0
LINE
  5
316
330
1F
100
AcDbEntity
  8
16
  6
Continuous
 62
     3
370
    25
100
AcDbLine
 10
-80.5119979994297
 20
-11.84999826550484
 30
0.0
 11
-78.59999788701533
 21
-11.84999826550484
 31
0.0
  0
LINE
  5
317
330
1F
100
AcDbEntity
  8
16
  6
Continuous
 62
     3
370
    25
100
AcDbLine
 10
-77.99999845027924
 20
-11.84999826550484
 30
0.0
 11
-76.08799833786487
 21
-11.84999826550484
 31
0.0
  0
LINE
  5
318
330
1F
100
AcDbEntity
  8
16
  6
Continuous
 62
     3
370
    25
100
AcDbLine
 10
-75.48799890112878
 20
-11.84999826550484
 30
0.0
 11
-73.57599878871441
 21
-11.84999826550484
 31
0.0
  0
LINE
  5
319
330
1F
100
AcDbEntity
  8
16
  6
Continuous
 62
     3
370
    25
100
AcDbLine
 10
-72.97599935197832
 20
-11.84999826550484
 30
0.0
 11
-71.06399923956396
 21
-11.84999826550484
 31
0.0
  0
LINE
  5
31A
330
1F
100
AcDbEntity
  8
16
  6
Continuous
 62
     3
370
    25
100
AcDbLine
 10
-70.46399980282786
 20
-11.84999826550484
 30
0.0
 11
-68.5519996904135
 21
-11.84999826550484
 31
0.0
  0
LINE
  5
31B
330
1F
100
AcDbEntity
  8
16
  6
Continuous
 62
     3
370
    25
100
AcDbLine
 10
-67.9520002536774
 20
-11.84999826550484
 30
0.0
 11
-66.04000014126304
 21
-11.84999826550484
 31
0.0
  0
LINE
  5
31C
330
1F
100
AcDbEntity
  8
16
  6
Continuous
 62
     3
370
    25
100
AcDbLine
 10
-65.44000070452694
 20
-11.84999826550484
 30
0.0
 11
-63.52800059211259
 21
-11.84999826550484
 31
0.0
  0
LINE
  5
31D
330
1F
100
AcDbEntity
  8
16
  6
Continuous
 62
     3
370
    25
100
AcDbLine
 10
-62.92800115537648
 20
-11.84999826550484
 30
0.0
 11
-61.01600104296212
 21
-11.84999826550484
 31
0.0
  0
LINE
  5
31E
330
1F
100
AcDbEntity
  8
16
  6
Continuous
 62
     3
370
    25
100
AcDbLine
 10
-60.41600160622602
 20
-11.84999826550484
 30
0.0
 11
-58.50400149381166
 21
-11.84999826550484
 31
0.0
  0
LINE
  5
31F
330
1F
100
AcDbEntity
  8
16
  6
Continuous
 62
     3
370
    25
100
AcDbLine
 10
-57.90400205707556
 20
-11.84999826550484
 30
0.0
 11
-55.9920019446612
 21
-11.84999826550484
 31
0.0
  0
LINE
  5
320
330
1F
100
AcDbEntity
  8
16
  6
Continuous
 62
     3
370
    25
100
AcDbLine
 10
-55.3920025079251
 20
-11.84999826550484
 30
0.0
 11
-53.48000239551074
 21
-11.84999826550484
 31
0.0
  0
LINE
  5
321
330
1F
100
AcDbEntity
  8
16
  6
Continuous
 62
     3
370
    25
100
AcDbLine
 10
-52.88000295877464
 20
-11.84999826550484
 30
0.0
 11
-50.96800284636028
 21
-11.84999826550484
 31
0.0
  0
LINE
  5
322
330
1F
100
AcDbEntity
  8
16
  6
Continuous
 62
     3
370
    25
100
AcDbLine
 10
-50.36800340962418
 20
-11.84999826550484
 30
0.0
 11
-48.45600329720982
 21
-11.84999826550484
 31
0.0
  0
LINE
  5
323
330
1F
100
AcDbEntity
  8
16
  6
Continuous
 62
     3
370
    25
100
AcDbLine
 10
-47.85600386047372
 20
-11.84999826550484
 30
0.0
 11
-45.94400374805936
 21
-11.84999826550484
 31
0.0
  0
LINE
  5
324
330
1F
100
AcDbEntity
  8
16
  6
Continuous
 62
     3
370
    25
100
AcDbLine
 10
-45.34399210429183
 20
-11.84999826550484
 30
0.0
 11
-43.39999812543392
 21
-11.84999826550484
 31
0.0
  0
LINE
  5
325
330
1F
100
AcDbEntity
  8
16
  6
Continuous
 62
     3
370
    25
100
AcDbLine
 10
-141.3999993950129
 20
-64.64999905228615
 30
0.0
 11
-141.3999993950129
 21
-68.44999910891056
 31
0.0
  0
LINE
  5
326
330
1F
100
AcDbEntity
  8
16
  6
Continuous
 62
     3
370
    25
100
AcDbLine
 10
-141.3999993950129
 20
-68.44999910891056
 30
0.0
 11
-140.7999993860722
 21
-68.44999910891056
 31
0.0
  0
LINE
  5
327
330
1F
100
AcDbEntity
  8
16
  6
Continuous
 62
     3
370
    25
100
AcDbLine
 10
-140.7999993860722
 20
-68.44999910891056
 30
0.0
 11
-140.7999993860722
 21
-64.64999905228615
 31
0.0
  0
LINE
  5
328
330
1F
100
AcDbEntity
  8
16
  6
Continuous
 62
     3
370
    25
100
AcDbLine
 10
-140.7999993860722
 20
-64.64999905228615
 30
0.0
 11
-141.3999993950129
 21
-64.64999905228615
 31
0.0
  0
LINE
  5
329
330
1F
100
AcDbEntity
  8
16
  6
Continuous
 62
     3
370
    25
100
AcDbLine
 10
-141.3999993950129
 20
-64.64999905228615
 30
0.0
 11
-141.3999993950129
 21
-64.50999905258416
 31
0.0
  0
LINE
  5
32A
330
1F
100
AcDbEntity
  8
16
  6
Continuous
 62
     3
370
    25
100
AcDbLine
 10
-141.3999993950129
 20
-64.50999905258416
 30
0.0
 11
-140.7999993860722
 21
-64.50999905258416
 31
0.0
  0
LINE
  5
32B
330
1F
100
AcDbEntity
  8
16
  6
Continuous
 62
     3
370
    25
100
AcDbLine
 10
-140.7999993860722
 20
-64.50999905258416
 30
0.0
 11
-140.7999993860722
 21
-64.64999905228615
 31
0.0
  0
LINE
  5
32C
330
1F
100
AcDbEntity
  8
16
  6
Continuous
 62
     3
370
    25
100
AcDbLine
 10
-138.8879998458624
 20
-64.64999905228615
 30
0.0
 11
-138.8879998458624
 21
-68.44999910891056
 31
0.0
  0
LINE
  5
32D
330
1F
100
AcDbEntity
  8
16
  6
Continuous
 62
     3
370
    25
100
AcDbLine
 10
-138.8879998458624
 20
-68.44999910891056
 30
0.0
 11
-138.2879998369217
 21
-68.44999910891056
 31
0.0
  0
LINE
  5
32E
330
1F
100
AcDbEntity
  8
16
  6
Continuous
 62
     3
370
    25
100
AcDbLine
 10
-138.2879998369217
 20
-68.44999910891056
 30
0.0
 11
-138.2879998369217
 21
-64.64999905228615
 31
0.0
  0
LINE
  5
32F
330
1F
100
AcDbEntity
  8
16
  6
Continuous
 62
     3
370
    25
100
AcDbLine
 10
-138.2879998369217
 20
-64.64999905228615
 30
0.0
 11
-138.8879998458624
 21
-64.64999905228615
 31
0.0
  0
LINE
  5
330
330
1F
100
AcDbEntity
  8
16
  6
Continuous
 62
     3
370
    25
100
AcDbLine
 10
-138.8879998458624
 20
-64.64999905228615
 30
0.0
 11
-138.8879998458624
 21
-64.50999905258416
 31
0.0
  0
LINE
  5
331
330
1F
100
AcDbEntity
  8
16
  6
Continuous
 62
     3
370
    25
100
AcDbLine
 10
-138.8879998458624
 20
-64.50999905258416
 30
0.0
 11
-138.2879998369217
 21
-64.50999905258416
 31
0.0
  0
LINE
  5
332
330
1F
100
AcDbEntity
  8
16
  6
Continuous
 62
     3
370
    25
100
AcDbLine
 10
-138.2879998369217
 20
-64.50999905258416
 30
0.0
 11
-138.2879998369217
 21
-64.64999905228615
 31
0.0
  0
LINE
  5
333
330
1F
100
AcDbEntity
  8
16
  6
Continuous
 62
     3
370
    25
100
AcDbLine
 10
-136.3760002967119
 20
-64.64999905228615
 30
0.0
 11
-136.3760002967119
 21
-68.44999910891056
 31
0.0
  0
LINE
  5
334
330
1F
100
AcDbEntity
  8
16
  6
Continuous
 62
     3
370
    25
100
AcDbLine
 10
-136.3760002967119
 20
-68.44999910891056
 30
0.0
 11
-135.7760002877712
 21
-68.44999910891056
 31
0.0
  0
LINE
  5
335
330
1F
100
AcDbEntity
  8
16
  6
Continuous
 62
     3
370
    25
100
AcDbLine
 10
-135.7760002877712
 20
-68.44999910891056
 30
0.0
 11
-135.7760002877712
 21
-64.64999905228615
 31
0.0
  0
LINE
  5
336
330
1F
100
AcDbEntity
  8
16
  6
Continuous
 62
     3
370
    25
100
AcDbLine
 10
-135.7760002877712
 20
-64.64999905228615
 30
0.0
 11
-136.3760002967119
 21
-64.64999905228615
 31
0.0
  0
LINE
  5
337
330
1F
100
AcDbEntity
  8
16
  6
Continuous
 62
     3
370
    25
100
AcDbLine
 10
-136.3760002967119
 20
-64.64999905228615
 30
0.0
 11
-136.3760002967119
 21
-64.50999905258416
 31
0.0
  0
LINE
  5
338
330
1F
100
AcDbEntity
  8
16
  6
Continuous
 62
     3
370
    25
100
AcDbLine
 10
-136.3760002967119
 20
-64.50999905258416
 30
0.0
 11
-135.7760002877712
 21
-64.50999905258416
 31
0.0
  0
LINE
  5
339
330
1F
100
AcDbEntity
  8
16
  6
Continuous
 62
     3
370
    25
100
AcDbLine
 10
-135.7760002877712
 20
-64.50999905258416
 30
0.0
 11
-135.7760002877712
 21
-64.64999905228615
 31
0.0
  0
LINE
  5
33A
330
1F
100
AcDbEntity
  8
16
  6
Continuous
 62
     3
370
    25
100
AcDbLine
 10
-133.8640007475615
 20
-64.64999905228615
 30
0.0
 11
-133.8640007475615
 21
-68.44999910891056
 31
0.0
  0
LINE
  5
33B
330
1F
100
AcDbEntity
  8
16
  6
Continuous
 62
     3
370
    25
100
AcDbLine
 10
-133.8640007475615
 20
-68.44999910891056
 30
0.0
 11
-133.2640007386208
 21
-68.44999910891056
 31
0.0
  0
LINE
  5
33C
330
1F
100
AcDbEntity
  8
16
  6
Continuous
 62
     3
370
    25
100
AcDbLine
 10
-133.2640007386208
 20
-68.44999910891056
 30
0.0
 11
-133.2640007386208
 21
-64.64999905228615
 31
0.0
  0
LINE
  5
33D
330
1F
100
AcDbEntity
  8
16
  6
Continuous
 62
     3
370
    25
100
AcDbLine
 10
-133.2640007386208
 20
-64.64999905228615
 30
0.0
 11
-133.8640007475615
 21
-64.64999905228615
 31
0.0
  0
LINE
  5
33E
330
1F
100
AcDbEntity
  8
16
  6
Continuous
 62
     3
370
    25
100
AcDbLine
 10
-133.8640007475615
 20
-64.64999905228615
 30
0.0
 11
-133.8640007475615
 21
-64.50999905258416
 31
0.0
  0
LINE
  5
33F
330
1F
100
AcDbEntity
  8
16
  6
Continuous
 62
     3
370
    25
100
AcDbLine
 10
-133.8640007475615
 20
-64.50999905258416
 30
0.0
 11
-133.2640007386208
 21
-64.50999905258416
 31
0.0
  0
LINE
  5
340
330
1F
100
AcDbEntity
  8
16
  6
Continuous
 62
     3
370
    25
100
AcDbLine
 10
-133.2640007386208
 20
-64.50999905258416
 30
0.0
 11
-133.2640007386208
 21
-64.64999905228615
 31
0.0
  0
LINE
  5
341
330
1F
100
AcDbEntity
  8
16
  6
Continuous
 62
     3
370
    25
100
AcDbLine
 10
-131.3519981466532
 20
-64.64999905228615
 30
0.0
 11
-131.3519981466532
 21
-68.44999910891056
 31
0.0
  0
LINE
  5
342
330
1F
100
AcDbEntity
  8
16
  6
Continuous
 62
     3
370
    25
100
AcDbLine
 10
-131.3519981466532
 20
-68.44999910891056
 30
0.0
 11
-130.7519981377125
 21
-68.44999910891056
 31
0.0
  0
LINE
  5
343
330
1F
100
AcDbEntity
  8
16
  6
Continuous
 62
     3
370
    25
100
AcDbLine
 10
-130.7519981377125
 20
-68.44999910891056
 30
0.0
 11
-130.7519981377125
 21
-64.64999905228615
 31
0.0
  0
LINE
  5
344
330
1F
100
AcDbEntity
  8
16
  6
Continuous
 62
     3
370
    25
100
AcDbLine
 10
-130.7519981377125
 20
-64.64999905228615
 30
0.0
 11
-131.3519981466532
 21
-64.64999905228615
 31
0.0
  0
LINE
  5
345
330
1F
100
AcDbEntity
  8
16
  6
Continuous
 62
     3
370
    25
100
AcDbLine
 10
-131.3519981466532
 20
-64.64999905228615
 30
0.0
 11
-131.3519981466532
 21
-64.50999905258416
 31
0.0
  0
LINE
  5
346
330
1F
100
AcDbEntity
  8
16
  6
Continuous
 62
     3
370
    25
100
AcDbLine
 10
-131.3519981466532
 20
-64.50999905258416
 30
0.0
 11
-130.7519981377125
 21
-64.50999905258416
 31
0.0
  0
LINE
  5
347
330
1F
100
AcDbEntity
  8
16
  6
Continuous
 62
     3
370
    25
100
AcDbLine
 10
-130.7519981377125
 20
-64.50999905258416
 30
0.0
 11
-130.7519981377125
 21
-64.64999905228615
 31
0.0
  0
LINE
  5
348
330
1F
100
AcDbEntity
  8
16
  6
Continuous
 62
     3
370
    25
100
AcDbLine
 10
-128.8400016492606
 20
-64.64999905228615
 30
0.0
 11
-128.8400016492606
 21
-68.44999910891056
 31
0.0
  0
LINE
  5
349
330
1F
100
AcDbEntity
  8
16
  6
Continuous
 62
     3
370
    25
100
AcDbLine
 10
-128.8400016492606
 20
-68.44999910891056
 30
0.0
 11
-128.2400016403199
 21
-68.44999910891056
 31
0.0
  0
LINE
  5
34A
330
1F
100
AcDbEntity
  8
16
  6
Continuous
 62
     3
370
    25
100
AcDbLine
 10
-128.2400016403199
 20
-68.44999910891056
 30
0.0
 11
-128.2400016403199
 21
-64.64999905228615
 31
0.0
  0
LINE
  5
34B
330
1F
100
AcDbEntity
  8
16
  6
Continuous
 62
     3
370
    25
100
AcDbLine
 10
-128.2400016403199
 20
-64.64999905228615
 30
0.0
 11
-128.8400016492606
 21
-64.64999905228615
 31
0.0
  0
LINE
  5
34C
330
1F
100
AcDbEntity
  8
16
  6
Continuous
 62
     3
370
    25
100
AcDbLine
 10
-128.8400016492606
 20
-64.64999905228615
 30
0.0
 11
-128.8400016492606
 21
-64.50999905258416
 31
0.0
  0
LINE
  5
34D
330
1F
100
AcDbEntity
  8
16
  6
Continuous
 62
     3
370
    25
100
AcDbLine
 10
-128.8400016492606
 20
-64.50999905258416
 30
0.0
 11
-128.2400016403199
 21
-64.50999905258416
 31
0.0
  0
LINE
  5
34E
330
1F
100
AcDbEntity
  8
16
  6
Continuous
 62
     3
370
    25
100
AcDbLine
 10
-128.2400016403199
 20
-64.50999905258416
 30
0.0
 11
-128.2400016403199
 21
-64.64999905228615
 31
0.0
  0
LINE
  5
34F
330
1F
100
AcDbEntity
  8
16
  6
Continuous
 62
     3
370
    25
100
AcDbLine
 10
-126.3280021001101
 20
-64.64999905228615
 30
0.0
 11
-126.3280021001101
 21
-68.44999910891056
 31
0.0
  0
LINE
  5
350
330
1F
100
AcDbEntity
  8
16
  6
Continuous
 62
     3
370
    25
100
AcDbLine
 10
-126.3280021001101
 20
-68.44999910891056
 30
0.0
 11
-125.7280020911694
 21
-68.44999910891056
 31
0.0
  0
LINE
  5
351
330
1F
100
AcDbEntity
  8
16
  6
Continuous
 62
     3
370
    25
100
AcDbLine
 10
-125.7280020911694
 20
-68.44999910891056
 30
0.0
 11
-125.7280020911694
 21
-64.64999905228615
 31
0.0
  0
LINE
  5
352
330
1F
100
AcDbEntity
  8
16
  6
Continuous
 62
     3
370
    25
100
AcDbLine
 10
-125.7280020911694
 20
-64.64999905228615
 30
0.0
 11
-126.3280021001101
 21
-64.64999905228615
 31
0.0
  0
LINE
  5
353
330
1F
100
AcDbEntity
  8
16
  6
Continuous
 62
     3
370
    25
100
AcDbLine
 10
-126.3280021001101
 20
-64.64999905228615
 30
0.0
 11
-126.3280021001101
 21
-64.50999905258416
 31
0.0
  0
LINE
  5
354
330
1F
100
AcDbEntity
  8
16
  6
Continuous
 62
     3
370
    25
100
AcDbLine
 10
-126.3280021001101
 20
-64.50999905258416
 30
0.0
 11
-125.7280020911694
 21
-64.50999905258416
 31
0.0
  0
LINE
  5
355
330
1F
100
AcDbEntity
  8
16
  6
Continuous
 62
     3
370
    25
100
AcDbLine
 10
-125.7280020911694
 20
-64.50999905258416
 30
0.0
 11
-125.7280020911694
 21
-64.64999905228615
 31
0.0
  0
LINE
  5
356
330
1F
100
AcDbEntity
  8
16
  6
Continuous
 62
     3
370
    25
100
AcDbLine
 10
-123.8159964474439
 20
-64.64999905228615
 30
0.0
 11
-123.8159964474439
 21
-68.44999910891056
 31
0.0
  0
LINE
  5
357
330
1F
100
AcDbEntity
  8
16
  6
Continuous
 62
     3
370
    25
100
AcDbLine
 10
-123.8159964474439
 20
-68.44999910891056
 30
0.0
 11
-123.2159964385032
 21
-68.44999910891056
 31
0.0
  0
LINE
  5
358
330
1F
100
AcDbEntity
  8
16
  6
Continuous
 62
     3
370
    25
100
AcDbLine
 10
-123.2159964385032
 20
-68.44999910891056
 30
0.0
 11
-123.2159964385032
 21
-64.64999905228615
 31
0.0
  0
LINE
  5
359
330
1F
100
AcDbEntity
  8
16
  6
Continuous
 62
     3
370
    25
100
AcDbLine
 10
-123.2159964385032
 20
-64.64999905228615
 30
0.0
 11
-123.8159964474439
 21
-64.64999905228615
 31
0.0
  0
LINE
  5
35A
330
1F
100
AcDbEntity
  8
16
  6
Continuous
 62
     3
370
    25
100
AcDbLine
 10
-123.8159964474439
 20
-64.64999905228615
 30
0.0
 11
-123.8159964474439
 21
-64.50999905258416
 31
0.0
  0
LINE
  5
35B
330
1F
100
AcDbEntity
  8
16
  6
Continuous
 62
     3
370
    25
100
AcDbLine
 10
-123.8159964474439
 20
-64.50999905258416
 30
0.0
 11
-123.2159964385032
 21
-64.50999905258416
 31
0.0
  0
LINE
  5
35C
330
1F
100
AcDbEntity
  8
16
  6
Continuous
 62
     3
370
    25
100
AcDbLine
 10
-123.2159964385032
 20
-64.50999905258416
 30
0.0
 11
-123.2159964385032
 21
-64.64999905228615
 31
0.0
  0
LINE
  5
35D
330
1F
100
AcDbEntity
  8
16
  6
Continuous
 62
     3
370
    25
100
AcDbLine
 10
-121.3039968982935
 20
-64.64999905228615
 30
0.0
 11
-121.3039968982935
 21
-68.44999910891056
 31
0.0
  0
LINE
  5
35E
330
1F
100
AcDbEntity
  8
16
  6
Continuous
 62
     3
370
    25
100
AcDbLine
 10
-121.3039968982935
 20
-68.44999910891056
 30
0.0
 11
-120.7039968893528
 21
-68.44999910891056
 31
0.0
  0
LINE
  5
35F
330
1F
100
AcDbEntity
  8
16
  6
Continuous
 62
     3
370
    25
100
AcDbLine
 10
-120.7039968893528
 20
-68.44999910891056
 30
0.0
 11
-120.7039968893528
 21
-64.64999905228615
 31
0.0
  0
LINE
  5
360
330
1F
100
AcDbEntity
  8
16
  6
Continuous
 62
     3
370
    25
100
AcDbLine
 10
-120.7039968893528
 20
-64.64999905228615
 30
0.0
 11
-121.3039968982935
 21
-64.64999905228615
 31
0.0
  0
LINE
  5
361
330
1F
100
AcDbEntity
  8
16
  6
Continuous
 62
     3
370
    25
100
AcDbLine
 10
-121.3039968982935
 20
-64.64999905228615
 30
0.0
 11
-121.3039968982935
 21
-64.50999905258416
 31
0.0
  0
LINE
  5
362
330
1F
100
AcDbEntity
  8
16
  6
Continuous
 62
     3
370
    25
100
AcDbLine
 10
-121.3039968982935
 20
-64.50999905258416
 30
0.0
 11
-120.7039968893528
 21
-64.50999905258416
 31
0.0
  0
LINE
  5
363
330
1F
100
AcDbEntity
  8
16
  6
Continuous
 62
     3
370
    25
100
AcDbLine
 10
-120.7039968893528
 20
-64.50999905258416
 30
0.0
 11
-120.7039968893528
 21
-64.64999905228615
 31
0.0
  0
LINE
  5
364
330
1F
100
AcDbEntity
  8
16
  6
Continuous
 62
     3
370
    25
100
AcDbLine
 10
-118.791997349143
 20
-64.64999905228615
 30
0.0
 11
-118.791997349143
 21
-68.44999910891056
 31
0.0
  0
LINE
  5
365
330
1F
100
AcDbEntity
  8
16
  6
Continuous
 62
     3
370
    25
100
AcDbLine
 10
-118.791997349143
 20
-68.44999910891056
 30
0.0
 11
-118.1919973402023
 21
-68.44999910891056
 31
0.0
  0
LINE
  5
366
330
1F
100
AcDbEntity
  8
16
  6
Continuous
 62
     3
370
    25
100
AcDbLine
 10
-118.1919973402023
 20
-68.44999910891056
 30
0.0
 11
-118.1919973402023
 21
-64.64999905228615
 31
0.0
  0
LINE
  5
367
330
1F
100
AcDbEntity
  8
16
  6
Continuous
 62
     3
370
    25
100
AcDbLine
 10
-118.1919973402023
 20
-64.64999905228615
 30
0.0
 11
-118.791997349143
 21
-64.64999905228615
 31
0.0
  0
LINE
  5
368
330
1F
100
AcDbEntity
  8
16
  6
Continuous
 62
     3
370
    25
100
AcDbLine
 10
-118.791997349143
 20
-64.64999905228615
 30
0.0
 11
-118.791997349143
 21
-64.50999905258416
 31
0.0
  0
LINE
  5
369
330
1F
100
AcDbEntity
  8
16
  6
Continuous
 62
     3
370
    25
100
AcDbLine
 10
-118.791997349143
 20
-64.50999905258416
 30
0.0
 11
-118.1919973402023
 21
-64.50999905258416
 31
0.0
  0
LINE
  5
36A
330
1F
100
AcDbEntity
  8
16
  6
Continuous
 62
     3
370
    25
100
AcDbLine
 10
-118.1919973402023
 20
-64.50999905258416
 30
0.0
 11
-118.1919973402023
 21
-64.64999905228615
 31
0.0
  0
LINE
  5
36B
330
1F
100
AcDbEntity
  8
16
  6
Continuous
 62
     3
370
    25
100
AcDbLine
 10
-116.2799977999925
 20
-64.64999905228615
 30
0.0
 11
-116.2799977999925
 21
-68.44999910891056
 31
0.0
  0
LINE
  5
36C
330
1F
100
AcDbEntity
  8
16
  6
Continuous
 62
     3
370
    25
100
AcDbLine
 10
-116.2799977999925
 20
-68.44999910891056
 30
0.0
 11
-115.6799977910518
 21
-68.44999910891056
 31
0.0
  0
LINE
  5
36D
330
1F
100
AcDbEntity
  8
16
  6
Continuous
 62
     3
370
    25
100
AcDbLine
 10
-115.6799977910518
 20
-68.44999910891056
 30
0.0
 11
-115.6799977910518
 21
-64.64999905228615
 31
0.0
  0
LINE
  5
36E
330
1F
100
AcDbEntity
  8
16
  6
Continuous
 62
     3
370
    25
100
AcDbLine
 10
-115.6799977910518
 20
-64.64999905228615
 30
0.0
 11
-116.2799977999925
 21
-64.64999905228615
 31
0.0
  0
LINE
  5
36F
330
1F
100
AcDbEntity
  8
16
  6
Continuous
 62
     3
370
    25
100
AcDbLine
 10
-116.2799977999925
 20
-64.64999905228615
 30
0.0
 11
-116.2799977999925
 21
-64.50999905258416
 31
0.0
  0
LINE
  5
370
330
1F
100
AcDbEntity
  8
16
  6
Continuous
 62
     3
370
    25
100
AcDbLine
 10
-116.2799977999925
 20
-64.50999905258416
 30
0.0
 11
-115.6799977910518
 21
-64.50999905258416
 31
0.0
  0
LINE
  5
371
330
1F
100
AcDbEntity
  8
16
  6
Continuous
 62
     3
370
    25
100
AcDbLine
 10
-115.6799977910518
 20
-64.50999905258416
 30
0.0
 11
-115.6799977910518
 21
-64.64999905228615
 31
0.0
  0
LINE
  5
372
330
1F
100
AcDbEntity
  8
16
  6
Continuous
 62
     3
370
    25
100
AcDbLine
 10
-113.7679982508421
 20
-64.64999905228615
 30
0.0
 11
-113.7679982508421
 21
-68.44999910891056
 31
0.0
  0
LINE
  5
373
330
1F
100
AcDbEntity
  8
16
  6
Continuous
 62
     3
370
    25
100
AcDbLine
 10
-113.7679982508421
 20
-68.44999910891056
 30
0.0
 11
-113.1679982419014
 21
-68.44999910891056
 31
0.0
  0
LINE
  5
374
330
1F
100
AcDbEntity
  8
16
  6
Continuous
 62
     3
370
    25
100
AcDbLine
 10
-113.1679982419014
 20
-68.44999910891056
 30
0.0
 11
-113.1679982419014
 21
-64.64999905228615
 31
0.0
  0
LINE
  5
375
330
1F
100
AcDbEntity
  8
16
  6
Continuous
 62
     3
370
    25
100
AcDbLine
 10
-113.1679982419014
 20
-64.64999905228615
 30
0.0
 11
-113.7679982508421
 21
-64.64999905228615
 31
0.0
  0
LINE
  5
376
330
1F
100
AcDbEntity
  8
16
  6
Continuous
 62
     3
370
    25
100
AcDbLine
 10
-113.7679982508421
 20
-64.64999905228615
 30
0.0
 11
-113.7679982508421
 21
-64.50999905258416
 31
0.0
  0
LINE
  5
377
330
1F
100
AcDbEntity
  8
16
  6
Continuous
 62
     3
370
    25
100
AcDbLine
 10
-113.7679982508421
 20
-64.50999905258416
 30
0.0
 11
-113.1679982419014
 21
-64.50999905258416
 31
0.0
  0
LINE
  5
378
330
1F
100
AcDbEntity
  8
16
  6
Continuous
 62
     3
370
    25
100
AcDbLine
 10
-113.1679982419014
 20
-64.50999905258416
 30
0.0
 11
-113.1679982419014
 21
-64.64999905228615
 31
0.0
  0
LINE
  5
379
330
1F
100
AcDbEntity
  8
16
  6
Continuous
 62
     3
370
    25
100
AcDbLine
 10
-111.2559987016916
 20
-64.64999905228615
 30
0.0
 11
-111.2559987016916
 21
-68.44999910891056
 31
0.0
  0
LINE
  5
37A
330
1F
100
AcDbEntity
  8
16
  6
Continuous
 62
     3
370
    25
100
AcDbLine
 10
-111.2559987016916
 20
-68.44999910891056
 30
0.0
 11
-110.6559986927509
 21
-68.44999910891056
 31
0.0
  0
LINE
  5
37B
330
1F
100
AcDbEntity
  8
16
  6
Continuous
 62
     3
370
    25
100
AcDbLine
 10
-110.6559986927509
 20
-68.44999910891056
 30
0.0
 11
-110.6559986927509
 21
-64.64999905228615
 31
0.0
  0
LINE
  5
37C
330
1F
100
AcDbEntity
  8
16
  6
Continuous
 62
     3
370
    25
100
AcDbLine
 10
-110.6559986927509
 20
-64.64999905228615
 30
0.0
 11
-111.2559987016916
 21
-64.64999905228615
 31
0.0
  0
LINE
  5
37D
330
1F
100
AcDbEntity
  8
16
  6
Continuous
 62
     3
370
    25
100
AcDbLine
 10
-111.2559987016916
 20
-64.64999905228615
 30
0.0
 11
-111.2559987016916
 21
-64.50999905258416
 31
0.0
  0
LINE
  5
37E
330
1F
100
AcDbEntity
  8
16
  6
Continuous
 62
     3
370
    25
100
AcDbLine
 10
-111.2559987016916
 20
-64.50999905258416
 30
0.0
 11
-110.6559986927509
 21
-64.50999905258416
 31
0.0
  0
LINE
  5
37F
330
1F
100
AcDbEntity
  8
16
  6
Continuous
 62
     3
370
    25
100
AcDbLine
 10
-110.6559986927509
 20
-64.50999905258416
 30
0.0
 11
-110.6559986927509
 21
-64.64999905228615
 31
0.0
  0
LINE
  5
380
330
1F
100
AcDbEntity
  8
16
  6
Continuous
 62
     3
370
    25
100
AcDbLine
 10
-108.7439991525412
 20
-64.64999905228615
 30
0.0
 11
-108.7439991525412
 21
-68.44999910891056
 31
0.0
  0
LINE
  5
381
330
1F
100
AcDbEntity
  8
16
  6
Continuous
 62
     3
370
    25
100
AcDbLine
 10
-108.7439991525412
 20
-68.44999910891056
 30
0.0
 11
-108.1439991436005
 21
-68.44999910891056
 31
0.0
  0
LINE
  5
382
330
1F
100
AcDbEntity
  8
16
  6
Continuous
 62
     3
370
    25
100
AcDbLine
 10
-108.1439991436005
 20
-68.44999910891056
 30
0.0
 11
-108.1439991436005
 21
-64.64999905228615
 31
0.0
  0
LINE
  5
383
330
1F
100
AcDbEntity
  8
16
  6
Continuous
 62
     3
370
    25
100
AcDbLine
 10
-108.1439991436005
 20
-64.64999905228615
 30
0.0
 11
-108.7439991525412
 21
-64.64999905228615
 31
0.0
  0
LINE
  5
384
330
1F
100
AcDbEntity
  8
16
  6
Continuous
 62
     3
370
    25
100
AcDbLine
 10
-108.7439991525412
 20
-64.64999905228615
 30
0.0
 11
-108.7439991525412
 21
-64.50999905258416
 31
0.0
  0
LINE
  5
385
330
1F
100
AcDbEntity
  8
16
  6
Continuous
 62
     3
370
    25
100
AcDbLine
 10
-108.7439991525412
 20
-64.50999905258416
 30
0.0
 11
-108.1439991436005
 21
-64.50999905258416
 31
0.0
  0
LINE
  5
386
330
1F
100
AcDbEntity
  8
16
  6
Continuous
 62
     3
370
    25
100
AcDbLine
 10
-108.1439991436005
 20
-64.50999905258416
 30
0.0
 11
-108.1439991436005
 21
-64.64999905228615
 31
0.0
  0
LINE
  5
387
330
1F
100
AcDbEntity
  8
16
  6
Continuous
 62
     3
370
    25
100
AcDbLine
 10
-106.2319996033907
 20
-64.64999905228615
 30
0.0
 11
-106.2319996033907
 21
-68.44999910891056
 31
0.0
  0
LINE
  5
388
330
1F
100
AcDbEntity
  8
16
  6
Continuous
 62
     3
370
    25
100
AcDbLine
 10
-106.2319996033907
 20
-68.44999910891056
 30
0.0
 11
-105.63199959445
 21
-68.44999910891056
 31
0.0
  0
LINE
  5
389
330
1F
100
AcDbEntity
  8
16
  6
Continuous
 62
     3
370
    25
100
AcDbLine
 10
-105.63199959445
 20
-68.44999910891056
 30
0.0
 11
-105.63199959445
 21
-64.64999905228615
 31
0.0
  0
LINE
  5
38A
330
1F
100
AcDbEntity
  8
16
  6
Continuous
 62
     3
370
    25
100
AcDbLine
 10
-105.63199959445
 20
-64.64999905228615
 30
0.0
 11
-106.2319996033907
 21
-64.64999905228615
 31
0.0
  0
LINE
  5
38B
330
1F
100
AcDbEntity
  8
16
  6
Continuous
 62
     3
370
    25
100
AcDbLine
 10
-106.2319996033907
 20
-64.64999905228615
 30
0.0
 11
-106.2319996033907
 21
-64.50999905258416
 31
0.0
  0
LINE
  5
38C
330
1F
100
AcDbEntity
  8
16
  6
Continuous
 62
     3
370
    25
100
AcDbLine
 10
-106.2319996033907
 20
-64.50999905258416
 30
0.0
 11
-105.63199959445
 21
-64.50999905258416
 31
0.0
  0
LINE
  5
38D
330
1F
100
AcDbEntity
  8
16
  6
Continuous
 62
     3
370
    25
100
AcDbLine
 10
-105.63199959445
 20
-64.50999905258416
 30
0.0
 11
-105.63199959445
 21
-64.64999905228615
 31
0.0
  0
LINE
  5
38E
330
1F
100
AcDbEntity
  8
16
  6
Continuous
 62
     3
370
    25
100
AcDbLine
 10
-103.7200000542402
 20
-64.64999905228615
 30
0.0
 11
-103.7200000542402
 21
-68.44999910891056
 31
0.0
  0
LINE
  5
38F
330
1F
100
AcDbEntity
  8
16
  6
Continuous
 62
     3
370
    25
100
AcDbLine
 10
-103.7200000542402
 20
-68.44999910891056
 30
0.0
 11
-103.1200000452995
 21
-68.44999910891056
 31
0.0
  0
LINE
  5
390
330
1F
100
AcDbEntity
  8
16
  6
Continuous
 62
     3
370
    25
100
AcDbLine
 10
-103.1200000452995
 20
-68.44999910891056
 30
0.0
 11
-103.1200000452995
 21
-64.64999905228615
 31
0.0
  0
LINE
  5
391
330
1F
100
AcDbEntity
  8
16
  6
Continuous
 62
     3
370
    25
100
AcDbLine
 10
-103.1200000452995
 20
-64.64999905228615
 30
0.0
 11
-103.7200000542402
 21
-64.64999905228615
 31
0.0
  0
LINE
  5
392
330
1F
100
AcDbEntity
  8
16
  6
Continuous
 62
     3
370
    25
100
AcDbLine
 10
-103.7200000542402
 20
-64.64999905228615
 30
0.0
 11
-103.7200000542402
 21
-64.50999905258416
 31
0.0
  0
LINE
  5
393
330
1F
100
AcDbEntity
  8
16
  6
Continuous
 62
     3
370
    25
100
AcDbLine
 10
-103.7200000542402
 20
-64.50999905258416
 30
0.0
 11
-103.1200000452995
 21
-64.50999905258416
 31
0.0
  0
LINE
  5
394
330
1F
100
AcDbEntity
  8
16
  6
Continuous
 62
     3
370
    25
100
AcDbLine
 10
-103.1200000452995
 20
-64.50999905258416
 30
0.0
 11
-103.1200000452995
 21
-64.64999905228615
 31
0.0
  0
LINE
  5
395
330
1F
100
AcDbEntity
  8
16
  6
Continuous
 62
     3
370
    25
100
AcDbLine
 10
-101.2080005050898
 20
-64.64999905228615
 30
0.0
 11
-101.2080005050898
 21
-68.44999910891056
 31
0.0
  0
LINE
  5
396
330
1F
100
AcDbEntity
  8
16
  6
Continuous
 62
     3
370
    25
100
AcDbLine
 10
-101.2080005050898
 20
-68.44999910891056
 30
0.0
 11
-100.6080004961491
 21
-68.44999910891056
 31
0.0
  0
LINE
  5
397
330
1F
100
AcDbEntity
  8
16
  6
Continuous
 62
     3
370
    25
100
AcDbLine
 10
-100.6080004961491
 20
-68.44999910891056
 30
0.0
 11
-100.6080004961491
 21
-64.64999905228615
 31
0.0
  0
LINE
  5
398
330
1F
100
AcDbEntity
  8
16
  6
Continuous
 62
     3
370
    25
100
AcDbLine
 10
-100.6080004961491
 20
-64.64999905228615
 30
0.0
 11
-101.2080005050898
 21
-64.64999905228615
 31
0.0
  0
LINE
  5
399
330
1F
100
AcDbEntity
  8
16
  6
Continuous
 62
     3
370
    25
100
AcDbLine
 10
-101.2080005050898
 20
-64.64999905228615
 30
0.0
 11
-101.2080005050898
 21
-64.50999905258416
 31
0.0
  0
LINE
  5
39A
330
1F
100
AcDbEntity
  8
16
  6
Continuous
 62
     3
370
    25
100
AcDbLine
 10
-101.2080005050898
 20
-64.50999905258416
 30
0.0
 11
-100.6080004961491
 21
-64.50999905258416
 31
0.0
  0
LINE
  5
39B
330
1F
100
AcDbEntity
  8
16
  6
Continuous
 62
     3
370
    25
100
AcDbLine
 10
-100.6080004961491
 20
-64.50999905258416
 30
0.0
 11
-100.6080004961491
 21
-64.64999905228615
 31
0.0
  0
LINE
  5
39C
330
1F
100
AcDbEntity
  8
16
  6
Continuous
 62
     3
370
    25
100
AcDbLine
 10
-98.69600095593933
 20
-64.64999905228615
 30
0.0
 11
-98.69600095593933
 21
-68.44999910891056
 31
0.0
  0
LINE
  5
39D
330
1F
100
AcDbEntity
  8
16
  6
Continuous
 62
     3
370
    25
100
AcDbLine
 10
-98.69600095593933
 20
-68.44999910891056
 30
0.0
 11
-98.09600094699863
 21
-68.44999910891056
 31
0.0
  0
LINE
  5
39E
330
1F
100
AcDbEntity
  8
16
  6
Continuous
 62
     3
370
    25
100
AcDbLine
 10
-98.09600094699863
 20
-68.44999910891056
 30
0.0
 11
-98.09600094699863
 21
-64.64999905228615
 31
0.0
  0
LINE
  5
39F
330
1F
100
AcDbEntity
  8
16
  6
Continuous
 62
     3
370
    25
100
AcDbLine
 10
-98.09600094699863
 20
-64.64999905228615
 30
0.0
 11
-98.69600095593933
 21
-64.64999905228615
 31
0.0
  0
LINE
  5
3A0
330
1F
100
AcDbEntity
  8
16
  6
Continuous
 62
     3
370
    25
100
AcDbLine
 10
-98.69600095593933
 20
-64.64999905228615
 30
0.0
 11
-98.69600095593933
 21
-64.50999905258416
 31
0.0
  0
LINE
  5
3A1
330
1F
100
AcDbEntity
  8
16
  6
Continuous
 62
     3
370
    25
100
AcDbLine
 10
-98.69600095593933
 20
-64.50999905258416
 30
0.0
 11
-98.09600094699863
 21
-64.50999905258416
 31
0.0
  0
LINE
  5
3A2
330
1F
100
AcDbEntity
  8
16
  6
Continuous
 62
     3
370
    25
100
AcDbLine
 10
-98.09600094699863
 20
-64.50999905258416
 30
0.0
 11
-98.09600094699863
 21
-64.64999905228615
 31
0.0
  0
LINE
  5
3A3
330
1F
100
AcDbEntity
  8
16
  6
Continuous
 62
     3
370
    25
100
AcDbLine
 10
-96.18400140678887
 20
-64.64999905228615
 30
0.0
 11
-96.18400140678887
 21
-68.44999910891056
 31
0.0
  0
LINE
  5
3A4
330
1F
100
AcDbEntity
  8
16
  6
Continuous
 62
     3
370
    25
100
AcDbLine
 10
-96.18400140678887
 20
-68.44999910891056
 30
0.0
 11
-95.58400139784817
 21
-68.44999910891056
 31
0.0
  0
LINE
  5
3A5
330
1F
100
AcDbEntity
  8
16
  6
Continuous
 62
     3
370
    25
100
AcDbLine
 10
-95.58400139784817
 20
-68.44999910891056
 30
0.0
 11
-95.58400139784817
 21
-64.64999905228615
 31
0.0
  0
LINE
  5
3A6
330
1F
100
AcDbEntity
  8
16
  6
Continuous
 62
     3
370
    25
100
AcDbLine
 10
-95.58400139784817
 20
-64.64999905228615
 30
0.0
 11
-96.18400140678887
 21
-64.64999905228615
 31
0.0
  0
LINE
  5
3A7
330
1F
100
AcDbEntity
  8
16
  6
Continuous
 62
     3
370
    25
100
AcDbLine
 10
-96.18400140678887
 20
-64.64999905228615
 30
0.0
 11
-96.18400140678887
 21
-64.50999905258416
 31
0.0
  0
LINE
  5
3A8
330
1F
100
AcDbEntity
  8
16
  6
Continuous
 62
     3
370
    25
100
AcDbLine
 10
-96.18400140678887
 20
-64.50999905258416
 30
0.0
 11
-95.58400139784817
 21
-64.50999905258416
 31
0.0
  0
LINE
  5
3A9
330
1F
100
AcDbEntity
  8
16
  6
Continuous
 62
     3
370
    25
100
AcDbLine
 10
-95.58400139784817
 20
-64.50999905258416
 30
0.0
 11
-95.58400139784817
 21
-64.64999905228615
 31
0.0
  0
LINE
  5
3AA
330
1F
100
AcDbEntity
  8
16
  6
Continuous
 62
     3
370
    25
100
AcDbLine
 10
-93.67199575412269
 20
-64.64999905228615
 30
0.0
 11
-93.67199575412269
 21
-68.44999910891056
 31
0.0
  0
LINE
  5
3AB
330
1F
100
AcDbEntity
  8
16
  6
Continuous
 62
     3
370
    25
100
AcDbLine
 10
-93.67199575412269
 20
-68.44999910891056
 30
0.0
 11
-93.071995745182
 21
-68.44999910891056
 31
0.0
  0
LINE
  5
3AC
330
1F
100
AcDbEntity
  8
16
  6
Continuous
 62
     3
370
    25
100
AcDbLine
 10
-93.071995745182
 20
-68.44999910891056
 30
0.0
 11
-93.071995745182
 21
-64.64999905228615
 31
0.0
  0
LINE
  5
3AD
330
1F
100
AcDbEntity
  8
16
  6
Continuous
 62
     3
370
    25
100
AcDbLine
 10
-93.071995745182
 20
-64.64999905228615
 30
0.0
 11
-93.67199575412269
 21
-64.64999905228615
 31
0.0
  0
LINE
  5
3AE
330
1F
100
AcDbEntity
  8
16
  6
Continuous
 62
     3
370
    25
100
AcDbLine
 10
-93.67199575412269
 20
-64.64999905228615
 30
0.0
 11
-93.67199575412269
 21
-64.50999905258416
 31
0.0
  0
LINE
  5
3AF
330
1F
100
AcDbEntity
  8
16
  6
Continuous
 62
     3
370
    25
100
AcDbLine
 10
-93.67199575412269
 20
-64.50999905258416
 30
0.0
 11
-93.071995745182
 21
-64.50999905258416
 31
0.0
  0
LINE
  5
3B0
330
1F
100
AcDbEntity
  8
16
  6
Continuous
 62
     3
370
    25
100
AcDbLine
 10
-93.071995745182
 20
-64.50999905258416
 30
0.0
 11
-93.071995745182
 21
-64.64999905228615
 31
0.0
  0
LINE
  5
3B1
330
1F
100
AcDbEntity
  8
16
  6
Continuous
 62
     3
370
    25
100
AcDbLine
 10
-91.15999620497223
 20
-64.64999905228615
 30
0.0
 11
-91.15999620497223
 21
-68.44999910891056
 31
0.0
  0
LINE
  5
3B2
330
1F
100
AcDbEntity
  8
16
  6
Continuous
 62
     3
370
    25
100
AcDbLine
 10
-91.15999620497223
 20
-68.44999910891056
 30
0.0
 11
-90.55999619603153
 21
-68.44999910891056
 31
0.0
  0
LINE
  5
3B3
330
1F
100
AcDbEntity
  8
16
  6
Continuous
 62
     3
370
    25
100
AcDbLine
 10
-90.55999619603153
 20
-68.44999910891056
 30
0.0
 11
-90.55999619603153
 21
-64.64999905228615
 31
0.0
  0
LINE
  5
3B4
330
1F
100
AcDbEntity
  8
16
  6
Continuous
 62
     3
370
    25
100
AcDbLine
 10
-90.55999619603153
 20
-64.64999905228615
 30
0.0
 11
-91.15999620497223
 21
-64.64999905228615
 31
0.0
  0
LINE
  5
3B5
330
1F
100
AcDbEntity
  8
16
  6
Continuous
 62
     3
370
    25
100
AcDbLine
 10
-91.15999620497223
 20
-64.64999905228615
 30
0.0
 11
-91.15999620497223
 21
-64.50999905258416
 31
0.0
  0
LINE
  5
3B6
330
1F
100
AcDbEntity
  8
16
  6
Continuous
 62
     3
370
    25
100
AcDbLine
 10
-91.15999620497223
 20
-64.50999905258416
 30
0.0
 11
-90.55999619603153
 21
-64.50999905258416
 31
0.0
  0
LINE
  5
3B7
330
1F
100
AcDbEntity
  8
16
  6
Continuous
 62
     3
370
    25
100
AcDbLine
 10
-90.55999619603153
 20
-64.50999905258416
 30
0.0
 11
-90.55999619603153
 21
-64.64999905228615
 31
0.0
  0
LINE
  5
3B8
330
1F
100
AcDbEntity
  8
16
  6
Continuous
 62
     3
370
    25
100
AcDbLine
 10
-88.64799665582177
 20
-64.64999905228615
 30
0.0
 11
-88.64799665582177
 21
-68.44999910891056
 31
0.0
  0
LINE
  5
3B9
330
1F
100
AcDbEntity
  8
16
  6
Continuous
 62
     3
370
    25
100
AcDbLine
 10
-88.64799665582177
 20
-68.44999910891056
 30
0.0
 11
-88.04799664688107
 21
-68.44999910891056
 31
0.0
  0
LINE
  5
3BA
330
1F
100
AcDbEntity
  8
16
  6
Continuous
 62
     3
370
    25
100
AcDbLine
 10
-88.04799664688107
 20
-68.44999910891056
 30
0.0
 11
-88.04799664688107
 21
-64.64999905228615
 31
0.0
  0
LINE
  5
3BB
330
1F
100
AcDbEntity
  8
16
  6
Continuous
 62
     3
370
    25
100
AcDbLine
 10
-88.04799664688107
 20
-64.64999905228615
 30
0.0
 11
-88.64799665582177
 21
-64.64999905228615
 31
0.0
  0
LINE
  5
3BC
330
1F
100
AcDbEntity
  8
16
  6
Continuous
 62
     3
370
    25
100
AcDbLine
 10
-88.64799665582177
 20
-64.64999905228615
 30
0.0
 11
-88.64799665582177
 21
-64.50999905258416
 31
0.0
  0
LINE
  5
3BD
330
1F
100
AcDbEntity
  8
16
  6
Continuous
 62
     3
370
    25
100
AcDbLine
 10
-88.64799665582177
 20
-64.50999905258416
 30
0.0
 11
-88.04799664688107
 21
-64.50999905258416
 31
0.0
  0
LINE
  5
3BE
330
1F
100
AcDbEntity
  8
16
  6
Continuous
 62
     3
370
    25
100
AcDbLine
 10
-88.04799664688107
 20
-64.50999905258416
 30
0.0
 11
-88.04799664688107
 21
-64.64999905228615
 31
0.0
  0
LINE
  5
3BF
330
1F
100
AcDbEntity
  8
16
  6
Continuous
 62
     3
370
    25
100
AcDbLine
 10
-86.13599710667131
 20
-64.64999905228615
 30
0.0
 11
-86.13599710667131
 21
-68.44999910891056
 31
0.0
  0
LINE
  5
3C0
330
1F
100
AcDbEntity
  8
16
  6
Continuous
 62
     3
370
    25
100
AcDbLine
 10
-86.13599710667131
 20
-68.44999910891056
 30
0.0
 11
-85.53599709773061
 21
-68.44999910891056
 31
0.0
  0
LINE
  5
3C1
330
1F
100
AcDbEntity
  8
16
  6
Continuous
 62
     3
370
    25
100
AcDbLine
 10
-85.53599709773061
 20
-68.44999910891056
 30
0.0
 11
-85.53599709773061
 21
-64.64999905228615
 31
0.0
  0
LINE
  5
3C2
330
1F
100
AcDbEntity
  8
16
  6
Continuous
 62
     3
370
    25
100
AcDbLine
 10
-85.53599709773061
 20
-64.64999905228615
 30
0.0
 11
-86.13599710667131
 21
-64.64999905228615
 31
0.0
  0
LINE
  5
3C3
330
1F
100
AcDbEntity
  8
16
  6
Continuous
 62
     3
370
    25
100
AcDbLine
 10
-86.13599710667131
 20
-64.64999905228615
 30
0.0
 11
-86.13599710667131
 21
-64.50999905258416
 31
0.0
  0
LINE
  5
3C4
330
1F
100
AcDbEntity
  8
16
  6
Continuous
 62
     3
370
    25
100
AcDbLine
 10
-86.13599710667131
 20
-64.50999905258416
 30
0.0
 11
-85.53599709773061
 21
-64.50999905258416
 31
0.0
  0
LINE
  5
3C5
330
1F
100
AcDbEntity
  8
16
  6
Continuous
 62
     3
370
    25
100
AcDbLine
 10
-85.53599709773061
 20
-64.50999905258416
 30
0.0
 11
-85.53599709773061
 21
-64.64999905228615
 31
0.0
  0
LINE
  5
3C6
330
1F
100
AcDbEntity
  8
16
  6
Continuous
 62
     3
370
    25
100
AcDbLine
 10
-83.62399755752085
 20
-64.64999905228615
 30
0.0
 11
-83.62399755752085
 21
-68.44999910891056
 31
0.0
  0
LINE
  5
3C7
330
1F
100
AcDbEntity
  8
16
  6
Continuous
 62
     3
370
    25
100
AcDbLine
 10
-83.62399755752085
 20
-68.44999910891056
 30
0.0
 11
-83.02399754858016
 21
-68.44999910891056
 31
0.0
  0
LINE
  5
3C8
330
1F
100
AcDbEntity
  8
16
  6
Continuous
 62
     3
370
    25
100
AcDbLine
 10
-83.02399754858016
 20
-68.44999910891056
 30
0.0
 11
-83.02399754858016
 21
-64.64999905228615
 31
0.0
  0
LINE
  5
3C9
330
1F
100
AcDbEntity
  8
16
  6
Continuous
 62
     3
370
    25
100
AcDbLine
 10
-83.02399754858016
 20
-64.64999905228615
 30
0.0
 11
-83.62399755752085
 21
-64.64999905228615
 31
0.0
  0
LINE
  5
3CA
330
1F
100
AcDbEntity
  8
16
  6
Continuous
 62
     3
370
    25
100
AcDbLine
 10
-83.62399755752085
 20
-64.64999905228615
 30
0.0
 11
-83.62399755752085
 21
-64.50999905258416
 31
0.0
  0
LINE
  5
3CB
330
1F
100
AcDbEntity
  8
16
  6
Continuous
 62
     3
370
    25
100
AcDbLine
 10
-83.62399755752085
 20
-64.50999905258416
 30
0.0
 11
-83.02399754858016
 21
-64.50999905258416
 31
0.0
  0
LINE
  5
3CC
330
1F
100
AcDbEntity
  8
16
  6
Continuous
 62
     3
370
    25
100
AcDbLine
 10
-83.02399754858016
 20
-64.50999905258416
 30
0.0
 11
-83.02399754858016
 21
-64.64999905228615
 31
0.0
  0
LINE
  5
3CD
330
1F
100
AcDbEntity
  8
16
  6
Continuous
 62
     3
370
    25
100
AcDbLine
 10
-81.11199800837039
 20
-64.64999905228615
 30
0.0
 11
-81.11199800837039
 21
-68.44999910891056
 31
0.0
  0
LINE
  5
3CE
330
1F
100
AcDbEntity
  8
16
  6
Continuous
 62
     3
370
    25
100
AcDbLine
 10
-81.11199800837039
 20
-68.44999910891056
 30
0.0
 11
-80.5119979994297
 21
-68.44999910891056
 31
0.0
  0
LINE
  5
3CF
330
1F
100
AcDbEntity
  8
16
  6
Continuous
 62
     3
370
    25
100
AcDbLine
 10
-80.5119979994297
 20
-68.44999910891056
 30
0.0
 11
-80.5119979994297
 21
-64.64999905228615
 31
0.0
  0
LINE
  5
3D0
330
1F
100
AcDbEntity
  8
16
  6
Continuous
 62
     3
370
    25
100
AcDbLine
 10
-80.5119979994297
 20
-64.64999905228615
 30
0.0
 11
-81.11199800837039
 21
-64.64999905228615
 31
0.0
  0
LINE
  5
3D1
330
1F
100
AcDbEntity
  8
16
  6
Continuous
 62
     3
370
    25
100
AcDbLine
 10
-81.11199800837039
 20
-64.64999905228615
 30
0.0
 11
-81.11199800837039
 21
-64.50999905258416
 31
0.0
  0
LINE
  5
3D2
330
1F
100
AcDbEntity
  8
16
  6
Continuous
 62
     3
370
    25
100
AcDbLine
 10
-81.11199800837039
 20
-64.50999905258416
 30
0.0
 11
-80.5119979994297
 21
-64.50999905258416
 31
0.0
  0
LINE
  5
3D3
330
1F
100
AcDbEntity
  8
16
  6
Continuous
 62
     3
370
    25
100
AcDbLine
 10
-80.5119979994297
 20
-64.50999905258416
 30
0.0
 11
-80.5119979994297
 21
-64.64999905228615
 31
0.0
  0
LINE
  5
3D4
330
1F
100
AcDbEntity
  8
16
  6
Continuous
 62
     3
370
    25
100
AcDbLine
 10
-78.59999845921993
 20
-64.64999905228615
 30
0.0
 11
-78.59999845921993
 21
-68.44999910891056
 31
0.0
  0
LINE
  5
3D5
330
1F
100
AcDbEntity
  8
16
  6
Continuous
 62
     3
370
    25
100
AcDbLine
 10
-78.59999845921993
 20
-68.44999910891056
 30
0.0
 11
-77.99999845027924
 21
-68.44999910891056
 31
0.0
  0
LINE
  5
3D6
330
1F
100
AcDbEntity
  8
16
  6
Continuous
 62
     3
370
    25
100
AcDbLine
 10
-77.99999845027924
 20
-68.44999910891056
 30
0.0
 11
-77.99999845027924
 21
-64.64999905228615
 31
0.0
  0
LINE
  5
3D7
330
1F
100
AcDbEntity
  8
16
  6
Continuous
 62
     3
370
    25
100
AcDbLine
 10
-77.99999845027924
 20
-64.64999905228615
 30
0.0
 11
-78.59999845921993
 21
-64.64999905228615
 31
0.0
  0
LINE
  5
3D8
330
1F
100
AcDbEntity
  8
16
  6
Continuous
 62
     3
370
    25
100
AcDbLine
 10
-78.59999845921993
 20
-64.64999905228615
 30
0.0
 11
-78.59999845921993
 21
-64.50999905258416
 31
0.0
  0
LINE
  5
3D9
330
1F
100
AcDbEntity
  8
16
  6
Continuous
 62
     3
370
    25
100
AcDbLine
 10
-78.59999845921993
 20
-64.50999905258416
 30
0.0
 11
-77.99999845027924
 21
-64.50999905258416
 31
0.0
  0
LINE
  5
3DA
330
1F
100
AcDbEntity
  8
16
  6
Continuous
 62
     3
370
    25
100
AcDbLine
 10
-77.99999845027924
 20
-64.50999905258416
 30
0.0
 11
-77.99999845027924
 21
-64.64999905228615
 31
0.0
  0
LINE
  5
3DB
330
1F
100
AcDbEntity
  8
16
  6
Continuous
 62
     3
370
    25
100
AcDbLine
 10
-76.08799891006947
 20
-64.64999905228615
 30
0.0
 11
-76.08799891006947
 21
-68.44999910891056
 31
0.0
  0
LINE
  5
3DC
330
1F
100
AcDbEntity
  8
16
  6
Continuous
 62
     3
370
    25
100
AcDbLine
 10
-76.08799891006947
 20
-68.44999910891056
 30
0.0
 11
-75.48799890112878
 21
-68.44999910891056
 31
0.0
  0
LINE
  5
3DD
330
1F
100
AcDbEntity
  8
16
  6
Continuous
 62
     3
370
    25
100
AcDbLine
 10
-75.48799890112878
 20
-68.44999910891056
 30
0.0
 11
-75.48799890112878
 21
-64.64999905228615
 31
0.0
  0
LINE
  5
3DE
330
1F
100
AcDbEntity
  8
16
  6
Continuous
 62
     3
370
    25
100
AcDbLine
 10
-75.48799890112878
 20
-64.64999905228615
 30
0.0
 11
-76.08799891006947
 21
-64.64999905228615
 31
0.0
  0
LINE
  5
3DF
330
1F
100
AcDbEntity
  8
16
  6
Continuous
 62
     3
370
    25
100
AcDbLine
 10
-76.08799891006947
 20
-64.64999905228615
 30
0.0
 11
-76.08799891006947
 21
-64.50999905258416
 31
0.0
  0
LINE
  5
3E0
330
1F
100
AcDbEntity
  8
16
  6
Continuous
 62
     3
370
    25
100
AcDbLine
 10
-76.08799891006947
 20
-64.50999905258416
 30
0.0
 11
-75.48799890112878
 21
-64.50999905258416
 31
0.0
  0
LINE
  5
3E1
330
1F
100
AcDbEntity
  8
16
  6
Continuous
 62
     3
370
    25
100
AcDbLine
 10
-75.48799890112878
 20
-64.50999905258416
 30
0.0
 11
-75.48799890112878
 21
-64.64999905228615
 31
0.0
  0
LINE
  5
3E2
330
1F
100
AcDbEntity
  8
16
  6
Continuous
 62
     3
370
    25
100
AcDbLine
 10
-73.57599936091901
 20
-64.64999905228615
 30
0.0
 11
-73.57599936091901
 21
-68.44999910891056
 31
0.0
  0
LINE
  5
3E3
330
1F
100
AcDbEntity
  8
16
  6
Continuous
 62
     3
370
    25
100
AcDbLine
 10
-73.57599936091901
 20
-68.44999910891056
 30
0.0
 11
-72.97599935197832
 21
-68.44999910891056
 31
0.0
  0
LINE
  5
3E4
330
1F
100
AcDbEntity
  8
16
  6
Continuous
 62
     3
370
    25
100
AcDbLine
 10
-72.97599935197832
 20
-68.44999910891056
 30
0.0
 11
-72.97599935197832
 21
-64.64999905228615
 31
0.0
  0
LINE
  5
3E5
330
1F
100
AcDbEntity
  8
16
  6
Continuous
 62
     3
370
    25
100
AcDbLine
 10
-72.97599935197832
 20
-64.64999905228615
 30
0.0
 11
-73.57599936091901
 21
-64.64999905228615
 31
0.0
  0
LINE
  5
3E6
330
1F
100
AcDbEntity
  8
16
  6
Continuous
 62
     3
370
    25
100
AcDbLine
 10
-73.57599936091901
 20
-64.64999905228615
 30
0.0
 11
-73.57599936091901
 21
-64.50999905258416
 31
0.0
  0
LINE
  5
3E7
330
1F
100
AcDbEntity
  8
16
  6
Continuous
 62
     3
370
    25
100
AcDbLine
 10
-73.57599936091901
 20
-64.50999905258416
 30
0.0
 11
-72.97599935197832
 21
-64.50999905258416
 31
0.0
  0
LINE
  5
3E8
330
1F
100
AcDbEntity
  8
16
  6
Continuous
 62
     3
370
    25
100
AcDbLine
 10
-72.97599935197832
 20
-64.50999905258416
 30
0.0
 11
-72.97599935197832
 21
-64.64999905228615
 31
0.0
  0
LINE
  5
3E9
330
1F
100
AcDbEntity
  8
16
  6
Continuous
 62
     3
370
    25
100
AcDbLine
 10
-71.06399981176855
 20
-64.64999905228615
 30
0.0
 11
-71.06399981176855
 21
-68.44999910891056
 31
0.0
  0
LINE
  5
3EA
330
1F
100
AcDbEntity
  8
16
  6
Continuous
 62
     3
370
    25
100
AcDbLine
 10
-71.06399981176855
 20
-68.44999910891056
 30
0.0
 11
-70.46399980282786
 21
-68.44999910891056
 31
0.0
  0
LINE
  5
3EB
330
1F
100
AcDbEntity
  8
16
  6
Continuous
 62
     3
370
    25
100
AcDbLine
 10
-70.46399980282786
 20
-68.44999910891056
 30
0.0
 11
-70.46399980282786
 21
-64.64999905228615
 31
0.0
  0
LINE
  5
3EC
330
1F
100
AcDbEntity
  8
16
  6
Continuous
 62
     3
370
    25
100
AcDbLine
 10
-70.46399980282786
 20
-64.64999905228615
 30
0.0
 11
-71.06399981176855
 21
-64.64999905228615
 31
0.0
  0
LINE
  5
3ED
330
1F
100
AcDbEntity
  8
16
  6
Continuous
 62
     3
370
    25
100
AcDbLine
 10
-71.06399981176855
 20
-64.64999905228615
 30
0.0
 11
-71.06399981176855
 21
-64.50999905258416
 31
0.0
  0
LINE
  5
3EE
330
1F
100
AcDbEntity
  8
16
  6
Continuous
 62
     3
370
    25
100
AcDbLine
 10
-71.06399981176855
 20
-64.50999905258416
 30
0.0
 11
-70.46399980282786
 21
-64.50999905258416
 31
0.0
  0
LINE
  5
3EF
330
1F
100
AcDbEntity
  8
16
  6
Continuous
 62
     3
370
    25
100
AcDbLine
 10
-70.46399980282786
 20
-64.50999905258416
 30
0.0
 11
-70.46399980282786
 21
-64.64999905228615
 31
0.0
  0
LINE
  5
3F0
330
1F
100
AcDbEntity
  8
16
  6
Continuous
 62
     3
370
    25
100
AcDbLine
 10
-68.5520002626181
 20
-64.64999905228615
 30
0.0
 11
-68.5520002626181
 21
-68.44999910891056
 31
0.0
  0
LINE
  5
3F1
330
1F
100
AcDbEntity
  8
16
  6
Continuous
 62
     3
370
    25
100
AcDbLine
 10
-68.5520002626181
 20
-68.44999910891056
 30
0.0
 11
-67.9520002536774
 21
-68.44999910891056
 31
0.0
  0
LINE
  5
3F2
330
1F
100
AcDbEntity
  8
16
  6
Continuous
 62
     3
370
    25
100
AcDbLine
 10
-67.9520002536774
 20
-68.44999910891056
 30
0.0
 11
-67.9520002536774
 21
-64.64999905228615
 31
0.0
  0
LINE
  5
3F3
330
1F
100
AcDbEntity
  8
16
  6
Continuous
 62
     3
370
    25
100
AcDbLine
 10
-67.9520002536774
 20
-64.64999905228615
 30
0.0
 11
-68.5520002626181
 21
-64.64999905228615
 31
0.0
  0
LINE
  5
3F4
330
1F
100
AcDbEntity
  8
16
  6
Continuous
 62
     3
370
    25
100
AcDbLine
 10
-68.5520002626181
 20
-64.64999905228615
 30
0.0
 11
-68.5520002626181
 21
-64.50999905258416
 31
0.0
  0
LINE
  5
3F5
330
1F
100
AcDbEntity
  8
16
  6
Continuous
 62
     3
370
    25
100
AcDbLine
 10
-68.5520002626181
 20
-64.50999905258416
 30
0.0
 11
-67.9520002536774
 21
-64.50999905258416
 31
0.0
  0
LINE
  5
3F6
330
1F
100
AcDbEntity
  8
16
  6
Continuous
 62
     3
370
    25
100
AcDbLine
 10
-67.9520002536774
 20
-64.50999905258416
 30
0.0
 11
-67.9520002536774
 21
-64.64999905228615
 31
0.0
  0
LINE
  5
3F7
330
1F
100
AcDbEntity
  8
16
  6
Continuous
 62
     3
370
    25
100
AcDbLine
 10
-66.04000071346763
 20
-64.64999905228615
 30
0.0
 11
-66.04000071346763
 21
-68.44999910891056
 31
0.0
  0
LINE
  5
3F8
330
1F
100
AcDbEntity
  8
16
  6
Continuous
 62
     3
370
    25
100
AcDbLine
 10
-66.04000071346763
 20
-68.44999910891056
 30
0.0
 11
-65.44000070452694
 21
-68.44999910891056
 31
0.0
  0
LINE
  5
3F9
330
1F
100
AcDbEntity
  8
16
  6
Continuous
 62
     3
370
    25
100
AcDbLine
 10
-65.44000070452694
 20
-68.44999910891056
 30
0.0
 11
-65.44000070452694
 21
-64.64999905228615
 31
0.0
  0
LINE
  5
3FA
330
1F
100
AcDbEntity
  8
16
  6
Continuous
 62
     3
370
    25
100
AcDbLine
 10
-65.44000070452694
 20
-64.64999905228615
 30
0.0
 11
-66.04000071346763
 21
-64.64999905228615
 31
0.0
  0
LINE
  5
3FB
330
1F
100
AcDbEntity
  8
16
  6
Continuous
 62
     3
370
    25
100
AcDbLine
 10
-66.04000071346763
 20
-64.64999905228615
 30
0.0
 11
-66.04000071346763
 21
-64.50999905258416
 31
0.0
  0
LINE
  5
3FC
330
1F
100
AcDbEntity
  8
16
  6
Continuous
 62
     3
370
    25
100
AcDbLine
 10
-66.04000071346763
 20
-64.50999905258416
 30
0.0
 11
-65.44000070452694
 21
-64.50999905258416
 31
0.0
  0
LINE
  5
3FD
330
1F
100
AcDbEntity
  8
16
  6
Continuous
 62
     3
370
    25
100
AcDbLine
 10
-65.44000070452694
 20
-64.50999905258416
 30
0.0
 11
-65.44000070452694
 21
-64.64999905228615
 31
0.0
  0
LINE
  5
3FE
330
1F
100
AcDbEntity
  8
16
  6
Continuous
 62
     3
370
    25
100
AcDbLine
 10
-63.52800116431717
 20
-64.64999905228615
 30
0.0
 11
-63.52800116431717
 21
-68.44999910891056
 31
0.0
  0
LINE
  5
3FF
330
1F
100
AcDbEntity
  8
16
  6
Continuous
 62
     3
370
    25
100
AcDbLine
 10
-63.52800116431717
 20
-68.44999910891056
 30
0.0
 11
-62.92800115537648
 21
-68.44999910891056
 31
0.0
  0
LINE
  5
400
330
1F
100
AcDbEntity
  8
16
  6
Continuous
 62
     3
370
    25
100
AcDbLine
 10
-62.92800115537648
 20
-68.44999910891056
 30
0.0
 11
-62.92800115537648
 21
-64.64999905228615
 31
0.0
  0
LINE
  5
401
330
1F
100
AcDbEntity
  8
16
  6
Continuous
 62
     3
370
    25
100
AcDbLine
 10
-62.92800115537648
 20
-64.64999905228615
 30
0.0
 11
-63.52800116431717
 21
-64.64999905228615
 31
0.0
  0
LINE
  5
402
330
1F
100
AcDbEntity
  8
16
  6
Continuous
 62
     3
370
    25
100
AcDbLine
 10
-63.52800116431717
 20
-64.64999905228615
 30
0.0
 11
-63.52800116431717
 21
-64.50999905258416
 31
0.0
  0
LINE
  5
403
330
1F
100
AcDbEntity
  8
16
  6
Continuous
 62
     3
370
    25
100
AcDbLine
 10
-63.52800116431717
 20
-64.50999905258416
 30
0.0
 11
-62.92800115537648
 21
-64.50999905258416
 31
0.0
  0
LINE
  5
404
330
1F
100
AcDbEntity
  8
16
  6
Continuous
 62
     3
370
    25
100
AcDbLine
 10
-62.92800115537648
 20
-64.50999905258416
 30
0.0
 11
-62.92800115537648
 21
-64.64999905228615
 31
0.0
  0
LINE
  5
405
330
1F
100
AcDbEntity
  8
16
  6
Continuous
 62
     3
370
    25
100
AcDbLine
 10
-61.01600161516673
 20
-64.64999905228615
 30
0.0
 11
-61.01600161516673
 21
-68.44999910891056
 31
0.0
  0
LINE
  5
406
330
1F
100
AcDbEntity
  8
16
  6
Continuous
 62
     3
370
    25
100
AcDbLine
 10
-61.01600161516673
 20
-68.44999910891056
 30
0.0
 11
-60.41600160622602
 21
-68.44999910891056
 31
0.0
  0
LINE
  5
407
330
1F
100
AcDbEntity
  8
16
  6
Continuous
 62
     3
370
    25
100
AcDbLine
 10
-60.41600160622602
 20
-68.44999910891056
 30
0.0
 11
-60.41600160622602
 21
-64.64999905228615
 31
0.0
  0
LINE
  5
408
330
1F
100
AcDbEntity
  8
16
  6
Continuous
 62
     3
370
    25
100
AcDbLine
 10
-60.41600160622602
 20
-64.64999905228615
 30
0.0
 11
-61.01600161516673
 21
-64.64999905228615
 31
0.0
  0
LINE
  5
409
330
1F
100
AcDbEntity
  8
16
  6
Continuous
 62
     3
370
    25
100
AcDbLine
 10
-61.01600161516673
 20
-64.64999905228615
 30
0.0
 11
-61.01600161516673
 21
-64.50999905258416
 31
0.0
  0
LINE
  5
40A
330
1F
100
AcDbEntity
  8
16
  6
Continuous
 62
     3
370
    25
100
AcDbLine
 10
-61.01600161516673
 20
-64.50999905258416
 30
0.0
 11
-60.41600160622602
 21
-64.50999905258416
 31
0.0
  0
LINE
  5
40B
330
1F
100
AcDbEntity
  8
16
  6
Continuous
 62
     3
370
    25
100
AcDbLine
 10
-60.41600160622602
 20
-64.50999905258416
 30
0.0
 11
-60.41600160622602
 21
-64.64999905228615
 31
0.0
  0
LINE
  5
40C
330
1F
100
AcDbEntity
  8
16
  6
Continuous
 62
     3
370
    25
100
AcDbLine
 10
-58.50400206601625
 20
-64.64999905228615
 30
0.0
 11
-58.50400206601625
 21
-68.44999910891056
 31
0.0
  0
LINE
  5
40D
330
1F
100
AcDbEntity
  8
16
  6
Continuous
 62
     3
370
    25
100
AcDbLine
 10
-58.50400206601625
 20
-68.44999910891056
 30
0.0
 11
-57.90400205707556
 21
-68.44999910891056
 31
0.0
  0
LINE
  5
40E
330
1F
100
AcDbEntity
  8
16
  6
Continuous
 62
     3
370
    25
100
AcDbLine
 10
-57.90400205707556
 20
-68.44999910891056
 30
0.0
 11
-57.90400205707556
 21
-64.64999905228615
 31
0.0
  0
LINE
  5
40F
330
1F
100
AcDbEntity
  8
16
  6
Continuous
 62
     3
370
    25
100
AcDbLine
 10
-57.90400205707556
 20
-64.64999905228615
 30
0.0
 11
-58.50400206601625
 21
-64.64999905228615
 31
0.0
  0
LINE
  5
410
330
1F
100
AcDbEntity
  8
16
  6
Continuous
 62
     3
370
    25
100
AcDbLine
 10
-58.50400206601625
 20
-64.64999905228615
 30
0.0
 11
-58.50400206601625
 21
-64.50999905258416
 31
0.0
  0
LINE
  5
411
330
1F
100
AcDbEntity
  8
16
  6
Continuous
 62
     3
370
    25
100
AcDbLine
 10
-58.50400206601625
 20
-64.50999905258416
 30
0.0
 11
-57.90400205707556
 21
-64.50999905258416
 31
0.0
  0
LINE
  5
412
330
1F
100
AcDbEntity
  8
16
  6
Continuous
 62
     3
370
    25
100
AcDbLine
 10
-57.90400205707556
 20
-64.50999905258416
 30
0.0
 11
-57.90400205707556
 21
-64.64999905228615
 31
0.0
  0
LINE
  5
413
330
1F
100
AcDbEntity
  8
16
  6
Continuous
 62
     3
370
    25
100
AcDbLine
 10
-55.99200251686581
 20
-64.64999905228615
 30
0.0
 11
-55.99200251686581
 21
-68.44999910891056
 31
0.0
  0
LINE
  5
414
330
1F
100
AcDbEntity
  8
16
  6
Continuous
 62
     3
370
    25
100
AcDbLine
 10
-55.99200251686581
 20
-68.44999910891056
 30
0.0
 11
-55.3920025079251
 21
-68.44999910891056
 31
0.0
  0
LINE
  5
415
330
1F
100
AcDbEntity
  8
16
  6
Continuous
 62
     3
370
    25
100
AcDbLine
 10
-55.3920025079251
 20
-68.44999910891056
 30
0.0
 11
-55.3920025079251
 21
-64.64999905228615
 31
0.0
  0
LINE
  5
416
330
1F
100
AcDbEntity
  8
16
  6
Continuous
 62
     3
370
    25
100
AcDbLine
 10
-55.3920025079251
 20
-64.64999905228615
 30
0.0
 11
-55.99200251686581
 21
-64.64999905228615
 31
0.0
  0
LINE
  5
417
330
1F
100
AcDbEntity
  8
16
  6
Continuous
 62
     3
370
    25
100
AcDbLine
 10
-55.99200251686581
 20
-64.64999905228615
 30
0.0
 11
-55.99200251686581
 21
-64.50999905258416
 31
0.0
  0
LINE
  5
418
330
1F
100
AcDbEntity
  8
16
  6
Continuous
 62
     3
370
    25
100
AcDbLine
 10
-55.99200251686581
 20
-64.50999905258416
 30
0.0
 11
-55.3920025079251
 21
-64.50999905258416
 31
0.0
  0
LINE
  5
419
330
1F
100
AcDbEntity
  8
16
  6
Continuous
 62
     3
370
    25
100
AcDbLine
 10
-55.3920025079251
 20
-64.50999905258416
 30
0.0
 11
-55.3920025079251
 21
-64.64999905228615
 31
0.0
  0
LINE
  5
41A
330
1F
100
AcDbEntity
  8
16
  6
Continuous
 62
     3
370
    25
100
AcDbLine
 10
-53.48000296771535
 20
-64.64999905228615
 30
0.0
 11
-53.48000296771535
 21
-68.44999910891056
 31
0.0
  0
LINE
  5
41B
330
1F
100
AcDbEntity
  8
16
  6
Continuous
 62
     3
370
    25
100
AcDbLine
 10
-53.48000296771535
 20
-68.44999910891056
 30
0.0
 11
-52.88000295877464
 21
-68.44999910891056
 31
0.0
  0
LINE
  5
41C
330
1F
100
AcDbEntity
  8
16
  6
Continuous
 62
     3
370
    25
100
AcDbLine
 10
-52.88000295877464
 20
-68.44999910891056
 30
0.0
 11
-52.88000295877464
 21
-64.64999905228615
 31
0.0
  0
LINE
  5
41D
330
1F
100
AcDbEntity
  8
16
  6
Continuous
 62
     3
370
    25
100
AcDbLine
 10
-52.88000295877464
 20
-64.64999905228615
 30
0.0
 11
-53.48000296771535
 21
-64.64999905228615
 31
0.0
  0
LINE
  5
41E
330
1F
100
AcDbEntity
  8
16
  6
Continuous
 62
     3
370
    25
100
AcDbLine
 10
-53.48000296771535
 20
-64.64999905228615
 30
0.0
 11
-53.48000296771535
 21
-64.50999905258416
 31
0.0
  0
LINE
  5
41F
330
1F
100
AcDbEntity
  8
16
  6
Continuous
 62
     3
370
    25
100
AcDbLine
 10
-53.48000296771535
 20
-64.50999905258416
 30
0.0
 11
-52.88000295877464
 21
-64.50999905258416
 31
0.0
  0
LINE
  5
420
330
1F
100
AcDbEntity
  8
16
  6
Continuous
 62
     3
370
    25
100
AcDbLine
 10
-52.88000295877464
 20
-64.50999905258416
 30
0.0
 11
-52.88000295877464
 21
-64.64999905228615
 31
0.0
  0
LINE
  5
421
330
1F
100
AcDbEntity
  8
16
  6
Continuous
 62
     3
370
    25
100
AcDbLine
 10
-50.96800341856488
 20
-64.64999905228615
 30
0.0
 11
-50.96800341856488
 21
-68.44999910891056
 31
0.0
  0
LINE
  5
422
330
1F
100
AcDbEntity
  8
16
  6
Continuous
 62
     3
370
    25
100
AcDbLine
 10
-50.96800341856488
 20
-68.44999910891056
 30
0.0
 11
-50.36800340962418
 21
-68.44999910891056
 31
0.0
  0
LINE
  5
423
330
1F
100
AcDbEntity
  8
16
  6
Continuous
 62
     3
370
    25
100
AcDbLine
 10
-50.36800340962418
 20
-68.44999910891056
 30
0.0
 11
-50.36800340962418
 21
-64.64999905228615
 31
0.0
  0
LINE
  5
424
330
1F
100
AcDbEntity
  8
16
  6
Continuous
 62
     3
370
    25
100
AcDbLine
 10
-50.36800340962418
 20
-64.64999905228615
 30
0.0
 11
-50.96800341856488
 21
-64.64999905228615
 31
0.0
  0
LINE
  5
425
330
1F
100
AcDbEntity
  8
16
  6
Continuous
 62
     3
370
    25
100
AcDbLine
 10
-50.96800341856488
 20
-64.64999905228615
 30
0.0
 11
-50.96800341856488
 21
-64.50999905258416
 31
0.0
  0
LINE
  5
426
330
1F
100
AcDbEntity
  8
16
  6
Continuous
 62
     3
370
    25
100
AcDbLine
 10
-50.96800341856488
 20
-64.50999905258416
 30
0.0
 11
-50.36800340962418
 21
-64.50999905258416
 31
0.0
  0
LINE
  5
427
330
1F
100
AcDbEntity
  8
16
  6
Continuous
 62
     3
370
    25
100
AcDbLine
 10
-50.36800340962418
 20
-64.50999905258416
 30
0.0
 11
-50.36800340962418
 21
-64.64999905228615
 31
0.0
  0
LINE
  5
428
330
1F
100
AcDbEntity
  8
16
  6
Continuous
 62
     3
370
    25
100
AcDbLine
 10
-48.45600386941442
 20
-64.64999905228615
 30
0.0
 11
-48.45600386941442
 21
-68.44999910891056
 31
0.0
  0
LINE
  5
429
330
1F
100
AcDbEntity
  8
16
  6
Continuous
 62
     3
370
    25
100
AcDbLine
 10
-48.45600386941442
 20
-68.44999910891056
 30
0.0
 11
-47.85600386047372
 21
-68.44999910891056
 31
0.0
  0
LINE
  5
42A
330
1F
100
AcDbEntity
  8
16
  6
Continuous
 62
     3
370
    25
100
AcDbLine
 10
-47.85600386047372
 20
-68.44999910891056
 30
0.0
 11
-47.85600386047372
 21
-64.64999905228615
 31
0.0
  0
LINE
  5
42B
330
1F
100
AcDbEntity
  8
16
  6
Continuous
 62
     3
370
    25
100
AcDbLine
 10
-47.85600386047372
 20
-64.64999905228615
 30
0.0
 11
-48.45600386941442
 21
-64.64999905228615
 31
0.0
  0
LINE
  5
42C
330
1F
100
AcDbEntity
  8
16
  6
Continuous
 62
     3
370
    25
100
AcDbLine
 10
-48.45600386941442
 20
-64.64999905228615
 30
0.0
 11
-48.45600386941442
 21
-64.50999905258416
 31
0.0
  0
LINE
  5
42D
330
1F
100
AcDbEntity
  8
16
  6
Continuous
 62
     3
370
    25
100
AcDbLine
 10
-48.45600386941442
 20
-64.50999905258416
 30
0.0
 11
-47.85600386047372
 21
-64.50999905258416
 31
0.0
  0
LINE
  5
42E
330
1F
100
AcDbEntity
  8
16
  6
Continuous
 62
     3
370
    25
100
AcDbLine
 10
-47.85600386047372
 20
-64.50999905258416
 30
0.0
 11
-47.85600386047372
 21
-64.64999905228615
 31
0.0
  0
LINE
  5
42F
330
1F
100
AcDbEntity
  8
16
  6
Continuous
 62
     3
370
    25
100
AcDbLine
 10
-45.94399211323253
 20
-64.64999905228615
 30
0.0
 11
-45.94399211323253
 21
-68.44999910891056
 31
0.0
  0
LINE
  5
430
330
1F
100
AcDbEntity
  8
16
  6
Continuous
 62
     3
370
    25
100
AcDbLine
 10
-45.94399211323253
 20
-68.44999910891056
 30
0.0
 11
-45.34399210429183
 21
-68.44999910891056
 31
0.0
  0
LINE
  5
431
330
1F
100
AcDbEntity
  8
16
  6
Continuous
 62
     3
370
    25
100
AcDbLine
 10
-45.34399210429183
 20
-68.44999910891056
 30
0.0
 11
-45.34399210429183
 21
-64.64999905228615
 31
0.0
  0
LINE
  5
432
330
1F
100
AcDbEntity
  8
16
  6
Continuous
 62
     3
370
    25
100
AcDbLine
 10
-45.34399210429183
 20
-64.64999905228615
 30
0.0
 11
-45.94399211323253
 21
-64.64999905228615
 31
0.0
  0
LINE
  5
433
330
1F
100
AcDbEntity
  8
16
  6
Continuous
 62
     3
370
    25
100
AcDbLine
 10
-45.94399211323253
 20
-64.64999905228615
 30
0.0
 11
-45.94399211323253
 21
-64.50999905258416
 31
0.0
  0
LINE
  5
434
330
1F
100
AcDbEntity
  8
16
  6
Continuous
 62
     3
370
    25
100
AcDbLine
 10
-45.94399211323253
 20
-64.50999905258416
 30
0.0
 11
-45.34399210429183
 21
-64.50999905258416
 31
0.0
  0
LINE
  5
435
330
1F
100
AcDbEntity
  8
16
  6
Continuous
 62
     3
370
    25
100
AcDbLine
 10
-45.34399210429183
 20
-64.50999905258416
 30
0.0
 11
-45.34399210429183
 21
-64.64999905228615
 31
0.0
  0
LINE
  5
436
330
1F
100
AcDbEntity
  8
16
  6
Continuous
 62
     3
370
    25
100
AcDbLine
 10
-43.39999793469906
 20
-64.64999905228615
 30
0.0
 11
-43.39999793469906
 21
-68.44999910891056
 31
0.0
  0
LINE
  5
437
330
1F
100
AcDbEntity
  8
16
  6
Continuous
 62
     3
370
    25
100
AcDbLine
 10
-43.39999793469906
 20
-68.44999910891056
 30
0.0
 11
-42.79999792575836
 21
-68.44999910891056
 31
0.0
  0
LINE
  5
438
330
1F
100
AcDbEntity
  8
16
  6
Continuous
 62
     3
370
    25
100
AcDbLine
 10
-42.79999792575836
 20
-68.44999910891056
 30
0.0
 11
-42.79999792575836
 21
-64.64999905228615
 31
0.0
  0
LINE
  5
439
330
1F
100
AcDbEntity
  8
16
  6
Continuous
 62
     3
370
    25
100
AcDbLine
 10
-42.79999792575836
 20
-64.64999905228615
 30
0.0
 11
-43.39999793469906
 21
-64.64999905228615
 31
0.0
  0
LINE
  5
43A
330
1F
100
AcDbEntity
  8
16
  6
Continuous
 62
     3
370
    25
100
AcDbLine
 10
-43.39999793469906
 20
-64.64999905228615
 30
0.0
 11
-43.39999793469906
 21
-64.50999905258416
 31
0.0
  0
LINE
  5
43B
330
1F
100
AcDbEntity
  8
16
  6
Continuous
 62
     3
370
    25
100
AcDbLine
 10
-43.39999793469906
 20
-64.50999905258416
 30
0.0
 11
-42.79999792575836
 21
-64.50999905258416
 31
0.0
  0
LINE
  5
43C
330
1F
100
AcDbEntity
  8
16
  6
Continuous
 62
     3
370
    25
100
AcDbLine
 10
-42.79999792575836
 20
-64.50999905258416
 30
0.0
 11
-42.79999792575836
 21
-64.64999905228615
 31
0.0
  0
LINE
  5
43D
330
1F
100
AcDbEntity
  8
16
  6
Continuous
 62
     3
370
    25
100
AcDbLine
 10
-141.3999993950129
 20
-64.64999905228615
 30
0.0
 11
-141.3999993950129
 21
-68.44999910891056
 31
0.0
  0
LINE
  5
43E
330
1F
100
AcDbEntity
  8
16
  6
Continuous
 62
     3
370
    25
100
AcDbLine
 10
-140.7999993860722
 20
-68.44999910891056
 30
0.0
 11
-138.8879992736578
 21
-68.44999910891056
 31
0.0
  0
LINE
  5
43F
330
1F
100
AcDbEntity
  8
16
  6
Continuous
 62
     3
370
    25
100
AcDbLine
 10
-138.2879998369217
 20
-68.44999910891056
 30
0.0
 11
-136.3759997245073
 21
-68.44999910891056
 31
0.0
  0
LINE
  5
440
330
1F
100
AcDbEntity
  8
16
  6
Continuous
 62
     3
370
    25
100
AcDbLine
 10
-135.7760002877712
 20
-68.44999910891056
 30
0.0
 11
-133.8640001753569
 21
-68.44999910891056
 31
0.0
  0
LINE
  5
441
330
1F
100
AcDbEntity
  8
16
  6
Continuous
 62
     3
370
    25
100
AcDbLine
 10
-133.2640007386208
 20
-68.44999910891056
 30
0.0
 11
-131.3520006262064
 21
-68.44999910891056
 31
0.0
  0
LINE
  5
442
330
1F
100
AcDbEntity
  8
16
  6
Continuous
 62
     3
370
    25
100
AcDbLine
 10
-130.7520011894703
 20
-68.44999910891056
 30
0.0
 11
-128.840001077056
 21
-68.44999910891056
 31
0.0
  0
LINE
  5
443
330
1F
100
AcDbEntity
  8
16
  6
Continuous
 62
     3
370
    25
100
AcDbLine
 10
-128.2400016403199
 20
-68.44999910891056
 30
0.0
 11
-126.3280015279055
 21
-68.44999910891056
 31
0.0
  0
LINE
  5
444
330
1F
100
AcDbEntity
  8
16
  6
Continuous
 62
     3
370
    25
100
AcDbLine
 10
-125.7280020911694
 20
-68.44999910891056
 30
0.0
 11
-123.816001978755
 21
-68.44999910891056
 31
0.0
  0
LINE
  5
445
330
1F
100
AcDbEntity
  8
16
  6
Continuous
 62
     3
370
    25
100
AcDbLine
 10
-123.2159964385032
 20
-68.44999910891056
 30
0.0
 11
-121.3039963260889
 21
-68.44999910891056
 31
0.0
  0
LINE
  5
446
330
1F
100
AcDbEntity
  8
16
  6
Continuous
 62
     3
370
    25
100
AcDbLine
 10
-120.7039968893528
 20
-68.44999910891056
 30
0.0
 11
-118.7919967769384
 21
-68.44999910891056
 31
0.0
  0
LINE
  5
447
330
1F
100
AcDbEntity
  8
16
  6
Continuous
 62
     3
370
    25
100
AcDbLine
 10
-118.1919973402023
 20
-68.44999910891056
 30
0.0
 11
-116.2799972277879
 21
-68.44999910891056
 31
0.0
  0
LINE
  5
448
330
1F
100
AcDbEntity
  8
16
  6
Continuous
 62
     3
370
    25
100
AcDbLine
 10
-115.6799977910518
 20
-68.44999910891056
 30
0.0
 11
-113.7679976786375
 21
-68.44999910891056
 31
0.0
  0
LINE
  5
449
330
1F
100
AcDbEntity
  8
16
  6
Continuous
 62
     3
370
    25
100
AcDbLine
 10
-113.1679982419014
 20
-68.44999910891056
 30
0.0
 11
-111.255998129487
 21
-68.44999910891056
 31
0.0
  0
LINE
  5
44A
330
1F
100
AcDbEntity
  8
16
  6
Continuous
 62
     3
370
    25
100
AcDbLine
 10
-110.6559986927509
 20
-68.44999910891056
 30
0.0
 11
-108.7439985803366
 21
-68.44999910891056
 31
0.0
  0
LINE
  5
44B
330
1F
100
AcDbEntity
  8
16
  6
Continuous
 62
     3
370
    25
100
AcDbLine
 10
-108.1439991436005
 20
-68.44999910891056
 30
0.0
 11
-106.2319990311861
 21
-68.44999910891056
 31
0.0
  0
LINE
  5
44C
330
1F
100
AcDbEntity
  8
16
  6
Continuous
 62
     3
370
    25
100
AcDbLine
 10
-105.63199959445
 20
-68.44999910891056
 30
0.0
 11
-103.7199994820356
 21
-68.44999910891056
 31
0.0
  0
LINE
  5
44D
330
1F
100
AcDbEntity
  8
16
  6
Continuous
 62
     3
370
    25
100
AcDbLine
 10
-103.1200000452995
 20
-68.44999910891056
 30
0.0
 11
-101.2079999328852
 21
-68.44999910891056
 31
0.0
  0
LINE
  5
44E
330
1F
100
AcDbEntity
  8
16
  6
Continuous
 62
     3
370
    25
100
AcDbLine
 10
-100.6080004961491
 20
-68.44999910891056
 30
0.0
 11
-98.69600038373473
 21
-68.44999910891056
 31
0.0
  0
LINE
  5
44F
330
1F
100
AcDbEntity
  8
16
  6
Continuous
 62
     3
370
    25
100
AcDbLine
 10
-98.09600094699863
 20
-68.44999910891056
 30
0.0
 11
-96.18400083458427
 21
-68.44999910891056
 31
0.0
  0
LINE
  5
450
330
1F
100
AcDbEntity
  8
16
  6
Continuous
 62
     3
370
    25
100
AcDbLine
 10
-95.58400139784817
 20
-68.44999910891056
 30
0.0
 11
-93.67200128543381
 21
-68.44999910891056
 31
0.0
  0
LINE
  5
451
330
1F
100
AcDbEntity
  8
16
  6
Continuous
 62
     3
370
    25
100
AcDbLine
 10
-93.071995745182
 20
-68.44999910891056
 30
0.0
 11
-91.15999563276763
 21
-68.44999910891056
 31
0.0
  0
LINE
  5
452
330
1F
100
AcDbEntity
  8
16
  6
Continuous
 62
     3
370
    25
100
AcDbLine
 10
-90.55999619603153
 20
-68.44999910891056
 30
0.0
 11
-88.64799608361717
 21
-68.44999910891056
 31
0.0
  0
LINE
  5
453
330
1F
100
AcDbEntity
  8
16
  6
Continuous
 62
     3
370
    25
100
AcDbLine
 10
-88.04799664688107
 20
-68.44999910891056
 30
0.0
 11
-86.13599653446671
 21
-68.44999910891056
 31
0.0
  0
LINE
  5
454
330
1F
100
AcDbEntity
  8
16
  6
Continuous
 62
     3
370
    25
100
AcDbLine
 10
-85.53599709773061
 20
-68.44999910891056
 30
0.0
 11
-83.62399698531625
 21
-68.44999910891056
 31
0.0
  0
LINE
  5
455
330
1F
100
AcDbEntity
  8
16
  6
Continuous
 62
     3
370
    25
100
AcDbLine
 10
-83.02399754858016
 20
-68.44999910891056
 30
0.0
 11
-81.1119974361658
 21
-68.44999910891056
 31
0.0
  0
LINE
  5
456
330
1F
100
AcDbEntity
  8
16
  6
Continuous
 62
     3
370
    25
100
AcDbLine
 10
-80.5119979994297
 20
-68.44999910891056
 30
0.0
 11
-78.59999788701533
 21
-68.44999910891056
 31
0.0
  0
LINE
  5
457
330
1F
100
AcDbEntity
  8
16
  6
Continuous
 62
     3
370
    25
100
AcDbLine
 10
-77.99999845027924
 20
-68.44999910891056
 30
0.0
 11
-76.08799833786487
 21
-68.44999910891056
 31
0.0
  0
LINE
  5
458
330
1F
100
AcDbEntity
  8
16
  6
Continuous
 62
     3
370
    25
100
AcDbLine
 10
-75.48799890112878
 20
-68.44999910891056
 30
0.0
 11
-73.57599878871441
 21
-68.44999910891056
 31
0.0
  0
LINE
  5
459
330
1F
100
AcDbEntity
  8
16
  6
Continuous
 62
     3
370
    25
100
AcDbLine
 10
-72.97599935197832
 20
-68.44999910891056
 30
0.0
 11
-71.06399923956396
 21
-68.44999910891056
 31
0.0
  0
LINE
  5
45A
330
1F
100
AcDbEntity
  8
16
  6
Continuous
 62
     3
370
    25
100
AcDbLine
 10
-70.46399980282786
 20
-68.44999910891056
 30
0.0
 11
-68.5519996904135
 21
-68.44999910891056
 31
0.0
  0
LINE
  5
45B
330
1F
100
AcDbEntity
  8
16
  6
Continuous
 62
     3
370
    25
100
AcDbLine
 10
-67.9520002536774
 20
-68.44999910891056
 30
0.0
 11
-66.04000014126304
 21
-68.44999910891056
 31
0.0
  0
LINE
  5
45C
330
1F
100
AcDbEntity
  8
16
  6
Continuous
 62
     3
370
    25
100
AcDbLine
 10
-65.44000070452694
 20
-68.44999910891056
 30
0.0
 11
-63.52800059211259
 21
-68.44999910891056
 31
0.0
  0
LINE
  5
45D
330
1F
100
AcDbEntity
  8
16
  6
Continuous
 62
     3
370
    25
100
AcDbLine
 10
-62.92800115537648
 20
-68.44999910891056
 30
0.0
 11
-61.01600104296212
 21
-68.44999910891056
 31
0.0
  0
LINE
  5
45E
330
1F
100
AcDbEntity
  8
16
  6
Continuous
 62
     3
370
    25
100
AcDbLine
 10
-60.41600160622602
 20
-68.44999910891056
 30
0.0
 11
-58.50400149381166
 21
-68.44999910891056
 31
0.0
  0
LINE
  5
45F
330
1F
100
AcDbEntity
  8
16
  6
Continuous
 62
     3
370
    25
100
AcDbLine
 10
-57.90400205707556
 20
-68.44999910891056
 30
0.0
 11
-55.9920019446612
 21
-68.44999910891056
 31
0.0
  0
LINE
  5
460
330
1F
100
AcDbEntity
  8
16
  6
Continuous
 62
     3
370
    25
100
AcDbLine
 10
-55.3920025079251
 20
-68.44999910891056
 30
0.0
 11
-53.48000239551074
 21
-68.44999910891056
 31
0.0
  0
LINE
  5
461
330
1F
100
AcDbEntity
  8
16
  6
Continuous
 62
     3
370
    25
100
AcDbLine
 10
-52.88000295877464
 20
-68.44999910891056
 30
0.0
 11
-50.96800284636028
 21
-68.44999910891056
 31
0.0
  0
LINE
  5
462
330
1F
100
AcDbEntity
  8
16
  6
Continuous
 62
     3
370
    25
100
AcDbLine
 10
-50.36800340962418
 20
-68.44999910891056
 30
0.0
 11
-48.45600329720982
 21
-68.44999910891056
 31
0.0
  0
LINE
  5
463
330
1F
100
AcDbEntity
  8
16
  6
Continuous
 62
     3
370
    25
100
AcDbLine
 10
-47.85600386047372
 20
-68.44999910891056
 30
0.0
 11
-45.94400374805936
 21
-68.44999910891056
 31
0.0
  0
LINE
  5
464
330
1F
100
AcDbEntity
  8
16
  6
Continuous
 62
     3
370
    25
100
AcDbLine
 10
-45.34399210429183
 20
-68.44999910891056
 30
0.0
 11
-43.39999812543392
 21
-68.44999910891056
 31
0.0
  0
LINE
  5
465
330
1F
100
AcDbEntity
  8
16
  6
Continuous
 62
     3
370
    25
100
AcDbLine
 10
-42.79999811649323
 20
-68.44999910891056
 30
0.0
 11
-42.79999811649323
 21
-64.64999905228615
 31
0.0
  0
LINE
  5
466
330
1F
100
AcDbEntity
  8
16
  6
Continuous
 62
     3
370
    25
100
AcDbLine
 10
-140.7999993860722
 20
-64.64999905228615
 30
0.0
 11
-43.39999793469906
 21
-64.64999905228615
 31
0.0
  0
LINE
  5
467
330
1F
100
AcDbEntity
  8
16
  6
Continuous
 62
     3
370
    25
100
AcDbLine
 10
-140.7999993860722
 20
-65.64999906718731
 30
0.0
 11
-138.8879992736578
 21
-65.64999906718731
 31
0.0
  0
LINE
  5
468
330
1F
100
AcDbEntity
  8
16
  6
Continuous
 62
     3
370
    25
100
AcDbLine
 10
-138.2879998369217
 20
-65.64999906718731
 30
0.0
 11
-136.3759997245073
 21
-65.64999906718731
 31
0.0
  0
LINE
  5
469
330
1F
100
AcDbEntity
  8
16
  6
Continuous
 62
     3
370
    25
100
AcDbLine
 10
-135.7760002877712
 20
-65.64999906718731
 30
0.0
 11
-133.8640001753569
 21
-65.64999906718731
 31
0.0
  0
LINE
  5
46A
330
1F
100
AcDbEntity
  8
16
  6
Continuous
 62
     3
370
    25
100
AcDbLine
 10
-133.2640007386208
 20
-65.64999906718731
 30
0.0
 11
-131.3520006262064
 21
-65.64999906718731
 31
0.0
  0
LINE
  5
46B
330
1F
100
AcDbEntity
  8
16
  6
Continuous
 62
     3
370
    25
100
AcDbLine
 10
-130.7520011894703
 20
-65.64999906718731
 30
0.0
 11
-128.840001077056
 21
-65.64999906718731
 31
0.0
  0
LINE
  5
46C
330
1F
100
AcDbEntity
  8
16
  6
Continuous
 62
     3
370
    25
100
AcDbLine
 10
-128.2400016403199
 20
-65.64999906718731
 30
0.0
 11
-126.3280015279055
 21
-65.64999906718731
 31
0.0
  0
LINE
  5
46D
330
1F
100
AcDbEntity
  8
16
  6
Continuous
 62
     3
370
    25
100
AcDbLine
 10
-125.7280020911694
 20
-65.64999906718731
 30
0.0
 11
-123.816001978755
 21
-65.64999906718731
 31
0.0
  0
LINE
  5
46E
330
1F
100
AcDbEntity
  8
16
  6
Continuous
 62
     3
370
    25
100
AcDbLine
 10
-123.2159964385032
 20
-65.64999906718731
 30
0.0
 11
-121.3039963260889
 21
-65.64999906718731
 31
0.0
  0
LINE
  5
46F
330
1F
100
AcDbEntity
  8
16
  6
Continuous
 62
     3
370
    25
100
AcDbLine
 10
-120.7039968893528
 20
-65.64999906718731
 30
0.0
 11
-118.7919967769384
 21
-65.64999906718731
 31
0.0
  0
LINE
  5
470
330
1F
100
AcDbEntity
  8
16
  6
Continuous
 62
     3
370
    25
100
AcDbLine
 10
-118.1919973402023
 20
-65.64999906718731
 30
0.0
 11
-116.2799972277879
 21
-65.64999906718731
 31
0.0
  0
LINE
  5
471
330
1F
100
AcDbEntity
  8
16
  6
Continuous
 62
     3
370
    25
100
AcDbLine
 10
-115.6799977910518
 20
-65.64999906718731
 30
0.0
 11
-113.7679976786375
 21
-65.64999906718731
 31
0.0
  0
LINE
  5
472
330
1F
100
AcDbEntity
  8
16
  6
Continuous
 62
     3
370
    25
100
AcDbLine
 10
-113.1679982419014
 20
-65.64999906718731
 30
0.0
 11
-111.255998129487
 21
-65.64999906718731
 31
0.0
  0
LINE
  5
473
330
1F
100
AcDbEntity
  8
16
  6
Continuous
 62
     3
370
    25
100
AcDbLine
 10
-110.6559986927509
 20
-65.64999906718731
 30
0.0
 11
-108.7439985803366
 21
-65.64999906718731
 31
0.0
  0
LINE
  5
474
330
1F
100
AcDbEntity
  8
16
  6
Continuous
 62
     3
370
    25
100
AcDbLine
 10
-108.1439991436005
 20
-65.64999906718731
 30
0.0
 11
-106.2319990311861
 21
-65.64999906718731
 31
0.0
  0
LINE
  5
475
330
1F
100
AcDbEntity
  8
16
  6
Continuous
 62
     3
370
    25
100
AcDbLine
 10
-105.63199959445
 20
-65.64999906718731
 30
0.0
 11
-103.7199994820356
 21
-65.64999906718731
 31
0.0
  0
LINE
  5
476
330
1F
100
AcDbEntity
  8
16
  6
Continuous
 62
     3
370
    25
100
AcDbLine
 10
-103.1200000452995
 20
-65.64999906718731
 30
0.0
 11
-101.2079999328852
 21
-65.64999906718731
 31
0.0
  0
LINE
  5
477
330
1F
100
AcDbEntity
  8
16
  6
Continuous
 62
     3
370
    25
100
AcDbLine
 10
-100.6080004961491
 20
-65.64999906718731
 30
0.0
 11
-98.69600038373473
 21
-65.64999906718731
 31
0.0
  0
LINE
  5
478
330
1F
100
AcDbEntity
  8
16
  6
Continuous
 62
     3
370
    25
100
AcDbLine
 10
-98.09600094699863
 20
-65.64999906718731
 30
0.0
 11
-96.18400083458427
 21
-65.64999906718731
 31
0.0
  0
LINE
  5
479
330
1F
100
AcDbEntity
  8
16
  6
Continuous
 62
     3
370
    25
100
AcDbLine
 10
-95.58400139784817
 20
-65.64999906718731
 30
0.0
 11
-93.67200128543381
 21
-65.64999906718731
 31
0.0
  0
LINE
  5
47A
330
1F
100
AcDbEntity
  8
16
  6
Continuous
 62
     3
370
    25
100
AcDbLine
 10
-93.071995745182
 20
-65.64999906718731
 30
0.0
 11
-91.15999563276763
 21
-65.64999906718731
 31
0.0
  0
LINE
  5
47B
330
1F
100
AcDbEntity
  8
16
  6
Continuous
 62
     3
370
    25
100
AcDbLine
 10
-90.55999619603153
 20
-65.64999906718731
 30
0.0
 11
-88.64799608361717
 21
-65.64999906718731
 31
0.0
  0
LINE
  5
47C
330
1F
100
AcDbEntity
  8
16
  6
Continuous
 62
     3
370
    25
100
AcDbLine
 10
-88.04799664688107
 20
-65.64999906718731
 30
0.0
 11
-86.13599653446671
 21
-65.64999906718731
 31
0.0
  0
LINE
  5
47D
330
1F
100
AcDbEntity
  8
16
  6
Continuous
 62
     3
370
    25
100
AcDbLine
 10
-85.53599709773061
 20
-65.64999906718731
 30
0.0
 11
-83.62399698531625
 21
-65.64999906718731
 31
0.0
  0
LINE
  5
47E
330
1F
100
AcDbEntity
  8
16
  6
Continuous
 62
     3
370
    25
100
AcDbLine
 10
-83.02399754858016
 20
-65.64999906718731
 30
0.0
 11
-81.1119974361658
 21
-65.64999906718731
 31
0.0
  0
LINE
  5
47F
330
1F
100
AcDbEntity
  8
16
  6
Continuous
 62
     3
370
    25
100
AcDbLine
 10
-80.5119979994297
 20
-65.64999906718731
 30
0.0
 11
-78.59999788701533
 21
-65.64999906718731
 31
0.0
  0
LINE
  5
480
330
1F
100
AcDbEntity
  8
16
  6
Continuous
 62
     3
370
    25
100
AcDbLine
 10
-77.99999845027924
 20
-65.64999906718731
 30
0.0
 11
-76.08799833786487
 21
-65.64999906718731
 31
0.0
  0
LINE
  5
481
330
1F
100
AcDbEntity
  8
16
  6
Continuous
 62
     3
370
    25
100
AcDbLine
 10
-75.48799890112878
 20
-65.64999906718731
 30
0.0
 11
-73.57599878871441
 21
-65.64999906718731
 31
0.0
  0
LINE
  5
482
330
1F
100
AcDbEntity
  8
16
  6
Continuous
 62
     3
370
    25
100
AcDbLine
 10
-72.97599935197832
 20
-65.64999906718731
 30
0.0
 11
-71.06399923956396
 21
-65.64999906718731
 31
0.0
  0
LINE
  5
483
330
1F
100
AcDbEntity
  8
16
  6
Continuous
 62
     3
370
    25
100
AcDbLine
 10
-70.46399980282786
 20
-65.64999906718731
 30
0.0
 11
-68.5519996904135
 21
-65.64999906718731
 31
0.0
  0
LINE
  5
484
330
1F
100
AcDbEntity
  8
16
  6
Continuous
 62
     3
370
    25
100
AcDbLine
 10
-67.9520002536774
 20
-65.64999906718731
 30
0.0
 11
-66.04000014126304
 21
-65.64999906718731
 31
0.0
  0
LINE
  5
485
330
1F
100
AcDbEntity
  8
16
  6
Continuous
 62
     3
370
    25
100
AcDbLine
 10
-65.44000070452694
 20
-65.64999906718731
 30
0.0
 11
-63.52800059211259
 21
-65.64999906718731
 31
0.0
  0
LINE
  5
486
330
1F
100
AcDbEntity
  8
16
  6
Continuous
 62
     3
370
    25
100
AcDbLine
 10
-62.92800115537648
 20
-65.64999906718731
 30
0.0
 11
-61.01600104296212
 21
-65.64999906718731
 31
0.0
  0
LINE
  5
487
330
1F
100
AcDbEntity
  8
16
  6
Continuous
 62
     3
370
    25
100
AcDbLine
 10
-60.41600160622602
 20
-65.64999906718731
 30
0.0
 11
-58.50400149381166
 21
-65.64999906718731
 31
0.0
  0
LINE
  5
488
330
1F
100
AcDbEntity
  8
16
  6
Continuous
 62
     3
370
    25
100
AcDbLine
 10
-57.90400205707556
 20
-65.64999906718731
 30
0.0
 11
-55.9920019446612
 21
-65.64999906718731
 31
0.0
  0
LINE
  5
489
330
1F
100
AcDbEntity
  8
16
  6
Continuous
 62
     3
370
    25
100
AcDbLine
 10
-55.3920025079251
 20
-65.64999906718731
 30
0.0
 11
-53.48000239551074
 21
-65.64999906718731
 31
0.0
  0
LINE
  5
48A
330
1F
100
AcDbEntity
  8
16
  6
Continuous
 62
     3
370
    25
100
AcDbLine
 10
-52.88000295877464
 20
-65.64999906718731
 30
0.0
 11
-50.96800284636028
 21
-65.64999906718731
 31
0.0
  0
LINE
  5
48B
330
1F
100
AcDbEntity
  8
16
  6
Continuous
 62
     3
370
    25
100
AcDbLine
 10
-50.36800340962418
 20
-65.64999906718731
 30
0.0
 11
-48.45600329720982
 21
-65.64999906718731
 31
0.0
  0
LINE
  5
48C
330
1F
100
AcDbEntity
  8
16
  6
Continuous
 62
     3
370
    25
100
AcDbLine
 10
-47.85600386047372
 20
-65.64999906718731
 30
0.0
 11
-45.94400374805936
 21
-65.64999906718731
 31
0.0
  0
LINE
  5
48D
330
1F
100
AcDbEntity
  8
16
  6
Continuous
 62
     3
370
    25
100
AcDbLine
 10
-45.34399210429183
 20
-65.64999906718731
 30
0.0
 11
-43.43199199187747
 21
-65.64999906718731
 31
0.0
  0
LINE
  5
48E
330
1F
100
AcDbEntity
  8
16
  6
Continuous
 62
     3
370
    25
100
AcDbLine
 10
-141.2999993935227
 20
-68.44999910891056
 30
0.0
 11
-42.89999792724848
 21
-68.44999910891056
 31
0.0
  0
LINE
  5
48F
330
1F
100
AcDbEntity
  8
16
  6
Continuous
 62
     3
370
    25
100
AcDbLine
 10
-42.89999792724848
 20
-82.44999931752682
 30
0.0
 11
-42.89999792724848
 21
-68.44999910891056
 31
0.0
  0
LINE
  5
490
330
1F
100
AcDbEntity
  8
16
  6
Continuous
 62
     3
370
    25
100
AcDbLine
 10
-141.2999993935227
 20
-82.44999931752682
 30
0.0
 11
-42.89999792724848
 21
-82.44999931752682
 31
0.0
  0
LINE
  5
491
330
1F
100
AcDbEntity
  8
16
  6
Continuous
 62
     3
370
    25
100
AcDbLine
 10
-141.2999993935227
 20
-82.44999931752682
 30
0.0
 11
-141.2999993935227
 21
-68.44999910891056
 31
0.0
  0
LINE
  5
492
330
1F
100
AcDbEntity
  8
16
  6
Continuous
 62
     3
370
    25
100
AcDbLine
 10
2.200002744793892
 20
50.95000267028809
 30
0.0
 11
6.000002801418304
 21
50.95000267028809
 31
0.0
  0
LINE
  5
493
330
1F
100
AcDbEntity
  8
16
  6
Continuous
 62
     3
370
    25
100
AcDbLine
 10
6.000002801418304
 20
50.95000267028809
 30
0.0
 11
6.000002801418304
 21
51.55000267922878
 31
0.0
  0
LINE
  5
494
330
1F
100
AcDbEntity
  8
16
  6
Continuous
 62
     3
370
    25
100
AcDbLine
 10
6.000002801418304
 20
51.55000267922878
 30
0.0
 11
2.200002744793892
 21
51.55000267922878
 31
0.0
  0
LINE
  5
495
330
1F
100
AcDbEntity
  8
16
  6
Continuous
 62
     3
370
    25
100
AcDbLine
 10
2.200002744793892
 20
51.55000267922878
 30
0.0
 11
2.200002744793892
 21
50.95000267028809
 31
0.0
  0
LINE
  5
496
330
1F
100
AcDbEntity
  8
16
  6
Continuous
 62
     3
370
    25
100
AcDbLine
 10
2.200002744793892
 20
-19.84999838471413
 30
0.0
 11
6.000002801418304
 21
-19.84999838471413
 31
0.0
  0
LINE
  5
497
330
1F
100
AcDbEntity
  8
16
  6
Continuous
 62
     3
370
    25
100
AcDbLine
 10
6.000002801418304
 20
-19.84999838471413
 30
0.0
 11
6.000002801418304
 21
-20.44999839365482
 31
0.0
  0
LINE
  5
498
330
1F
100
AcDbEntity
  8
16
  6
Continuous
 62
     3
370
    25
100
AcDbLine
 10
6.000002801418304
 20
-20.44999839365482
 30
0.0
 11
2.200002744793892
 21
-20.44999839365482
 31
0.0
  0
LINE
  5
499
330
1F
100
AcDbEntity
  8
16
  6
Continuous
 62
     3
370
    25
100
AcDbLine
 10
2.200002744793892
 20
-20.44999839365482
 30
0.0
 11
2.200002744793892
 21
-19.84999838471413
 31
0.0
  0
LINE
  5
49A
330
1F
100
AcDbEntity
  8
16
  6
Continuous
 62
     3
370
    25
100
AcDbLine
 10
2.200002744793892
 20
50.95000267028809
 30
0.0
 11
2.200002744793892
 21
-19.84999838471413
 31
0.0
  0
LINE
  5
49B
330
1F
100
AcDbEntity
  8
16
  6
Continuous
 62
     3
370
    25
100
AcDbLine
 10
2.200002744793892
 20
-19.84999838471413
 30
0.0
 11
2.060002745091914
 21
-19.84999838471413
 31
0.0
  0
LINE
  5
49C
330
1F
100
AcDbEntity
  8
16
  6
Continuous
 62
     3
370
    25
100
AcDbLine
 10
2.060002745091914
 20
-19.84999838471413
 30
0.0
 11
2.060002745091914
 21
50.95000267028809
 31
0.0
  0
LINE
  5
49D
330
1F
100
AcDbEntity
  8
16
  6
Continuous
 62
     3
370
    25
100
AcDbLine
 10
2.060002745091914
 20
50.95000267028809
 30
0.0
 11
2.200002744793892
 21
50.95000267028809
 31
0.0
  0
LINE
  5
49E
330
1F
100
AcDbEntity
  8
16
  6
Continuous
 62
     3
370
    25
100
AcDbLine
 10
2.200002744793892
 20
-19.84999838471413
 30
0.0
 11
6.000002801418304
 21
-19.84999838471413
 31
0.0
  0
LINE
  5
49F
330
1F
100
AcDbEntity
  8
16
  6
Continuous
 62
     3
370
    25
100
AcDbLine
 10
6.000002801418304
 20
-19.84999838471413
 30
0.0
 11
6.000002801418304
 21
50.95000267028809
 31
0.0
  0
LINE
  5
4A0
330
1F
100
AcDbEntity
  8
16
  6
Continuous
 62
     3
370
    25
100
AcDbLine
 10
6.000002801418304
 20
50.95000267028809
 30
0.0
 11
2.200002744793892
 21
50.95000267028809
 31
0.0
  0
CIRCLE
  5
4A1
330
1F
100
AcDbEntity
  8
16
  6
Continuous
 62
     3
370
    25
100
AcDbCircle
 10
2.700002752244473
 20
35.5500024408102
 30
0.0
 40
0.5000000074505806
  0
CIRCLE
  5
4A2
330
1F
100
AcDbEntity
  8
16
  6
Continuous
 62
     3
370
    25
100
AcDbCircle
 10
2.700002752244473
 20
15.55000214278698
 30
0.0
 40
0.5000000074505806
  0
CIRCLE
  5
4A3
330
1F
100
AcDbEntity
  8
16
  6
Continuous
 62
     3
370
    25
100
AcDbCircle
 10
2.700002752244473
 20
-4.449998155236244
 30
0.0
 40
0.5000000074505806
  0
LINE
  5
4A4
330
1F
100
AcDbEntity
  8
16
  6
Continuous
 62
     3
370
    25
100
AcDbLine
 10
6.000002801418304
 20
50.35000266134739
 30
0.0
 11
20.00000301003456
 21
50.35000266134739
 31
0.0
  0
LINE
  5
4A5
330
1F
100
AcDbEntity
  8
16
  6
Continuous
 62
     3
370
    25
100
AcDbLine
 10
20.00000301003456
 20
50.35000266134739
 30
0.0
 11
20.00000301003456
 21
42.3500025421381
 31
0.0
  0
LINE
  5
4A6
330
1F
100
AcDbEntity
  8
16
  6
Continuous
 62
     3
370
    25
100
AcDbLine
 10
20.00000301003456
 20
42.3500025421381
 30
0.0
 11
6.000002801418304
 21
42.3500025421381
 31
0.0
  0
LINE
  5
4A7
330
1F
100
AcDbEntity
  8
16
  6
Continuous
 62
     3
370
    25
100
AcDbLine
 10
6.000002801418304
 20
42.3500025421381
 30
0.0
 11
6.000002801418304
 21
50.35000266134739
 31
0.0
  0
LINE
  5
4A8
330
1F
100
AcDbEntity
  8
16
  6
Continuous
 62
     3
370
    25
100
AcDbLine
 10
6.600002810359001
 20
49.75000265240669
 30
0.0
 11
19.40000300109386
 21
49.75000265240669
 31
0.0
  0
LINE
  5
4A9
330
1F
100
AcDbEntity
  8
16
  6
Continuous
 62
     3
370
    25
100
AcDbLine
 10
19.40000300109386
 20
49.75000265240669
 30
0.0
 11
19.40000300109386
 21
42.9500025510788
 31
0.0
  0
LINE
  5
4AA
330
1F
100
AcDbEntity
  8
16
  6
Continuous
 62
     3
370
    25
100
AcDbLine
 10
19.40000300109386
 20
42.9500025510788
 30
0.0
 11
6.600002810359001
 21
42.9500025510788
 31
0.0
  0
LINE
  5
4AB
330
1F
100
AcDbEntity
  8
16
  6
Continuous
 62
     3
370
    25
100
AcDbLine
 10
6.600002810359001
 20
42.9500025510788
 30
0.0
 11
6.600002810359001
 21
49.75000265240669
 31
0.0
  0
LINE
  5
4AC
330
1F
100
AcDbEntity
  8
16
  6
Continuous
 62
     3
370
    25
100
AcDbLine
 10
6.000002801418304
 20
-19.24999837577343
 30
0.0
 11
20.00000301003456
 21
-19.24999837577343
 31
0.0
  0
LINE
  5
4AD
330
1F
100
AcDbEntity
  8
16
  6
Continuous
 62
     3
370
    25
100
AcDbLine
 10
20.00000301003456
 20
-19.24999837577343
 30
0.0
 11
20.00000301003456
 21
-11.24999825656414
 31
0.0
  0
LINE
  5
4AE
330
1F
100
AcDbEntity
  8
16
  6
Continuous
 62
     3
370
    25
100
AcDbLine
 10
20.00000301003456
 20
-11.24999825656414
 30
0.0
 11
6.000002801418304
 21
-11.24999825656414
 31
0.0
  0
LINE
  5
4AF
330
1F
100
AcDbEntity
  8
16
  6
Continuous
 62
     3
370
    25
100
AcDbLine
 10
6.000002801418304
 20
-11.24999825656414
 30
0.0
 11
6.000002801418304
 21
-19.24999837577343
 31
0.0
  0
LINE
  5
4B0
330
1F
100
AcDbEntity
  8
16
  6
Continuous
 62
     3
370
    25
100
AcDbLine
 10
6.600002810359001
 20
-18.64999836683273
 30
0.0
 11
19.40000300109386
 21
-18.64999836683273
 31
0.0
  0
LINE
  5
4B1
330
1F
100
AcDbEntity
  8
16
  6
Continuous
 62
     3
370
    25
100
AcDbLine
 10
19.40000300109386
 20
-18.64999836683273
 30
0.0
 11
19.40000300109386
 21
-11.84999826550484
 31
0.0
  0
LINE
  5
4B2
330
1F
100
AcDbEntity
  8
16
  6
Continuous
 62
     3
370
    25
100
AcDbLine
 10
19.40000300109386
 20
-11.84999826550484
 30
0.0
 11
6.600002810359001
 21
-11.84999826550484
 31
0.0
  0
LINE
  5
4B3
330
1F
100
AcDbEntity
  8
16
  6
Continuous
 62
     3
370
    25
100
AcDbLine
 10
6.600002810359001
 20
-11.84999826550484
 30
0.0
 11
6.600002810359001
 21
-18.64999836683273
 31
0.0
  0
LINE
  5
4B4
330
1F
100
AcDbEntity
  8
16
  6
DASHED2
 62
     3
370
    25
100
AcDbLine
 10
-141.2999993935227
 20
-69.08999912798404
 30
0.0
 11
-42.89999792724848
 21
-69.08999912798404
 31
0.0
  0
LINE
  5
4B5
330
1F
100
AcDbEntity
  8
16
  6
DASHED2
 62
     3
370
    25
100
AcDbLine
 10
-141.2999993935227
 20
-81.80999991834165
 30
0.0
 11
-42.89999792724848
 21
-81.80999991834165
 31
0.0
  0
LINE
  5
4B6
330
1F
100
AcDbEntity
  8
22
  6
Continuous
 62
     4
370
    25
100
AcDbLine
 10
-135.7760002877712
 20
26.05000229924917
 30
0.0
 11
-135.4760002833009
 21
27.51000235915184
 31
0.0
  0
LINE
  5
4B7
330
1F
100
AcDbEntity
  8
22
  6
Continuous
 62
     4
370
    25
100
AcDbLine
 10
-135.7760002877712
 20
26.05000229924917
 30
0.0
 11
-134.7760002728701
 21
27.15000231564045
 31
0.0
  0
LINE
  5
4B8
330
1F
100
AcDbEntity
  8
22
  6
Continuous
 62
     4
370
    25
100
AcDbLine
 10
-135.7760002877712
 20
26.05000229924917
 30
0.0
 11
-108.5759998824597
 21
80.45000310987234
 31
0.0
  0
LINE
  5
4B9
330
1F
100
AcDbEntity
  8
22
  6
Continuous
 62
     4
370
    25
100
AcDbLine
 10
-108.5759998824597
 20
80.45000310987234
 30
0.0
 11
-69.57599930131437
 21
80.45000310987234
 31
0.0
  0
LINE
  5
4BA
330
1F
100
AcDbEntity
  8
22
  6
Continuous
 62
     4
370
    25
100
AcDbLine
 10
-124.7719962175488
 20
36.05000244826078
 30
0.0
 11
-124.4719962130785
 21
37.51000250816345
 31
0.0
  0
LINE
  5
4BB
330
1F
100
AcDbEntity
  8
22
  6
Continuous
 62
     4
370
    25
100
AcDbLine
 10
-124.7719962175488
 20
36.05000244826078
 30
0.0
 11
-123.7719962026476
 21
37.15000246465206
 31
0.0
  0
LINE
  5
4BC
330
1F
100
AcDbEntity
  8
22
  6
Continuous
 62
     4
370
    25
100
AcDbLine
 10
-124.7719962175488
 20
36.05000244826078
 30
0.0
 11
-104.8219959202706
 21
75.95000304281712
 31
0.0
  0
LINE
  5
4BD
330
1F
100
AcDbEntity
  8
22
  6
Continuous
 62
     4
370
    25
100
AcDbLine
 10
-104.8219959202706
 20
75.95000304281712
 30
0.0
 11
-78.32199552538987
 21
75.95000304281712
 31
0.0
  0
LINE
  5
4BE
330
1F
100
AcDbEntity
  8
22
  6
Continuous
 62
     4
370
    25
100
AcDbLine
 10
-112.2119984717965
 20
51.55000267922878
 30
0.0
 11
-111.9119984673262
 21
53.01000273913145
 31
0.0
  0
LINE
  5
4BF
330
1F
100
AcDbEntity
  8
22
  6
Continuous
 62
     4
370
    25
100
AcDbLine
 10
-112.2119984717965
 20
51.55000267922878
 30
0.0
 11
-111.2119984568953
 21
52.65000269562006
 31
0.0
  0
LINE
  5
4C0
330
1F
100
AcDbEntity
  8
22
  6
Continuous
 62
     4
370
    25
100
AcDbLine
 10
-112.2119984717965
 20
51.55000267922878
 30
0.0
 11
-102.5119983272552
 21
70.95000296831131
 31
0.0
  0
LINE
  5
4C1
330
1F
100
AcDbEntity
  8
22
  6
Continuous
 62
     4
370
    25
100
AcDbLine
 10
-102.5119983272552
 20
70.95000296831131
 30
0.0
 11
-63.51199774610995
 21
70.95000296831131
 31
0.0
  0
LINE
  5
4C2
330
1F
100
AcDbEntity
  8
22
  6
Continuous
 62
     4
370
    25
100
AcDbLine
 10
-108.4439991480708
 20
-64.14999904483557
 30
0.0
 11
-108.4439991480708
 21
-59.14999897032976
 31
0.0
  0
LINE
  5
4C3
330
1F
100
AcDbEntity
  8
22
  6
Continuous
 62
     4
370
    25
100
AcDbLine
 10
-108.4439991480708
 20
-60.14999898523092
 30
0.0
 11
-109.9439991704226
 21
-59.74999897927046
 31
0.0
  0
LINE
  5
4C4
330
1F
100
AcDbEntity
  8
22
  6
Continuous
 62
     4
370
    25
100
AcDbLine
 10
-109.9439991704226
 20
-60.54999899119139
 30
0.0
 11
-108.4439991480708
 21
-60.14999898523092
 31
0.0
  0
LINE
  5
4C5
330
1F
100
AcDbEntity
  8
22
  6
Continuous
 62
     4
370
    25
100
AcDbLine
 10
-108.4439991480708
 20
-60.14999898523092
 30
0.0
 11
-111.4439991927743
 21
-60.14999898523092
 31
0.0
  0
LINE
  5
4C6
330
1F
100
AcDbEntity
  8
22
  6
Continuous
 62
     4
370
    25
100
AcDbLine
 10
-108.4439991480708
 20
-60.14999898523092
 30
0.0
 11
-105.9319990267158
 21
-60.14999898523092
 31
0.0
  0
LINE
  5
4C7
330
1F
100
AcDbEntity
  8
22
  6
Continuous
 62
     4
370
    25
100
AcDbLine
 10
-105.9319990267158
 20
-60.14999898523092
 30
0.0
 11
-104.431999004364
 21
-59.74999897927046
 31
0.0
  0
LINE
  5
4C8
330
1F
100
AcDbEntity
  8
22
  6
Continuous
 62
     4
370
    25
100
AcDbLine
 10
-104.431999004364
 20
-60.54999899119139
 30
0.0
 11
-105.9319990267158
 21
-60.14999898523092
 31
0.0
  0
LINE
  5
4C9
330
1F
100
AcDbEntity
  8
22
  6
Continuous
 62
     4
370
    25
100
AcDbLine
 10
-105.9319990267158
 20
-60.14999898523092
 30
0.0
 11
-93.93199884790182
 21
-60.14999898523092
 31
0.0
  0
LINE
  5
4CA
330
1F
100
AcDbEntity
  8
22
  6
Continuous
 62
     4
370
    25
100
AcDbLine
 10
-105.9319990267158
 20
-59.14999897032976
 30
0.0
 11
-105.9319990267158
 21
-64.14999904483557
 31
0.0
  0
LINE
  5
4CB
330
1F
100
AcDbEntity
  8
22
  6
Continuous
 62
     4
370
    25
100
AcDbLine
 10
-141.3999993950129
 20
-64.14999904483557
 30
0.0
 11
-141.3999993950129
 21
-52.14999886602163
 31
0.0
  0
LINE
  5
4CC
330
1F
100
AcDbEntity
  8
22
  6
Continuous
 62
     4
370
    25
100
AcDbLine
 10
-141.3999993950129
 20
-53.14999888092279
 30
0.0
 11
-139.8999993726611
 21
-52.74999887496233
 31
0.0
  0
LINE
  5
4CD
330
1F
100
AcDbEntity
  8
22
  6
Continuous
 62
     4
370
    25
100
AcDbLine
 10
-139.8999993726611
 20
-53.54999888688326
 30
0.0
 11
-141.3999993950129
 21
-53.14999888092279
 31
0.0
  0
LINE
  5
4CE
330
1F
100
AcDbEntity
  8
22
  6
Continuous
 62
     4
370
    25
100
AcDbLine
 10
-141.3999993950129
 20
-53.14999888092279
 30
0.0
 11
-42.79999792575836
 21
-53.14999888092279
 31
0.0
  0
LINE
  5
4CF
330
1F
100
AcDbEntity
  8
22
  6
Continuous
 62
     4
370
    25
100
AcDbLine
 10
-42.79999792575836
 20
-53.14999888092279
 30
0.0
 11
-44.2999979481101
 21
-52.74999887496233
 31
0.0
  0
LINE
  5
4D0
330
1F
100
AcDbEntity
  8
22
  6
Continuous
 62
     4
370
    25
100
AcDbLine
 10
-44.2999979481101
 20
-53.54999888688326
 30
0.0
 11
-42.79999792575836
 21
-53.14999888092279
 31
0.0
  0
LINE
  5
4D1
330
1F
100
AcDbEntity
  8
22
  6
Continuous
 62
     4
370
    25
100
AcDbLine
 10
-42.79999792575836
 20
-64.14999904483557
 30
0.0
 11
-42.79999792575836
 21
-52.14999886602163
 31
0.0
  0
LINE
  5
4D2
330
1F
100
AcDbEntity
  8
22
  6
Continuous
 62
     4
370
    25
100
AcDbLine
 10
-141.2999993935227
 20
-91.94999945908785
 30
0.0
 11
-141.2999993935227
 21
-82.9499993249774
 31
0.0
  0
LINE
  5
4D3
330
1F
100
AcDbEntity
  8
22
  6
Continuous
 62
     4
370
    25
100
AcDbLine
 10
-141.2999993935227
 20
-90.94999944418669
 30
0.0
 11
-139.799999371171
 21
-90.54999943822622
 31
0.0
  0
LINE
  5
4D4
330
1F
100
AcDbEntity
  8
22
  6
Continuous
 62
     4
370
    25
100
AcDbLine
 10
-139.799999371171
 20
-91.34999945014715
 30
0.0
 11
-141.2999993935227
 21
-90.94999944418669
 31
0.0
  0
LINE
  5
4D5
330
1F
100
AcDbEntity
  8
22
  6
Continuous
 62
     4
370
    25
100
AcDbLine
 10
-141.2999993935227
 20
-90.94999944418669
 30
0.0
 11
-42.89999792724848
 21
-90.94999944418669
 31
0.0
  0
LINE
  5
4D6
330
1F
100
AcDbEntity
  8
22
  6
Continuous
 62
     4
370
    25
100
AcDbLine
 10
-42.89999792724848
 20
-90.94999944418669
 30
0.0
 11
-44.39999794960022
 21
-90.54999943822622
 31
0.0
  0
LINE
  5
4D7
330
1F
100
AcDbEntity
  8
22
  6
Continuous
 62
     4
370
    25
100
AcDbLine
 10
-44.39999794960022
 20
-91.34999945014715
 30
0.0
 11
-42.89999792724848
 21
-90.94999944418669
 31
0.0
  0
LINE
  5
4D8
330
1F
100
AcDbEntity
  8
22
  6
Continuous
 62
     4
370
    25
100
AcDbLine
 10
-42.89999792724848
 20
-91.94999945908785
 30
0.0
 11
-42.89999792724848
 21
-82.9499993249774
 31
0.0
  0
LINE
  5
4D9
330
1F
100
AcDbEntity
  8
22
  6
Continuous
 62
     4
370
    25
100
AcDbLine
 10
1.700002737343311
 20
51.55000267922878
 30
0.0
 11
-3.299997337162496
 21
51.55000267922878
 31
0.0
  0
LINE
  5
4DA
330
1F
100
AcDbEntity
  8
22
  6
Continuous
 62
     4
370
    25
100
AcDbLine
 10
-2.299997322261333
 20
51.55000267922878
 30
0.0
 11
-2.699997328221798
 21
50.05000265687704
 31
0.0
  0
LINE
  5
4DB
330
1F
100
AcDbEntity
  8
22
  6
Continuous
 62
     4
370
    25
100
AcDbLine
 10
-1.899997316300869
 20
50.05000265687704
 30
0.0
 11
-2.299997322261333
 21
51.55000267922878
 31
0.0
  0
LINE
  5
4DC
330
1F
100
AcDbEntity
  8
22
  6
Continuous
 62
     4
370
    25
100
AcDbLine
 10
-2.299997322261333
 20
51.55000267922878
 30
0.0
 11
-2.299997322261333
 21
35.5500024408102
 31
0.0
  0
LINE
  5
4DD
330
1F
100
AcDbEntity
  8
22
  6
Continuous
 62
     4
370
    25
100
AcDbLine
 10
-2.299997322261333
 20
35.5500024408102
 30
0.0
 11
-2.699997328221798
 21
37.05000246316195
 31
0.0
  0
LINE
  5
4DE
330
1F
100
AcDbEntity
  8
22
  6
Continuous
 62
     4
370
    25
100
AcDbLine
 10
-1.899997316300869
 20
37.05000246316195
 30
0.0
 11
-2.299997322261333
 21
35.5500024408102
 31
0.0
  0
LINE
  5
4DF
330
1F
100
AcDbEntity
  8
22
  6
Continuous
 62
     4
370
    25
100
AcDbLine
 10
-3.299997337162496
 20
35.5500024408102
 30
0.0
 11
1.700002737343311
 21
35.5500024408102
 31
0.0
  0
LINE
  5
4E0
330
1F
100
AcDbEntity
  8
22
  6
Continuous
 62
     4
370
    25
100
AcDbLine
 10
-2.299997322261333
 20
35.5500024408102
 30
0.0
 11
-2.699997328221798
 21
34.05000241845846
 31
0.0
  0
LINE
  5
4E1
330
1F
100
AcDbEntity
  8
22
  6
Continuous
 62
     4
370
    25
100
AcDbLine
 10
-1.899997316300869
 20
34.05000241845846
 30
0.0
 11
-2.299997322261333
 21
35.5500024408102
 31
0.0
  0
LINE
  5
4E2
330
1F
100
AcDbEntity
  8
22
  6
Continuous
 62
     4
370
    25
100
AcDbLine
 10
-2.299997322261333
 20
35.5500024408102
 30
0.0
 11
-2.299997322261333
 21
15.55000214278698
 31
0.0
  0
LINE
  5
4E3
330
1F
100
AcDbEntity
  8
22
  6
Continuous
 62
     4
370
    25
100
AcDbLine
 10
-2.299997322261333
 20
15.55000214278698
 30
0.0
 11
-2.699997328221798
 21
17.05000216513872
 31
0.0
  0
LINE
  5
4E4
330
1F
100
AcDbEntity
  8
22
  6
Continuous
 62
     4
370
    25
100
AcDbLine
 10
-1.899997316300869
 20
17.05000216513872
 30
0.0
 11
-2.299997322261333
 21
15.55000214278698
 31
0.0
  0
LINE
  5
4E5
330
1F
100
AcDbEntity
  8
22
  6
Continuous
 62
     4
370
    25
100
AcDbLine
 10
-3.299997337162496
 20
15.55000214278698
 30
0.0
 11
1.700002737343311
 21
15.55000214278698
 31
0.0
  0
LINE
  5
4E6
330
1F
100
AcDbEntity
  8
22
  6
Continuous
 62
     4
370
    25
100
AcDbLine
 10
1.700002737343311
 20
51.55000267922878
 30
0.0
 11
-10.29999744147062
 21
51.55000267922878
 31
0.0
  0
LINE
  5
4E7
330
1F
100
AcDbEntity
  8
22
  6
Continuous
 62
     4
370
    25
100
AcDbLine
 10
-9.299997426569462
 20
51.55000267922878
 30
0.0
 11
-9.699997432529926
 21
50.05000265687704
 31
0.0
  0
LINE
  5
4E8
330
1F
100
AcDbEntity
  8
22
  6
Continuous
 62
     4
370
    25
100
AcDbLine
 10
-8.899997420608997
 20
50.05000265687704
 30
0.0
 11
-9.299997426569462
 21
51.55000267922878
 31
0.0
  0
LINE
  5
4E9
330
1F
100
AcDbEntity
  8
22
  6
Continuous
 62
     4
370
    25
100
AcDbLine
 10
-9.299997426569462
 20
51.55000267922878
 30
0.0
 11
-9.299997426569462
 21
-20.44999839365482
 31
0.0
  0
LINE
  5
4EA
330
1F
100
AcDbEntity
  8
22
  6
Continuous
 62
     4
370
    25
100
AcDbLine
 10
-9.299997426569462
 20
-20.44999839365482
 30
0.0
 11
-9.699997432529926
 21
-18.94999837130308
 31
0.0
  0
LINE
  5
4EB
330
1F
100
AcDbEntity
  8
22
  6
Continuous
 62
     4
370
    25
100
AcDbLine
 10
-8.899997420608997
 20
-18.94999837130308
 30
0.0
 11
-9.299997426569462
 21
-20.44999839365482
 31
0.0
  0
LINE
  5
4EC
330
1F
100
AcDbEntity
  8
22
  6
Continuous
 62
     4
370
    25
100
AcDbLine
 10
-10.29999744147062
 20
-20.44999839365482
 30
0.0
 11
1.700002737343311
 21
-20.44999839365482
 31
0.0
  0
LINE
  5
4ED
330
1F
100
AcDbEntity
  8
22
  6
Continuous
 62
     4
370
    25
100
AcDbLine
 10
20.70000302046537
 20
50.35000266134739
 30
0.0
 11
32.70000319927931
 21
50.35000266134739
 31
0.0
  0
LINE
  5
4EE
330
1F
100
AcDbEntity
  8
22
  6
Continuous
 62
     4
370
    25
100
AcDbLine
 10
31.70000318437815
 20
50.35000266134739
 30
0.0
 11
31.30000317841768
 21
48.85000263899565
 31
0.0
  0
LINE
  5
4EF
330
1F
100
AcDbEntity
  8
22
  6
Continuous
 62
     4
370
    25
100
AcDbLine
 10
32.10000319033861
 20
48.85000263899565
 30
0.0
 11
31.70000318437815
 21
50.35000266134739
 31
0.0
  0
LINE
  5
4F0
330
1F
100
AcDbEntity
  8
22
  6
Continuous
 62
     4
370
    25
100
AcDbLine
 10
31.70000318437815
 20
50.35000266134739
 30
0.0
 11
31.70000318437815
 21
-19.24999837577343
 31
0.0
  0
LINE
  5
4F1
330
1F
100
AcDbEntity
  8
22
  6
Continuous
 62
     4
370
    25
100
AcDbLine
 10
31.70000318437815
 20
-19.24999837577343
 30
0.0
 11
31.30000317841768
 21
-17.74999835342169
 31
0.0
  0
LINE
  5
4F2
330
1F
100
AcDbEntity
  8
22
  6
Continuous
 62
     4
370
    25
100
AcDbLine
 10
32.10000319033861
 20
-17.74999835342169
 30
0.0
 11
31.70000318437815
 21
-19.24999837577343
 31
0.0
  0
LINE
  5
4F3
330
1F
100
AcDbEntity
  8
22
  6
Continuous
 62
     4
370
    25
100
AcDbLine
 10
32.70000319927931
 20
-19.24999837577343
 30
0.0
 11
20.70000302046537
 21
-19.24999837577343
 31
0.0
  0
LINE
  5
4F4
330
1F
100
AcDbEntity
  8
22
  6
Continuous
 62
     4
370
    25
100
AcDbLine
 10
2.200002744793892
 20
-20.9499984011054
 30
0.0
 11
2.200002744793892
 21
-36.94999863952398
 31
0.0
  0
LINE
  5
4F5
330
1F
100
AcDbEntity
  8
22
  6
Continuous
 62
     4
370
    25
100
AcDbLine
 10
2.200002744793892
 20
-35.94999862462282
 30
0.0
 11
0.7000027224421501
 21
-35.54999861866236
 31
0.0
  0
LINE
  5
4F6
330
1F
100
AcDbEntity
  8
22
  6
Continuous
 62
     4
370
    25
100
AcDbLine
 10
0.7000027224421501
 20
-36.34999863058329
 30
0.0
 11
2.200002744793892
 21
-35.94999862462282
 31
0.0
  0
LINE
  5
4F7
330
1F
100
AcDbEntity
  8
22
  6
Continuous
 62
     4
370
    25
100
AcDbLine
 10
2.200002744793892
 20
-35.94999862462282
 30
0.0
 11
-4.799997359514236
 21
-35.94999862462282
 31
0.0
  0
LINE
  5
4F8
330
1F
100
AcDbEntity
  8
22
  6
Continuous
 62
     4
370
    25
100
AcDbLine
 10
2.200002744793892
 20
-35.94999862462282
 30
0.0
 11
6.000002801418304
 21
-35.94999862462282
 31
0.0
  0
LINE
  5
4F9
330
1F
100
AcDbEntity
  8
22
  6
Continuous
 62
     4
370
    25
100
AcDbLine
 10
6.000002801418304
 20
-35.94999862462282
 30
0.0
 11
7.500002823770046
 21
-35.54999861866236
 31
0.0
  0
LINE
  5
4FA
330
1F
100
AcDbEntity
  8
22
  6
Continuous
 62
     4
370
    25
100
AcDbLine
 10
7.500002823770046
 20
-36.34999863058329
 30
0.0
 11
6.000002801418304
 21
-35.94999862462282
 31
0.0
  0
LINE
  5
4FB
330
1F
100
AcDbEntity
  8
22
  6
Continuous
 62
     4
370
    25
100
AcDbLine
 10
6.000002801418304
 20
-35.94999862462282
 30
0.0
 11
9.000002846121788
 21
-35.94999862462282
 31
0.0
  0
LINE
  5
4FC
330
1F
100
AcDbEntity
  8
22
  6
Continuous
 62
     4
370
    25
100
AcDbLine
 10
6.000002801418304
 20
-36.94999863952398
 30
0.0
 11
6.000002801418304
 21
-20.9499984011054
 31
0.0
  0
LINE
  5
4FD
330
1F
100
AcDbEntity
  8
22
  6
Continuous
 62
     4
370
    25
100
AcDbLine
 10
2.200002744793892
 20
-43.94999874383211
 30
0.0
 11
2.200002744793892
 21
-20.9499984011054
 31
0.0
  0
LINE
  5
4FE
330
1F
100
AcDbEntity
  8
22
  6
Continuous
 62
     4
370
    25
100
AcDbLine
 10
2.200002744793892
 20
-42.94999872893095
 30
0.0
 11
3.700002767145635
 21
-42.54999872297049
 31
0.0
  0
LINE
  5
4FF
330
1F
100
AcDbEntity
  8
22
  6
Continuous
 62
     4
370
    25
100
AcDbLine
 10
3.700002767145635
 20
-43.34999873489141
 30
0.0
 11
2.200002744793892
 21
-42.94999872893095
 31
0.0
  0
LINE
  5
500
330
1F
100
AcDbEntity
  8
22
  6
Continuous
 62
     4
370
    25
100
AcDbLine
 10
2.200002744793892
 20
-42.94999872893095
 30
0.0
 11
20.00000301003456
 21
-42.94999872893095
 31
0.0
  0
LINE
  5
501
330
1F
100
AcDbEntity
  8
22
  6
Continuous
 62
     4
370
    25
100
AcDbLine
 10
20.00000301003456
 20
-42.94999872893095
 30
0.0
 11
18.50000298768282
 21
-42.54999872297049
 31
0.0
  0
LINE
  5
502
330
1F
100
AcDbEntity
  8
22
  6
Continuous
 62
     4
370
    25
100
AcDbLine
 10
18.50000298768282
 20
-43.34999873489141
 30
0.0
 11
20.00000301003456
 21
-42.94999872893095
 31
0.0
  0
LINE
  5
503
330
1F
100
AcDbEntity
  8
22
  6
Continuous
 62
     4
370
    25
100
AcDbLine
 10
20.00000301003456
 20
-43.94999874383211
 30
0.0
 11
20.00000301003456
 21
-20.9499984011054
 31
0.0
  0
LINE
  5
504
330
1F
100
AcDbEntity
  8
22
  6
Continuous
 62
     4
370
    25
100
AcDbLine
 10
23.81519355544144
 20
70.43763965614772
 30
0.0
 11
55.21519355544145
 21
70.43763965614772
 31
0.0
  0
LINE
  5
505
330
1F
100
AcDbEntity
  8
22
  6
Continuous
 62
     4
370
    25
100
AcDbLine
 10
12.25158658204895
 20
50.40888485947417
 30
0.0
 11
23.81519355544144
 21
70.43763965614772
 31
0.0
  0
INSERT
  5
50C
330
1F
100
AcDbEntity
  8
22
 62
     4
100
AcDbBlockReference
  2
_OPEN30
 10
12.25158658204895
 20
50.40888485947417
 30
0.0
 41
3.000002787824364
 42
2.999989273978464
 50
240.0
  0
TEXT
  5
50D
330
1F
100
AcDbEntity
  8
24
 62
     2
100
AcDbText
 10
93.90000411
 20
93.35000330000001
 30
0.0
 40
4.0
  1
◇　荷　重　計　算　◇
 41
0.833333335542929
  7
dcStyle0
 72
     5
 11
137.90000481
 21
93.35000330000001
 31
0.0
100
AcDbText
  0
TEXT
  5
50E
330
1F
100
AcDbEntity
  8
24
 62
     2
100
AcDbText
 10
64.55000367
 20
83.35000314999999
 30
0.0
 40
3.3
  1
設計条件
 41
0.8583691004600379
  7
dcStyle0
 72
     5
 11
80.5500039
 21
83.35000314999999
 31
0.0
100
AcDbText
  0
TEXT
  5
50F
330
1F
100
AcDbEntity
  8
24
 62
     2
100
AcDbText
 10
69.80000374999999
 20
77.35000305999999
 30
0.0
 40
3.3
  1
荷重基準：　
 41
0.8413461557530508
  7
dcStyle0
 72
     5
 11
90.80000404999998
 21
77.35000305999999
 31
0.0
100
AcDbText
  0
TEXT
  5
510
330
1F
100
AcDbEntity
  8
24
 62
     2
100
AcDbText
 10
90.70000406
 20
77.35000305999999
 30
0.0
 40
3.3
  1
鋼道路橋等設計示方による
 41
0.8413461560073039
  7
dcStyle0
 72
     5
 11
132.70000474
 21
77.35000305999999
 31
0.0
100
AcDbText
  0
TEXT
  5
511
330
1F
100
AcDbEntity
  8
24
 62
     2
100
AcDbText
 10
69.80000374999999
 20
72.35000299
 30
0.0
 40
3.3
  1
荷　　重：　
 41
0.8413461557530508
  7
dcStyle0
 72
     5
 11
90.80000404999998
 21
72.35000299
 31
0.0
100
AcDbText
  0
TEXT
  5
512
330
1F
100
AcDbEntity
  8
24
 62
     2
100
AcDbText
 10
90.80000407
 20
72.35000299
 30
0.0
 40
3.0
  1
T-
  7
dcStyle0
 72
     5
 11
96.80000416
 21
72.35000299
 31
0.0
100
AcDbText
  0
TEXT
  5
513
330
1F
100
AcDbEntity
  8
24
 62
     2
100
AcDbText
 10
94.80000412
 20
72.35000299
 30
0.0
 40
3.0
  1
 2 
 41
0.8333333355555551
  7
dcStyle0
 72
     5
 11
102.30000424
 21
72.35000299
 31
0.0
100
AcDbText
  0
TEXT
  5
514
330
1F
100
AcDbEntity
  8
24
 62
     2
100
AcDbText
 10
102.20000423
 20
72.35000299
 30
0.0
 40
3.3
  1
（後輪一輪荷重：
 41
0.8413461558960683
  7
dcStyle0
 72
     5
 11
130.20000466
 21
72.35000299
 31
0.0
100
AcDbText
  0
TEXT
  5
515
330
1F
100
AcDbEntity
  8
24
 62
     2
100
AcDbText
 10
130.20000465
 20
72.35000299
 30
0.0
 40
3.0
  1
  800
 41
0.8333333355555547
  7
dcStyle0
 72
     5
 11
142.70000485
 21
72.35000299
 31
0.0
100
AcDbText
  0
TEXT
  5
516
330
1F
100
AcDbEntity
  8
24
 62
     2
100
AcDbText
 10
142.70000484
 20
72.35000299
 30
0.0
 40
3.0
  1
Kg
 41
0.5000000033333338
  7
dcStyle0
 72
     5
 11
145.70000488
 21
72.35000299
 31
0.0
100
AcDbText
  0
TEXT
  5
517
330
1F
100
AcDbEntity
  8
24
 62
     2
100
AcDbText
 10
145.70000488
 20
72.35000299
 30
0.0
 40
3.3
  1
）
 41
0.8333333333333363
  7
dcStyle0
 72
     5
 11
149.00000488
 21
72.35000299
 31
0.0
100
AcDbText
  0
TEXT
  5
518
330
1F
100
AcDbEntity
  8
24
 62
     2
100
AcDbText
 10
69.80000374999999
 20
67.35000291000001
 30
0.0
 40
3.3
  1
載荷寸法：　
 41
0.8413461557530508
  7
dcStyle0
 72
     5
 11
90.80000404999998
 21
67.35000291000001
 31
0.0
100
AcDbText
  0
TEXT
  5
519
330
1F
100
AcDbEntity
  8
24
 62
     2
100
AcDbText
 10
90.80000407
 20
67.35000291
 30
0.0
 40
3.0
  1
200
 41
0.8333333355555551
  7
dcStyle0
 72
     5
 11
98.30000419
 21
67.35000291
 31
0.0
100
AcDbText
  0
TEXT
  5
51A
330
1F
100
AcDbEntity
  8
24
 62
     2
100
AcDbText
 10
98.30000418
 20
67.35000291
 30
0.0
 40
3.0
  1
mm
 41
0.6666666700000008
  7
dcStyle0
 72
     5
 11
102.30000424
 21
67.35000291
 31
0.0
100
AcDbText
  0
TEXT
  5
51B
330
1F
100
AcDbEntity
  8
24
 62
     2
100
AcDbText
 10
102.20000423
 20
67.35000291000001
 30
0.0
 40
3.3
  1
×
 41
0.8333333333333326
  7
dcStyle0
 72
     5
 11
105.50000423
 21
67.35000291000001
 31
0.0
100
AcDbText
  0
TEXT
  5
51C
330
1F
100
AcDbEntity
  8
24
 62
     2
100
AcDbText
 10
105.70000429
 20
67.35000291
 30
0.0
 40
3.0
  1
160
 41
0.8333333355555551
  7
dcStyle0
 72
     5
 11
113.20000441
 21
67.35000291
 31
0.0
100
AcDbText
  0
TEXT
  5
51D
330
1F
100
AcDbEntity
  8
24
 62
     2
100
AcDbText
 10
113.2000044
 20
67.35000291
 30
0.0
 40
3.0
  1
mm
 41
0.6666666700000008
  7
dcStyle0
 72
     5
 11
117.20000446
 21
67.35000291
 31
0.0
100
AcDbText
  0
TEXT
  5
51E
330
1F
100
AcDbEntity
  8
24
 62
     2
100
AcDbText
 10
117.10000446
 20
67.35000291000001
 30
0.0
 40
3.3
  1
　（等分布負載）
 41
0.8413461558960686
  7
dcStyle0
 72
     5
 11
145.10000489
 21
67.35000291000001
 31
0.0
100
AcDbText
  0
TEXT
  5
51F
330
1F
100
AcDbEntity
  8
24
 62
     2
100
AcDbText
 10
69.80000374999999
 20
62.35000284000001
 30
0.0
 40
3.3
  1
許容応力：　
 41
0.8413461557530508
  7
dcStyle0
 72
     5
 11
90.80000404999998
 21
62.35000284000001
 31
0.0
100
AcDbText
  0
TEXT
  5
520
330
1F
100
AcDbEntity
  8
24
 62
     2
100
AcDbText
 10
90.80000407
 20
62.35000284000001
 30
0.0
 40
3.3
  1
σｂ＝
 41
0.6313131350372407
  7
dcStyle0
 72
     5
 11
98.30000419
 21
62.35000284000001
 31
0.0
100
AcDbText
  0
TEXT
  5
521
330
1F
100
AcDbEntity
  8
24
 62
     2
100
AcDbText
 10
98.30000418
 20
62.35000284
 30
0.0
 40
3.0
  1
 18.0
 41
0.8333333355555557
  7
dcStyle0
 72
     5
 11
110.80000438
 21
62.35000284
 31
0.0
100
AcDbText
  0
TEXT
  5
522
330
1F
100
AcDbEntity
  8
24
 62
     2
100
AcDbText
 10
111.40000437
 20
62.35000284
 30
0.0
 40
3.0
  1
Kg
 41
0.5000000033333338
  7
dcStyle0
 72
     5
 11
114.40000441
 21
62.35000284
 31
0.0
100
AcDbText
  0
TEXT
  5
523
330
1F
100
AcDbEntity
  8
24
 62
     2
100
AcDbText
 10
114.15000441
 20
62.35000284
 30
0.0
 40
3.0
  1
／
 41
0.8333333333333334
  7
dcStyle0
 72
     5
 11
117.15000441
 21
62.35000284
 31
0.0
100
AcDbText
  0
TEXT
  5
524
330
1F
100
AcDbEntity
  8
24
 62
     2
100
AcDbText
 10
117.65000447
 20
62.35000284
 30
0.0
 40
3.0
  1
mm
 41
0.6666666700000008
  7
dcStyle0
 72
     5
 11
121.65000453
 21
62.35000284
 31
0.0
100
AcDbText
  0
TEXT
  5
525
330
1F
100
AcDbEntity
  8
24
 62
     2
100
AcDbText
 10
121.65000452
 20
64.35000287
 30
0.0
 40
1.8
  1
2
 41
0.8333333333333333
  7
dcStyle0
 72
     5
 11
123.15000452
 21
64.35000287
 31
0.0
100
AcDbText
  0
TEXT
  5
526
330
1F
100
AcDbEntity
  8
24
 62
     2
100
AcDbText
 10
124.15000456
 20
62.35000284000001
 30
0.0
 40
3.3
  1
（ＳＳ４００使用）
 41
0.7575757602965685
  7
dcStyle0
 72
     5
 11
151.15000496
 21
62.35000284000001
 31
0.0
100
AcDbText
  0
TEXT
  5
527
330
1F
100
AcDbEntity
  8
24
 62
     2
100
AcDbText
 10
69.80000374999999
 20
52.35000269
 30
0.0
 40
3.3
  1
スパン　：　
 41
0.8413461557530508
  7
dcStyle0
 72
     5
 11
90.80000404999998
 21
52.35000269
 31
0.0
100
AcDbText
  0
TEXT
  5
528
330
1F
100
AcDbEntity
  8
24
 62
     2
100
AcDbText
 10
90.80000407
 20
52.35000269
 30
0.0
 40
3.0
  1
L =
 41
0.8333333355555551
  7
dcStyle0
 72
     5
 11
98.30000419
 21
52.35000269
 31
0.0
100
AcDbText
  0
TEXT
  5
529
330
1F
100
AcDbEntity
  8
24
 62
     2
100
AcDbText
 10
98.30000418
 20
52.35000269
 30
0.0
 40
3.0
  1
 270 
 41
0.8333333355555557
  7
dcStyle0
 72
     5
 11
110.80000438
 21
52.35000269
 31
0.0
100
AcDbText
  0
TEXT
  5
52A
330
1F
100
AcDbEntity
  8
24
 62
     2
100
AcDbText
 10
110.80000436
 20
52.35000269
 30
0.0
 40
3.0
  1
mm
 41
0.6666666700000008
  7
dcStyle0
 72
     5
 11
114.80000442
 21
52.35000269
 31
0.0
100
AcDbText
  0
TEXT
  5
52B
330
1F
100
AcDbEntity
  8
24
 62
     2
100
AcDbText
 10
79.80000390000001
 20
44.35000257
 30
0.0
 40
3.3
  1
　Ｗ　：主部材が支える最大後輪一輪荷重
 41
0.8413461559738495
  7
dcStyle0
 72
     5
 11
146.30000496
 21
44.35000257
 31
0.0
100
AcDbText
  0
TEXT
  5
52C
330
1F
100
AcDbEntity
  8
24
 62
     2
100
AcDbText
 10
146.30000489
 20
44.35000257000001
 30
0.0
 40
3.0
  1
(Kg)
 41
0.5000000037499988
  7
dcStyle0
 72
     5
 11
152.30000498
 21
44.35000257000001
 31
0.0
100
AcDbText
  0
TEXT
  5
52D
330
1F
100
AcDbEntity
  8
24
 62
     2
100
AcDbText
 10
79.80000390000001
 20
40.35000251
 30
0.0
 40
3.3
  1
　Ｎ　：荷重を受ける主部材本数
 41
0.8413461558293267
  7
dcStyle0
 72
     5
 11
132.30000468
 21
40.35000251
 31
0.0
100
AcDbText
  0
TEXT
  5
52E
330
1F
100
AcDbEntity
  8
24
 62
     2
100
AcDbText
 10
79.80000390000001
 20
36.35000245000001
 30
0.0
 40
3.3
  1
〔Ｚ〕：主部材断面係数
 41
0.8413461559264054
  7
dcStyle0
 72
     5
 11
118.3000045
 21
36.35000245000001
 31
0.0
100
AcDbText
  0
TEXT
  5
52F
330
1F
100
AcDbEntity
  8
24
 62
     2
100
AcDbText
 10
79.80000390000001
 20
32.35000239
 30
0.0
 40
3.3
  1
　Ｓ　：溝幅方向載荷寸法
 41
0.8413461560073039
  7
dcStyle0
 72
     5
 11
121.80000458
 21
32.35000239
 31
0.0
100
AcDbText
  0
TEXT
  5
530
330
1F
100
AcDbEntity
  8
24
 62
     2
100
AcDbText
 10
64.55000367
 20
27.35000232
 30
0.0
 40
3.3
  1
荷重計算
 41
0.8583691004600379
  7
dcStyle0
 72
     5
 11
80.5500039
 21
27.35000232
 31
0.0
100
AcDbText
  0
TEXT
  5
531
330
1F
100
AcDbEntity
  8
24
 62
     2
100
AcDbText
 10
69.80000374999999
 20
20.35000221000001
 30
0.0
 40
3.3
  1
側　溝
 41
0.8413461558801774
  7
dcStyle0
 72
     5
 11
80.30000390999999
 21
20.35000221000001
 31
0.0
100
AcDbText
  0
TEXT
  5
532
330
1F
100
AcDbEntity
  8
24
 62
     2
100
AcDbText
 10
80.20000390999999
 20
20.35000221000001
 30
0.0
 40
3.3
  1
　（溝幅＞載荷寸法Ｓの場合）
 41
0.8413461557802923
  7
dcStyle0
 72
     5
 11
129.20000462
 21
20.35000221000001
 31
0.0
100
AcDbText
  0
TEXT
  5
533
330
1F
100
AcDbEntity
  8
24
 62
     2
100
AcDbText
 10
69.90000375
 20
10.35000207
 30
0.0
 40
3.3
  1
Ｗ　＝
 41
0.6313131350372407
  7
dcStyle0
 72
     5
 11
77.40000386999999
 21
10.35000207
 31
0.0
100
AcDbText
  0
TEXT
  5
534
330
1F
100
AcDbEntity
  8
24
 62
     2
100
AcDbText
 10
80.90000392000002
 20
12.8500021
 30
0.0
 40
3.0
  1
8
  7
dcStyle0
 72
     5
 11
83.90000392000002
 21
12.8500021
 31
0.0
100
AcDbText
  0
TEXT
  5
535
330
1F
100
AcDbEntity
  8
24
 62
     2
100
AcDbText
 10
83.90000396
 20
12.8500021
 30
0.0
 40
0.8
  1
 
 41
0.9999999999999964
  7
dcStyle0
 72
     5
 11
84.70000396
 21
12.8500021
 31
0.0
100
AcDbText
  0
TEXT
  5
536
330
1F
100
AcDbEntity
  8
24
 62
     2
100
AcDbText
 10
84.70000397000001
 20
12.8500021
 30
0.0
 40
3.3
  1
σｂ
 41
0.6313131345717272
  7
dcStyle0
 72
     5
 11
89.70000404000001
 21
12.8500021
 31
0.0
100
AcDbText
  0
TEXT
  5
537
330
1F
100
AcDbEntity
  8
24
 62
     2
100
AcDbText
 10
89.70000404999999
 20
12.8500021
 30
0.0
 40
0.8
  1
 
 41
0.9999999999999964
  7
dcStyle0
 72
     5
 11
90.50000404999999
 21
12.8500021
 31
0.0
100
AcDbText
  0
TEXT
  5
538
330
1F
100
AcDbEntity
  8
24
 62
     2
100
AcDbText
 10
90.50000406
 20
12.8500021
 30
0.0
 40
3.3
  1
Ｚ
 41
0.7575757575757576
  7
dcStyle0
 72
     5
 11
93.50000406
 21
12.8500021
 31
0.0
100
AcDbText
  0
TEXT
  5
539
330
1F
100
AcDbEntity
  8
24
 62
     2
100
AcDbText
 10
80.90000392000002
 20
7.850002030000001
 30
0.0
 40
3.0
  1
2
 41
0.8333333333333334
  7
dcStyle0
 72
     5
 11
83.40000392000002
 21
7.850002030000001
 31
0.0
100
AcDbText
  0
TEXT
  5
53A
330
1F
100
AcDbEntity
  8
24
 62
     2
100
AcDbText
 10
83.40000395000001
 20
7.850002029999999
 30
0.0
 40
3.3
  1
Ｌ－Ｓ
 41
0.8333333352974188
  7
dcStyle0
 72
     5
 11
93.30000409000002
 21
7.850002029999999
 31
0.0
100
AcDbText
  0
TEXT
  5
53B
330
1F
100
AcDbEntity
  8
24
 62
     2
100
AcDbText
 10
94.90000413000001
 20
10.35000207
 30
0.0
 40
3.3
  1
＝
 41
0.7575757575757576
  7
dcStyle0
 72
     5
 11
97.90000413000001
 21
10.35000207
 31
0.0
100
AcDbText
  0
TEXT
  5
53C
330
1F
100
AcDbEntity
  8
24
 62
     2
100
AcDbText
 10
100.40000421
 20
12.8500021
 30
0.0
 40
3.0
  1
8
 41
0.8333333333333334
  7
dcStyle0
 72
     5
 11
102.90000421
 21
12.8500021
 31
0.0
100
AcDbText
  0
TEXT
  5
53D
330
1F
100
AcDbEntity
  8
24
 62
     2
100
AcDbText
 10
102.80000424
 20
12.8500021
 30
0.0
 40
3.3
  1
×
 41
0.8333333333333326
  7
dcStyle0
 72
     5
 11
106.10000424
 21
12.8500021
 31
0.0
100
AcDbText
  0
TEXT
  5
53E
330
1F
100
AcDbEntity
  8
24
 62
     2
100
AcDbText
 10
104.30000427
 20
12.8500021
 30
0.0
 40
3.0
  1
 18 
 41
0.8333333354166671
  7
dcStyle0
 72
     5
 11
114.30000442
 21
12.8500021
 31
0.0
100
AcDbText
  0
TEXT
  5
53F
330
1F
100
AcDbEntity
  8
24
 62
     2
100
AcDbText
 10
112.9500044
 20
12.8500021
 30
0.0
 40
3.3
  1
×Ｚ
 41
0.8583691005360198
  7
dcStyle0
 72
     5
 11
120.95000452
 21
12.8500021
 31
0.0
100
AcDbText
  0
TEXT
  5
540
330
1F
100
AcDbEntity
  8
24
 62
     2
100
AcDbText
 10
100.40000421
 20
7.850002030000001
 30
0.0
 40
3.0
  1
2
 41
0.8333333333333334
  7
dcStyle0
 72
     5
 11
102.90000421
 21
7.850002030000001
 31
0.0
100
AcDbText
  0
TEXT
  5
541
330
1F
100
AcDbEntity
  8
24
 62
     2
100
AcDbText
 10
102.80000424
 20
7.850002029999999
 30
0.0
 40
3.3
  1
×
 41
0.8333333333333326
  7
dcStyle0
 72
     5
 11
106.10000424
 21
7.850002029999999
 31
0.0
100
AcDbText
  0
TEXT
  5
542
330
1F
100
AcDbEntity
  8
24
 62
     2
100
AcDbText
 10
104.30000427
 20
7.850002030000001
 30
0.0
 40
3.0
  1
 270 
 41
0.8333333355555557
  7
dcStyle0
 72
     5
 11
116.80000447
 21
7.850002030000001
 31
0.0
100
AcDbText
  0
TEXT
  5
543
330
1F
100
AcDbEntity
  8
24
 62
     2
100
AcDbText
 10
114.80000442
 20
7.850002029999999
 30
0.0
 40
3.3
  1
－
 41
0.6313131313131313
  7
dcStyle0
 72
     5
 11
117.30000442
 21
7.850002029999999
 31
0.0
100
AcDbText
  0
TEXT
  5
544
330
1F
100
AcDbEntity
  8
24
 62
     2
100
AcDbText
 10
116.30000445
 20
7.850002030000001
 30
0.0
 40
3.0
  1
 160 
 41
0.8333333355555547
  7
dcStyle0
 72
     5
 11
128.80000465
 21
7.850002030000001
 31
0.0
100
AcDbText
  0
TEXT
  5
545
330
1F
100
AcDbEntity
  8
24
 62
     2
100
AcDbText
 10
130.90000466
 20
10.35000207
 30
0.0
 40
3.3
  1
＝
 41
0.7575757575757576
  7
dcStyle0
 72
     5
 11
133.90000466
 21
10.35000207
 31
0.0
100
AcDbText
  0
TEXT
  5
546
330
1F
100
AcDbEntity
  8
24
 62
     2
100
AcDbText
 10
133.90000471
 20
10.35000207
 30
0.0
 40
3.0
  1
0.379
 41
0.8333333355555547
  7
dcStyle0
 72
     5
 11
146.40000491
 21
10.35000207
 31
0.0
100
AcDbText
  0
TEXT
  5
547
330
1F
100
AcDbEntity
  8
24
 62
     2
100
AcDbText
 10
146.05000489
 20
10.35000207
 30
0.0
 40
3.3
  1
×Ｚ
 41
0.8583691005360212
  7
dcStyle0
 72
     5
 11
154.05000501
 21
10.35000207
 31
0.0
100
AcDbText
  0
TEXT
  5
548
330
1F
100
AcDbEntity
  8
24
 62
     2
100
AcDbText
 10
69.90000375
 20
1.35000193
 30
0.0
 40
3.3
  1
Ｚ　＝　Ｎ〔Ｚ〕＝
 41
0.6313131346234511
  7
dcStyle0
 72
     5
 11
92.40000407
 21
1.35000193
 31
0.0
100
AcDbText
  0
TEXT
  5
549
330
1F
100
AcDbEntity
  8
24
 62
     2
100
AcDbText
 10
90.40000406000001
 20
1.35000193
 30
0.0
 40
3.0
  1
 16 
 41
0.8333333354166671
  7
dcStyle0
 72
     5
 11
100.40000421
 21
1.35000193
 31
0.0
100
AcDbText
  0
TEXT
  5
54A
330
1F
100
AcDbEntity
  8
24
 62
     2
100
AcDbText
 10
98.40000418
 20
1.35000193
 30
0.0
 40
3.3
  1
×
 41
0.7575757575757576
  7
dcStyle0
 72
     5
 11
101.40000418
 21
1.35000193
 31
0.0
100
AcDbText
  0
TEXT
  5
54B
330
1F
100
AcDbEntity
  8
24
 62
     2
100
AcDbText
 10
101.40000422
 20
1.35000193
 30
0.0
 40
3.0
  1
0.180
 41
0.8333333355555557
  7
dcStyle0
 72
     5
 11
113.90000442
 21
1.35000193
 31
0.0
100
AcDbText
  0
TEXT
  5
54C
330
1F
100
AcDbEntity
  8
24
 62
     2
100
AcDbText
 10
113.80000441
 20
1.35000193
 30
0.0
 40
3.3
  1
×
 41
0.8333333333333326
  7
dcStyle0
 72
     5
 11
117.10000441
 21
1.35000193
 31
0.0
100
AcDbText
  0
TEXT
  5
54D
330
1F
100
AcDbEntity
  8
24
 62
     2
100
AcDbText
 10
117.30000446
 20
1.35000193
 30
0.0
 40
3.0
  1
10
 41
0.8333333352777776
  7
dcStyle0
 72
     5
 11
122.30000453
 21
1.35000193
 31
0.0
100
AcDbText
  0
TEXT
  5
54E
330
1F
100
AcDbEntity
  8
24
 62
     2
100
AcDbText
 10
122.30000453
 20
3.35000196
 30
0.0
 40
1.8
  1
3
 41
0.8333333333333333
  7
dcStyle0
 72
     5
 11
123.80000453
 21
3.35000196
 31
0.0
100
AcDbText
  0
TEXT
  5
54F
330
1F
100
AcDbEntity
  8
24
 62
     2
100
AcDbText
 10
124.80000457
 20
1.35000193
 30
0.0
 40
3.0
  1
=
 41
0.9999999999999952
  7
dcStyle0
 72
     5
 11
127.80000457
 21
1.35000193
 31
0.0
100
AcDbText
  0
TEXT
  5
550
330
1F
100
AcDbEntity
  8
24
 62
     2
100
AcDbText
 10
127.80000462
 20
1.35000193
 30
0.0
 40
3.0
  1
2.88
 41
0.8333333354166671
  7
dcStyle0
 72
     5
 11
137.80000477
 21
1.35000193
 31
0.0
100
AcDbText
  0
TEXT
  5
551
330
1F
100
AcDbEntity
  8
24
 62
     2
100
AcDbText
 10
137.70000476
 20
1.35000193
 30
0.0
 40
3.3
  1
×
 41
0.8333333333333363
  7
dcStyle0
 72
     5
 11
141.00000476
 21
1.35000193
 31
0.0
100
AcDbText
  0
TEXT
  5
552
330
1F
100
AcDbEntity
  8
24
 62
     2
100
AcDbText
 10
141.20000482
 20
1.35000193
 30
0.0
 40
3.0
  1
10
 41
0.8333333352777776
  7
dcStyle0
 72
     5
 11
146.20000489
 21
1.35000193
 31
0.0
100
AcDbText
  0
TEXT
  5
553
330
1F
100
AcDbEntity
  8
24
 62
     2
100
AcDbText
 10
146.20000489
 20
3.35000196
 30
0.0
 40
1.8
  1
3
 41
0.8333333333333333
  7
dcStyle0
 72
     5
 11
147.70000489
 21
3.35000196
 31
0.0
100
AcDbText
  0
TEXT
  5
554
330
1F
100
AcDbEntity
  8
24
 62
     2
100
AcDbText
 10
64.90000368
 20
-5.64999817
 30
0.0
 40
3.3
  1
∴　Ｗ　＝
 41
0.6313131350372412
  7
dcStyle0
 72
     5
 11
77.40000388
 21
-5.64999817
 31
0.0
100
AcDbText
  0
TEXT
  5
555
330
1F
100
AcDbEntity
  8
24
 62
     2
100
AcDbText
 10
77.40000387
 20
-5.64999817
 30
0.0
 40
3.0
  1
 0.379
 41
0.8333333351851854
  7
dcStyle0
 72
     5
 11
92.40000407000001
 21
-5.64999817
 31
0.0
100
AcDbText
  0
TEXT
  5
556
330
1F
100
AcDbEntity
  8
24
 62
     2
100
AcDbText
 10
92.30000408999999
 20
-5.64999817
 30
0.0
 40
3.3
  1
×
 41
0.8333333333333326
  7
dcStyle0
 72
     5
 11
95.60000408999998
 21
-5.64999817
 31
0.0
100
AcDbText
  0
TEXT
  5
557
330
1F
100
AcDbEntity
  8
24
 62
     2
100
AcDbText
 10
95.80000414
 20
-5.64999817
 30
0.0
 40
3.0
  1
2.88
 41
0.8333333354166671
  7
dcStyle0
 72
     5
 11
105.80000429
 21
-5.64999817
 31
0.0
100
AcDbText
  0
TEXT
  5
558
330
1F
100
AcDbEntity
  8
24
 62
     2
100
AcDbText
 10
105.70000429
 20
-5.64999817
 30
0.0
 40
3.3
  1
×
 41
0.8333333333333326
  7
dcStyle0
 72
     5
 11
109.00000429
 21
-5.64999817
 31
0.0
100
AcDbText
  0
TEXT
  5
559
330
1F
100
AcDbEntity
  8
24
 62
     2
100
AcDbText
 10
109.20000434
 20
-5.64999817
 30
0.0
 40
3.0
  1
10
 41
0.8333333352777776
  7
dcStyle0
 72
     5
 11
114.20000441
 21
-5.64999817
 31
0.0
100
AcDbText
  0
TEXT
  5
55A
330
1F
100
AcDbEntity
  8
24
 62
     2
100
AcDbText
 10
114.20000441
 20
-3.649998140000001
 30
0.0
 40
1.8
  1
3
 41
0.8333333333333333
  7
dcStyle0
 72
     5
 11
115.70000441
 21
-3.649998140000001
 31
0.0
100
AcDbText
  0
TEXT
  5
55B
330
1F
100
AcDbEntity
  8
24
 62
     2
100
AcDbText
 10
116.70000445
 20
-5.64999817
 30
0.0
 40
3.0
  1
=
  7
dcStyle0
 72
     5
 11
119.70000445
 21
-5.64999817
 31
0.0
100
AcDbText
  0
TEXT
  5
55C
330
1F
100
AcDbEntity
  8
24
 62
     2
100
AcDbText
 10
119.7000045
 20
-5.64999817
 30
0.0
 40
3.0
  1
1.09
 41
0.8333333354166671
  7
dcStyle0
 72
     5
 11
129.70000465
 21
-5.64999817
 31
0.0
100
AcDbText
  0
TEXT
  5
55D
330
1F
100
AcDbEntity
  8
24
 62
     2
100
AcDbText
 10
129.60000464
 20
-5.64999817
 30
0.0
 40
3.3
  1
×
 41
0.8333333333333363
  7
dcStyle0
 72
     5
 11
132.90000464
 21
-5.64999817
 31
0.0
100
AcDbText
  0
TEXT
  5
55E
330
1F
100
AcDbEntity
  8
24
 62
     2
100
AcDbText
 10
133.1000047
 20
-5.64999817
 30
0.0
 40
3.0
  1
10
 41
0.8333333352777776
  7
dcStyle0
 72
     5
 11
138.10000477
 21
-5.64999817
 31
0.0
100
AcDbText
  0
TEXT
  5
55F
330
1F
100
AcDbEntity
  8
24
 62
     2
100
AcDbText
 10
138.10000477
 20
-3.649998140000001
 30
0.0
 40
1.8
  1
3
 41
0.8333333333333333
  7
dcStyle0
 72
     5
 11
139.60000477
 21
-3.649998140000001
 31
0.0
100
AcDbText
  0
TEXT
  5
560
330
1F
100
AcDbEntity
  8
24
 62
     2
100
AcDbText
 10
140.60000481
 20
-5.64999817
 30
0.0
 40
3.0
  1
(Kg)
 41
0.8333333354166671
  7
dcStyle0
 72
     5
 11
150.60000496
 21
-5.64999817
 31
0.0
100
AcDbText
  0
TEXT
  5
561
330
1F
100
AcDbEntity
  8
24
 62
     2
100
AcDbText
 10
69.90000375
 20
-12.64999828
 30
0.0
 40
3.3
  1
Ｔ
 41
0.6313131313131313
  7
dcStyle0
 72
     5
 11
72.40000375
 21
-12.64999828
 31
0.0
100
AcDbText
  0
TEXT
  5
562
330
1F
100
AcDbEntity
  8
24
 62
     2
100
AcDbText
 10
72.40000379000001
 20
-12.64999828
 30
0.0
 40
3.0
  1
 = 0
 41
0.8333333354166671
  7
dcStyle0
 72
     5
 11
82.40000394000002
 21
-12.64999828
 31
0.0
100
AcDbText
  0
TEXT
  5
563
330
1F
100
AcDbEntity
  8
24
 62
     2
100
AcDbText
 10
79.9000039
 20
-12.64999828
 30
0.0
 40
3.0
  1
 .4 
 41
0.8333333354166671
  7
dcStyle0
 72
     5
 11
89.90000405
 21
-12.64999828
 31
0.0
100
AcDbText
  0
TEXT
  5
564
330
1F
100
AcDbEntity
  8
24
 62
     2
100
AcDbText
 10
87.40000401
 20
-10.64999825
 30
0.0
 40
1.8
  1
-1
 41
0.833333335185186
  7
dcStyle0
 72
     5
 11
90.40000405
 21
-10.64999825
 31
0.0
100
AcDbText
  0
TEXT
  5
565
330
1F
100
AcDbEntity
  8
24
 62
     2
100
AcDbText
 10
91.30000407
 20
-12.64999828
 30
0.0
 40
3.3
  1
×
 41
0.8333333333333326
  7
dcStyle0
 72
     5
 11
94.60000407
 21
-12.64999828
 31
0.0
100
AcDbText
  0
TEXT
  5
566
330
1F
100
AcDbEntity
  8
24
 62
     2
100
AcDbText
 10
94.80000412
 20
-12.64999828
 30
0.0
 40
3.0
  1
10
 41
0.8333333352777776
  7
dcStyle0
 72
     5
 11
99.80000419
 21
-12.64999828
 31
0.0
100
AcDbText
  0
TEXT
  5
567
330
1F
100
AcDbEntity
  8
24
 62
     2
100
AcDbText
 10
99.8000042
 20
-10.64999825
 30
0.0
 40
1.8
  1
-3
 41
0.833333335185186
  7
dcStyle0
 72
     5
 11
102.80000424
 21
-10.64999825
 31
0.0
100
AcDbText
  0
TEXT
  5
568
330
1F
100
AcDbEntity
  8
24
 62
     2
100
AcDbText
 10
103.70000426
 20
-12.64999828
 30
0.0
 40
3.3
  1
×Ｗ
 41
0.8413461557530504
  7
dcStyle0
 72
     5
 11
110.70000436
 21
-12.64999828
 31
0.0
100
AcDbText
  0
TEXT
  5
569
330
1F
100
AcDbEntity
  8
24
 62
     2
100
AcDbText
 10
69.90000375
 20
-17.64999835
 30
0.0
 40
3.0
  1
  = 0
 41
0.8333333355555557
  7
dcStyle0
 72
     5
 11
82.40000395
 21
-17.64999835
 31
0.0
100
AcDbText
  0
TEXT
  5
56A
330
1F
100
AcDbEntity
  8
24
 62
     2
100
AcDbText
 10
79.9000039
 20
-17.64999835
 30
0.0
 40
3.0
  1
 .4 
 41
0.8333333354166671
  7
dcStyle0
 72
     5
 11
89.90000405
 21
-17.64999835
 31
0.0
100
AcDbText
  0
TEXT
  5
56B
330
1F
100
AcDbEntity
  8
24
 62
     2
100
AcDbText
 10
87.40000401
 20
-15.64999832
 30
0.0
 40
1.8
  1
-1
 41
0.833333335185186
  7
dcStyle0
 72
     5
 11
90.40000405
 21
-15.64999832
 31
0.0
100
AcDbText
  0
TEXT
  5
56C
330
1F
100
AcDbEntity
  8
24
 62
     2
100
AcDbText
 10
91.30000407
 20
-17.64999835
 30
0.0
 40
3.3
  1
×
 41
0.8333333333333326
  7
dcStyle0
 72
     5
 11
94.60000407
 21
-17.64999835
 31
0.0
100
AcDbText
  0
TEXT
  5
56D
330
1F
100
AcDbEntity
  8
24
 62
     2
100
AcDbText
 10
94.80000412
 20
-17.64999835
 30
0.0
 40
3.0
  1
10
 41
0.8333333352777776
  7
dcStyle0
 72
     5
 11
99.80000419
 21
-17.64999835
 31
0.0
100
AcDbText
  0
TEXT
  5
56E
330
1F
100
AcDbEntity
  8
24
 62
     2
100
AcDbText
 10
99.8000042
 20
-15.64999832
 30
0.0
 40
1.8
  1
-3
 41
0.833333335185186
  7
dcStyle0
 72
     5
 11
102.80000424
 21
-15.64999832
 31
0.0
100
AcDbText
  0
TEXT
  5
56F
330
1F
100
AcDbEntity
  8
24
 62
     2
100
AcDbText
 10
103.70000426
 20
-17.64999835
 30
0.0
 40
3.3
  1
×
 41
0.8333333333333326
  7
dcStyle0
 72
     5
 11
107.00000426
 21
-17.64999835
 31
0.0
100
AcDbText
  0
TEXT
  5
570
330
1F
100
AcDbEntity
  8
24
 62
     2
100
AcDbText
 10
107.20000431
 20
-17.64999835
 30
0.0
 40
3.0
  1
1.09
 41
0.8333333354166671
  7
dcStyle0
 72
     5
 11
117.20000446
 21
-17.64999835
 31
0.0
100
AcDbText
  0
TEXT
  5
571
330
1F
100
AcDbEntity
  8
24
 62
     2
100
AcDbText
 10
117.10000446
 20
-17.64999835
 30
0.0
 40
3.3
  1
×
 41
0.8333333333333326
  7
dcStyle0
 72
     5
 11
120.40000446
 21
-17.64999835
 31
0.0
100
AcDbText
  0
TEXT
  5
572
330
1F
100
AcDbEntity
  8
24
 62
     2
100
AcDbText
 10
120.60000451
 20
-17.64999835
 30
0.0
 40
3.0
  1
10
 41
0.8333333352777776
  7
dcStyle0
 72
     5
 11
125.60000458
 21
-17.64999835
 31
0.0
100
AcDbText
  0
TEXT
  5
573
330
1F
100
AcDbEntity
  8
24
 62
     2
100
AcDbText
 10
125.60000458
 20
-15.64999832
 30
0.0
 40
1.8
  1
3
 41
0.8333333333333333
  7
dcStyle0
 72
     5
 11
127.10000458
 21
-15.64999832
 31
0.0
100
AcDbText
  0
TEXT
  5
574
330
1F
100
AcDbEntity
  8
24
 62
     2
100
AcDbText
 10
69.90000375
 20
-22.64999843
 30
0.0
 40
3.0
  1
  =
 41
0.8333333355555551
  7
dcStyle0
 72
     5
 11
77.40000386999999
 21
-22.64999843
 31
0.0
100
AcDbText
  0
TEXT
  5
575
330
1F
100
AcDbEntity
  8
24
 62
     2
100
AcDbText
 10
77.40000387
 20
-22.64999843
 30
0.0
 40
3.0
  1
 2.7
 41
0.8333333354166671
  7
dcStyle0
 72
     5
 11
87.40000402000001
 21
-22.64999843
 31
0.0
100
AcDbText
  0
TEXT
  5
576
330
1F
100
AcDbEntity
  8
24
 62
     2
100
AcDbText
 10
89.90000405
 20
-22.64999843
 30
0.0
 40
3.0
  1
>
  7
dcStyle0
 72
     5
 11
92.90000405
 21
-22.64999843
 31
0.0
100
AcDbText
  0
TEXT
  5
577
330
1F
100
AcDbEntity
  8
24
 62
     2
100
AcDbText
 10
92.9000041
 20
-22.64999843
 30
0.0
 40
3.0
  1
 2 
 41
0.8333333355555551
  7
dcStyle0
 72
     5
 11
100.40000422
 21
-22.64999843
 31
0.0
100
AcDbText
  0
TEXT
  5
578
330
1F
100
AcDbEntity
  8
24
 62
     2
100
AcDbText
 10
84.80000398000001
 20
-58.64999896
 30
0.0
 40
3.3
  1
以上より　
 41
0.8413461559818785
  7
dcStyle0
 72
     5
 11
102.30000426
 21
-58.64999896
 31
0.0
100
AcDbText
  0
TEXT
  5
579
330
1F
100
AcDbEntity
  8
24
 62
     2
100
AcDbText
 10
102.30000424
 20
-58.64999896
 30
0.0
 40
3.5
  1
Ｔ－
 41
0.8333333353174596
  7
dcStyle0
 72
     5
 11
109.30000434
 21
-58.64999896
 31
0.0
100
AcDbText
  0
TEXT
  5
57A
330
1F
100
AcDbEntity
  8
24
 62
     2
100
AcDbText
 10
109.30000434
 20
-58.64999896
 30
0.0
 40
3.0
  1
 2 
 41
0.8333333355555551
  7
dcStyle0
 72
     5
 11
116.80000446
 21
-58.64999896
 31
0.0
100
AcDbText
  0
TEXT
  5
57B
330
1F
100
AcDbEntity
  8
24
 62
     2
100
AcDbText
 10
116.70000445
 20
-58.64999896
 30
0.0
 40
3.3
  1
となる
 41
0.8413461558801774
  7
dcStyle0
 72
     5
 11
127.20000461
 21
-58.64999896
 31
0.0
100
AcDbText
  0
LINE
  5
57C
330
1F
100
AcDbEntity
  8
24
  6
Continuous
 62
     4
370
    25
100
AcDbLine
 10
91.90000408142805
 20
95.35000333189964
 30
0.0
 11
86.90000400692225
 21
95.35000333189964
 31
0.0
  0
LINE
  5
57D
330
1F
100
AcDbEntity
  8
24
  6
Continuous
 62
     4
370
    25
100
AcDbLine
 10
86.90000400692225
 20
95.35000333189964
 30
0.0
 11
86.90000400692225
 21
91.350003272295
 31
0.0
  0
LINE
  5
57E
330
1F
100
AcDbEntity
  8
24
  6
Continuous
 62
     4
370
    25
100
AcDbLine
 10
86.90000400692225
 20
91.350003272295
 30
0.0
 11
144.9000048711896
 21
91.350003272295
 31
0.0
  0
LINE
  5
57F
330
1F
100
AcDbEntity
  8
24
  6
Continuous
 62
     4
370
    25
100
AcDbLine
 10
144.9000048711896
 20
91.350003272295
 30
0.0
 11
144.9000048711896
 21
95.35000333189964
 31
0.0
  0
LINE
  5
580
330
1F
100
AcDbEntity
  8
24
  6
Continuous
 62
     4
370
    25
100
AcDbLine
 10
144.9000048711896
 20
95.35000333189964
 30
0.0
 11
139.9000047966838
 21
95.35000333189964
 31
0.0
  0
LINE
  5
581
330
1F
100
AcDbEntity
  8
24
  6
Continuous
 62
     4
370
    25
100
AcDbLine
 10
68.90000373870134
 20
21.8500022366643
 30
0.0
 11
67.90000372380018
 21
21.8500022366643
 31
0.0
  0
LINE
  5
582
330
1F
100
AcDbEntity
  8
24
  6
Continuous
 62
     4
370
    25
100
AcDbLine
 10
67.90000372380018
 20
21.8500022366643
 30
0.0
 11
67.90000372380018
 21
19.35000219941139
 31
0.0
  0
LINE
  5
583
330
1F
100
AcDbEntity
  8
24
  6
Continuous
 62
     4
370
    25
100
AcDbLine
 10
67.90000372380018
 20
19.35000219941139
 30
0.0
 11
81.90000393241644
 21
19.35000219941139
 31
0.0
  0
LINE
  5
584
330
1F
100
AcDbEntity
  8
24
  6
Continuous
 62
     4
370
    25
100
AcDbLine
 10
81.90000393241644
 20
19.35000219941139
 30
0.0
 11
81.90000393241644
 21
21.8500022366643
 31
0.0
  0
LINE
  5
585
330
1F
100
AcDbEntity
  8
24
  6
Continuous
 62
     4
370
    25
100
AcDbLine
 10
81.90000393241644
 20
21.8500022366643
 30
0.0
 11
80.90000391751528
 21
21.8500022366643
 31
0.0
  0
LINE
  5
586
330
1F
100
AcDbEntity
  8
24
  6
Continuous
 62
     4
370
    25
100
AcDbLine
 10
79.90000390261412
 20
11.85000208765268
 30
0.0
 11
93.90000411123037
 21
11.85000208765268
 31
0.0
  0
LINE
  5
587
330
1F
100
AcDbEntity
  8
24
  6
Continuous
 62
     4
370
    25
100
AcDbLine
 10
99.40000419318676
 20
11.85000208765268
 30
0.0
 11
128.4000046253204
 21
11.85000208765268
 31
0.0
  0
LINE
  5
588
330
1F
100
AcDbEntity
  8
24
  6
Continuous
 62
     4
370
    25
100
AcDbLine
 10
82.9000039473176
 20
-59.64999897778034
 30
0.0
 11
130.9000046625733
 21
-59.64999897778034
 31
0.0
  0
LINE
  5
589
330
1F
100
AcDbEntity
  8
24
  6
Continuous
 62
     4
370
    25
100
AcDbLine
 10
-182.0
 20
-128.25
 30
0.0
 11
-178.9999999552965
 21
-128.25
 31
0.0
  0
LINE
  5
58A
330
1F
100
AcDbEntity
  8
24
  6
Continuous
 62
     4
370
    25
100
AcDbLine
 10
-178.9999999552965
 20
-128.25
 30
0.0
 11
-178.9999999552965
 21
-125.2499999552965
 31
0.0
  0
LINE
  5
58B
330
1F
100
AcDbEntity
  8
24
  6
Continuous
 62
     4
370
    25
100
AcDbLine
 10
-178.9999999552965
 20
-125.2499999552965
 30
0.0
 11
-182.0
 21
-125.2499999552965
 31
0.0
  0
LINE
  5
58C
330
1F
100
AcDbEntity
  8
24
  6
Continuous
 62
     4
370
    25
100
AcDbLine
 10
-182.0
 20
-125.2499999552965
 30
0.0
 11
-182.0
 21
-128.25
 31
0.0
  0
LINE
  5
58D
330
1F
100
AcDbEntity
  8
24
  6
Continuous
 62
     4
370
    25
100
AcDbLine
 10
-182.0
 20
-128.25
 30
0.0
 11
-178.9999999552965
 21
-128.25
 31
0.0
  0
LINE
  5
58E
330
1F
100
AcDbEntity
  8
24
  6
Continuous
 62
     4
370
    25
100
AcDbLine
 10
-178.9999999552965
 20
-128.25
 30
0.0
 11
-178.9999999552965
 21
-125.2499999552965
 31
0.0
  0
LINE
  5
58F
330
1F
100
AcDbEntity
  8
24
  6
Continuous
 62
     4
370
    25
100
AcDbLine
 10
-178.9999999552965
 20
-125.2499999552965
 30
0.0
 11
-182.0
 21
-125.2499999552965
 31
0.0
  0
LINE
  5
590
330
1F
100
AcDbEntity
  8
24
  6
Continuous
 62
     4
370
    25
100
AcDbLine
 10
-182.0
 20
-125.2499999552965
 30
0.0
 11
-182.0
 21
-128.25
 31
0.0
  0
LINE
  5
591
330
1F
100
AcDbEntity
  8
24
  6
Continuous
 62
     4
370
    25
100
AcDbLine
 10
-182.0
 20
-128.25
 30
0.0
 11
-178.9999999552965
 21
-128.25
 31
0.0
  0
LINE
  5
592
330
1F
100
AcDbEntity
  8
24
  6
Continuous
 62
     4
370
    25
100
AcDbLine
 10
-178.9999999552965
 20
-128.25
 30
0.0
 11
-178.9999999552965
 21
-125.2499999552965
 31
0.0
  0
LINE
  5
593
330
1F
100
AcDbEntity
  8
24
  6
Continuous
 62
     4
370
    25
100
AcDbLine
 10
-178.9999999552965
 20
-125.2499999552965
 30
0.0
 11
-182.0
 21
-125.2499999552965
 31
0.0
  0
LINE
  5
594
330
1F
100
AcDbEntity
  8
24
  6
Continuous
 62
     4
370
    25
100
AcDbLine
 10
-182.0
 20
-125.2499999552965
 30
0.0
 11
-182.0
 21
-128.25
 31
0.0
  0
ARC
  5
595
330
1F
100
AcDbEntity
  8
24
  6
Continuous
 62
     4
370
    25
100
AcDbCircle
 10
59.90000360459089
 20
102.3500034362078
 30
0.0
 40
5.000000074505806
100
AcDbArc
 50
270.0000000000006
 51
0.0000000000008142
  0
LINE
  5
596
330
1F
100
AcDbEntity
  8
24
  6
Continuous
 62
     4
370
    25
100
AcDbLine
 10
59.90000523856541
 20
97.35000336170225
 30
0.0
 11
59.90000360459089
 21
-57.64999894797802
 31
0.0
  0
ARC
  5
597
330
1F
100
AcDbEntity
  8
24
  6
Continuous
 62
     4
370
    25
100
AcDbCircle
 10
59.90000197061639
 20
-62.64999902248357
 30
0.0
 40
5.000000074505806
100
AcDbArc
 50
0.0
 51
90.0000000000002
  0
LINE
  5
598
330
1F
100
AcDbEntity
  8
24
  6
Continuous
 62
     4
370
    25
100
AcDbLine
 10
64.90000204512219
 20
-62.64999902248357
 30
0.0
 11
164.9000051692128
 21
-62.64999902248384
 31
0.0
  0
ARC
  5
599
330
1F
100
AcDbEntity
  8
24
  6
Continuous
 62
     4
370
    25
100
AcDbCircle
 10
169.9000052437176
 20
-62.65000229043284
 30
0.0
 40
5.000000074505806
100
AcDbArc
 50
90.0000000000002
 51
180.0000000000004
  0
LINE
  5
59A
330
1F
100
AcDbEntity
  8
24
  6
Continuous
 62
     4
370
    25
100
AcDbLine
 10
169.9000068776921
 20
-57.65000221592731
 30
0.0
 11
169.9000052437186
 21
97.35000336170197
 31
0.0
  0
ARC
  5
59B
330
1F
100
AcDbEntity
  8
24
  6
Continuous
 62
     4
370
    25
100
AcDbCircle
 10
169.9000101456421
 20
102.3500034362054
 30
0.0
 40
5.000000074505806
100
AcDbArc
 50
180.0000000000004
 51
270.0000000000006
  0
LINE
  5
59C
330
1F
100
AcDbEntity
  8
24
  6
Continuous
 62
     4
370
    25
100
AcDbLine
 10
164.9000100711374
 20
102.3500067041544
 30
0.0
 11
64.9000036790967
 21
102.3500034362078
 31
0.0
  0
LINE
  5
59D
330
1F
100
AcDbEntity
  8
0
  6
Continuous
 62
     4
370
    25
100
AcDbLine
 10
-133.8843348028909
 20
86.78333677724004
 30
0.0
 11
-132.3843347805392
 21
87.1833367832005
 31
0.0
  0
LINE
  5
59E
330
1F
100
AcDbEntity
  8
0
  6
Continuous
 62
     4
370
    25
100
AcDbLine
 10
-132.3843347805392
 20
86.38333677127957
 30
0.0
 11
-133.8843348028909
 21
86.78333677724004
 31
0.0
  0
LINE
  5
59F
330
1F
100
AcDbEntity
  8
0
  6
Continuous
 62
     4
370
    25
100
AcDbLine
 10
-133.8843348028909
 20
86.78333677724004
 30
0.0
 11
-103.8843343558561
 21
86.78333677724004
 31
0.0
  0
LINE
  5
5A0
330
1F
100
AcDbEntity
  8
0
  6
Continuous
 62
     4
370
    25
100
AcDbLine
 10
-103.8843343558561
 20
86.78333677724004
 30
0.0
 11
-105.3843343782078
 21
87.1833367832005
 31
0.0
  0
LINE
  5
5A1
330
1F
100
AcDbEntity
  8
0
  6
Continuous
 62
     4
370
    25
100
AcDbLine
 10
-105.3843343782078
 20
86.38333677127957
 30
0.0
 11
-103.8843343558561
 21
86.78333677724004
 31
0.0
  0
TEXT
  5
5A2
330
1F
100
AcDbEntity
  8
0
 62
     2
100
AcDbText
 10
-127.8843347173152
 20
87.48333678972034
 30
0.0
 40
3.0
  1
車両進行方向
 41
0.8333333352623458
  7
dcStyle0
 72
     5
 11
-109.8843344673152
 21
87.48333678972034
 31
0.0
100
AcDbText
  0
VIEWPORT
  5
78
330
1B
100
AcDbEntity
 67
     1
  8
0
100
AcDbViewport
 10
-4.44999735429883
 20
-11.44999825954434
 30
0.0
 40
1065.300015874207
 41
700.800010442734
 68
     1
 69
     1
 12
-4.44999735429883
 22
-11.44999825954434
 13
0.0
 23
0.0
 14
0.5
 24
0.5
 15
0.0
 25
0.0
 16
0.0
 26
0.0
 36
1.0
 17
0.0
 27
0.0
 37
0.0
 42
50.0
 43
0.0
 44
0.0
 45
700.800010442734
 50
0.0
 51
0.0
 72
   100
 90
   557152
  1

281
     0
 71
     1
 74
     0
110
0.0
120
0.0
130
0.0
111
1.0
121
0.0
131
0.0
112
0.0
122
1.0
132
0.0
 79
     0
146
0.0
  0
ENDSEC
  0
SECTION
  2
OBJECTS
  0
DICTIONARY
  5
C
330
0
100
AcDbDictionary
281
     1
  3
ACAD_GROUP
350
D
  3
ACAD_LAYOUT
350
1A
  3
ACAD_MATERIAL
350
3B
  3
ACAD_MLEADERSTYLE
350
5C7
  3
ACAD_MLINESTYLE
350
17
  3
ACAD_PLOTSETTINGS
350
19
  3
ACAD_PLOTSTYLENAME
350
E
  3
ACAD_SCALELIST
350
5A3
  3
ACAD_VISUALSTYLE
350
2A
  3
AcDbVariableDictionary
350
5C5
  0
DICTIONARY
  5
D
102
{ACAD_REACTORS
330
C
102
}
330
C
100
AcDbDictionary
281
     1
  0
DICTIONARY
  5
1A
102
{ACAD_REACTORS
330
C
102
}
330
C
100
AcDbDictionary
281
     1
  3
Layout1
350
1E
  3
Layout2
350
26
  3
Model
350
22
  0
DICTIONARY
  5
3B
102
{ACAD_REACTORS
330
C
102
}
330
C
100
AcDbDictionary
281
     1
  3
ByBlock
350
3D
  3
ByLayer
350
3C
  3
Global
350
3E
  0
DICTIONARY
  5
5C7
102
{ACAD_REACTORS
330
C
102
}
330
C
100
AcDbDictionary
281
     1
  0
DICTIONARY
  5
17
102
{ACAD_REACTORS
330
C
102
}
330
C
100
AcDbDictionary
281
     1
  3
Standard
350
18
  0
DICTIONARY
  5
19
102
{ACAD_REACTORS
330
C
102
}
330
C
100
AcDbDictionary
281
     1
  0
ACDBDICTIONARYWDFLT
  5
E
102
{ACAD_REACTORS
330
C
102
}
330
C
100
AcDbDictionary
281
     1
  3
Normal
350
F
100
AcDbDictionaryWithDefault
340
F
  0
DICTIONARY
  5
5A3
102
{ACAD_REACTORS
330
C
102
}
330
C
100
AcDbDictionary
281
     1
  3
A0
350
5A4
  3
A1
350
5A5
  3
A2
350
5A6
  3
A3
350
5A7
  3
A4
350
5A8
  3
A5
350
5A9
  3
A6
350
5AA
  3
A7
350
5AB
  3
A8
350
5AC
  3
A9
350
5AD
  3
B0
350
5AE
  3
B1
350
5AF
  3
B2
350
5B0
  3
B3
350
5B1
  3
B4
350
5B2
  3
B5
350
5B3
  3
B6
350
5B4
  3
B7
350
5B5
  3
B8
350
5B6
  3
B9
350
5B7
  3
C0
350
5B8
  3
C1
350
5B9
  3
C2
350
5BA
  3
C3
350
5BB
  3
C4
350
5BC
  3
C5
350
5BD
  3
C6
350
5BE
  3
C7
350
5BF
  3
C8
350
5C0
  3
C9
350
5C1
  3
D0
350
5C2
  3
D1
350
5C3
  3
D2
350
5C4
  0
DICTIONARY
  5
2A
102
{ACAD_REACTORS
330
C
102
}
330
C
100
AcDbDictionary
281
     1
  3
2dWireframe
350
2F
  3
3D Hidden
350
31
  3
3dWireframe
350
30
  3
Basic
350
32
  3
Brighten
350
36
  3
ColorChange
350
3A
  3
Conceptual
350
34
  3
Dim
350
35
  3
Facepattern
350
39
  3
Flat
350
2B
  3
FlatWithEdges
350
2C
  3
Gouraud
350
2D
  3
GouraudWithEdges
350
2E
  3
Linepattern
350
38
  3
Realistic
350
33
  3
Thicken
350
37
  0
DICTIONARY
  5
5C5
102
{ACAD_REACTORS
330
C
102
}
330
C
100
AcDbDictionary
281
     1
  3
CANNOSCALE
350
5C8
  3
DIMASSOC
350
5C9
  3
HIDETEXT
350
5CA
  0
LAYOUT
  5
1E
102
{ACAD_REACTORS
330
1A
102
}
330
1A
100
AcDbPlotSettings
  1

  2
none_device
  4

  6

 40
0.0
 41
0.0
 42
0.0
 43
0.0
 44
0.0
 45
0.0
 46
0.0
 47
0.0
 48
0.0
 49
0.0
140
0.0
141
0.0
142
1.0
143
1.0
 70
   688
 72
     0
 73
     0
 74
     5
  7

 75
    16
147
1.0
148
0.0
149
0.0
100
AcDbLayout
  1
Layout1
 70
     0
 71
     1
 10
0.0
 20
0.0
 11
12.0
 21
9.0
 12
0.0
 22
0.0
 32
0.0
 14
1.000000000000000E+20
 24
1.000000000000000E+20
 34
1.000000000000000E+20
 15
-1.000000000000000E+20
 25
-1.000000000000000E+20
 35
-1.000000000000000E+20
146
0.0
 13
0.0
 23
0.0
 33
0.0
 16
1.0
 26
0.0
 36
0.0
 17
0.0
 27
1.0
 37
0.0
 76
     0
330
1B
331
78
  0
LAYOUT
  5
26
102
{ACAD_REACTORS
330
1A
102
}
330
1A
100
AcDbPlotSettings
  1

  2
none_device
  4

  6

 40
0.0
 41
0.0
 42
0.0
 43
0.0
 44
0.0
 45
0.0
 46
0.0
 47
0.0
 48
0.0
 49
0.0
140
0.0
141
0.0
142
1.0
143
1.0
 70
   688
 72
     0
 73
     0
 74
     5
  7

 75
    16
147
1.0
148
0.0
149
0.0
100
AcDbLayout
  1
Layout2
 70
     1
 71
     2
 10
0.0
 20
0.0
 11
0.0
 21
0.0
 12
0.0
 22
0.0
 32
0.0
 14
0.0
 24
0.0
 34
0.0
 15
0.0
 25
0.0
 35
0.0
146
0.0
 13
0.0
 23
0.0
 33
0.0
 16
1.0
 26
0.0
 36
0.0
 17
0.0
 27
1.0
 37
0.0
 76
     0
330
23
  0
LAYOUT
  5
22
102
{ACAD_REACTORS
330
1A
102
}
330
1A
100
AcDbPlotSettings
  1

  2
none_device
  4

  6

 40
0.0
 41
0.0
 42
0.0
 43
0.0
 44
0.0
 45
0.0
 46
0.0
 47
0.0
 48
0.0
 49
0.0
140
0.0
141
0.0
142
1.0
143
1.0
 70
  1712
 72
     0
 73
     0
 74
     0
  7

 75
     0
147
1.0
148
0.0
149
0.0
100
AcDbLayout
  1
Model
 70
     1
 71
     0
 10
-182.0
 20
-128.5
 11
182.0
 21
128.5
 12
0.0
 22
0.0
 32
0.0
 14
-537.1000052914023
 24
-361.8500034809113
 34
0.0
 15
528.2000105828047
 25
338.9500069618226
 35
0.0
146
0.0
 13
0.0
 23
0.0
 33
0.0
 16
1.0
 26
0.0
 36
0.0
 17
0.0
 27
1.0
 37
0.0
 76
     0
330
1F
331
29
  0
MATERIAL
  5
3D
102
{ACAD_REACTORS
330
3B
102
}
102
{ACAD_XDICTIONARY
360
5ED
102
}
330
3B
100
AcDbMaterial
  1
ByBlock
  0
MATERIAL
  5
3C
102
{ACAD_REACTORS
330
3B
102
}
102
{ACAD_XDICTIONARY
360
5EB
102
}
330
3B
100
AcDbMaterial
  1
ByLayer
  0
MATERIAL
  5
3E
102
{ACAD_REACTORS
330
3B
102
}
102
{ACAD_XDICTIONARY
360
5EF
102
}
330
3B
100
AcDbMaterial
  1
Global
  0
MLINESTYLE
  5
18
102
{ACAD_REACTORS
330
17
102
}
330
17
100
AcDbMlineStyle
  2
Standard
 70
     0
  3

 62
   256
 51
90.0
 52
90.0
 71
     2
 49
0.5
 62
   256
  6
BYLAYER
 49
-0.5
 62
   256
  6
BYLAYER
  0
ACDBPLACEHOLDER
  5
F
102
{ACAD_REACTORS
330
E
102
}
330
E
  0
SCALE
  5
5A4
102
{ACAD_REACTORS
330
5A3
102
}
330
5A3
100
AcDbScale
 70
     0
300
1:1
140
1.0
141
1.0
290
     1
  0
SCALE
  5
5A5
102
{ACAD_REACTORS
330
5A3
102
}
330
5A3
100
AcDbScale
 70
     0
300
1:2
140
1.0
141
2.0
290
     0
  0
SCALE
  5
5A6
102
{ACAD_REACTORS
330
5A3
102
}
330
5A3
100
AcDbScale
 70
     0
300
1:4
140
1.0
141
4.0
290
     0
  0
SCALE
  5
5A7
102
{ACAD_REACTORS
330
5A3
102
}
330
5A3
100
AcDbScale
 70
     0
300
1:5
140
1.0
141
5.0
290
     0
  0
SCALE
  5
5A8
102
{ACAD_REACTORS
330
5A3
102
}
330
5A3
100
AcDbScale
 70
     0
300
1:8
140
1.0
141
8.0
290
     0
  0
SCALE
  5
5A9
102
{ACAD_REACTORS
330
5A3
102
}
330
5A3
100
AcDbScale
 70
     0
300
1:10
140
1.0
141
10.0
290
     0
  0
SCALE
  5
5AA
102
{ACAD_REACTORS
330
5A3
102
}
330
5A3
100
AcDbScale
 70
     0
300
1:16
140
1.0
141
16.0
290
     0
  0
SCALE
  5
5AB
102
{ACAD_REACTORS
330
5A3
102
}
330
5A3
100
AcDbScale
 70
     0
300
1:20
140
1.0
141
20.0
290
     0
  0
SCALE
  5
5AC
102
{ACAD_REACTORS
330
5A3
102
}
330
5A3
100
AcDbScale
 70
     0
300
1:30
140
1.0
141
30.0
290
     0
  0
SCALE
  5
5AD
102
{ACAD_REACTORS
330
5A3
102
}
330
5A3
100
AcDbScale
 70
     0
300
1:40
140
1.0
141
40.0
290
     0
  0
SCALE
  5
5AE
102
{ACAD_REACTORS
330
5A3
102
}
330
5A3
100
AcDbScale
 70
     0
300
1:50
140
1.0
141
50.0
290
     0
  0
SCALE
  5
5AF
102
{ACAD_REACTORS
330
5A3
102
}
330
5A3
100
AcDbScale
 70
     0
300
1:100
140
1.0
141
100.0
290
     0
  0
SCALE
  5
5B0
102
{ACAD_REACTORS
330
5A3
102
}
330
5A3
100
AcDbScale
 70
     0
300
2:1
140
2.0
141
1.0
290
     0
  0
SCALE
  5
5B1
102
{ACAD_REACTORS
330
5A3
102
}
330
5A3
100
AcDbScale
 70
     0
300
4:1
140
4.0
141
1.0
290
     0
  0
SCALE
  5
5B2
102
{ACAD_REACTORS
330
5A3
102
}
330
5A3
100
AcDbScale
 70
     0
300
8:1
140
8.0
141
1.0
290
     0
  0
SCALE
  5
5B3
102
{ACAD_REACTORS
330
5A3
102
}
330
5A3
100
AcDbScale
 70
     0
300
10:1
140
10.0
141
1.0
290
     0
  0
SCALE
  5
5B4
102
{ACAD_REACTORS
330
5A3
102
}
330
5A3
100
AcDbScale
 70
     0
300
100:1
140
100.0
141
1.0
290
     0
  0
SCALE
  5
5B5
102
{ACAD_REACTORS
330
5A3
102
}
330
5A3
100
AcDbScale
 70
     0
300
1/128" = 1'-0"
140
0.0078125
141
12.0
290
     0
  0
SCALE
  5
5B6
102
{ACAD_REACTORS
330
5A3
102
}
330
5A3
100
AcDbScale
 70
     0
300
1/64" = 1'-0"
140
0.015625
141
12.0
290
     0
  0
SCALE
  5
5B7
102
{ACAD_REACTORS
330
5A3
102
}
330
5A3
100
AcDbScale
 70
     0
300
1/32" = 1'-0"
140
0.03125
141
12.0
290
     0
  0
SCALE
  5
5B8
102
{ACAD_REACTORS
330
5A3
102
}
330
5A3
100
AcDbScale
 70
     0
300
1/16" = 1'-0"
140
0.0625
141
12.0
290
     0
  0
SCALE
  5
5B9
102
{ACAD_REACTORS
330
5A3
102
}
330
5A3
100
AcDbScale
 70
     0
300
3/32" = 1'-0"
140
0.09375
141
12.0
290
     0
  0
SCALE
  5
5BA
102
{ACAD_REACTORS
330
5A3
102
}
330
5A3
100
AcDbScale
 70
     0
300
1/8" = 1'-0"
140
0.125
141
12.0
290
     0
  0
SCALE
  5
5BB
102
{ACAD_REACTORS
330
5A3
102
}
330
5A3
100
AcDbScale
 70
     0
300
3/16" = 1'-0"
140
0.1875
141
12.0
290
     0
  0
SCALE
  5
5BC
102
{ACAD_REACTORS
330
5A3
102
}
330
5A3
100
AcDbScale
 70
     0
300
1/4" = 1'-0"
140
0.25
141
12.0
290
     0
  0
SCALE
  5
5BD
102
{ACAD_REACTORS
330
5A3
102
}
330
5A3
100
AcDbScale
 70
     0
300
3/8" = 1'-0"
140
0.375
141
12.0
290
     0
  0
SCALE
  5
5BE
102
{ACAD_REACTORS
330
5A3
102
}
330
5A3
100
AcDbScale
 70
     0
300
1/2" = 1'-0"
140
0.5
141
12.0
290
     0
  0
SCALE
  5
5BF
102
{ACAD_REACTORS
330
5A3
102
}
330
5A3
100
AcDbScale
 70
     0
300
3/4" = 1'-0"
140
0.75
141
12.0
290
     0
  0
SCALE
  5
5C0
102
{ACAD_REACTORS
330
5A3
102
}
330
5A3
100
AcDbScale
 70
     0
300
1" = 1'-0"
140
1.0
141
12.0
290
     0
  0
SCALE
  5
5C1
102
{ACAD_REACTORS
330
5A3
102
}
330
5A3
100
AcDbScale
 70
     0
300
1-1/2" = 1'-0"
140
1.5
141
12.0
290
     0
  0
SCALE
  5
5C2
102
{ACAD_REACTORS
330
5A3
102
}
330
5A3
100
AcDbScale
 70
     0
300
3" = 1'-0"
140
3.0
141
12.0
290
     0
  0
SCALE
  5
5C3
102
{ACAD_REACTORS
330
5A3
102
}
330
5A3
100
AcDbScale
 70
     0
300
6" = 1'-0"
140
6.0
141
12.0
290
     0
  0
SCALE
  5
5C4
102
{ACAD_REACTORS
330
5A3
102
}
330
5A3
100
AcDbScale
 70
     0
300
1'-0" = 1'-0"
140
12.0
141
12.0
290
     0
  0
VISUALSTYLE
  5
2F
102
{ACAD_REACTORS
330
2A
102
}
102
{ACAD_XDICTIONARY
360
5D3
102
}
330
2A
100
AcDbVisualStyle
  2
2dWireframe
 70
     4
 71
     0
 72
     2
 73
     0
 90
        0
 40
-0.6
 41
-30.0
 62
     5
 63
     7
 74
     1
 91
        4
 64
     7
 65
   257
 75
     1
175
     1
 42
1.0
 92
        0
 66
   257
 43
1.0
 76
     1
 77
     6
 78
     2
 67
     7
 79
     5
170
     0
171
     0
290
     0
174
     0
 93
        1
 44
0.0
173
     0
291
     0
 45
0.0
1001
ACAD
1000
AcDbSavedByObjectVersion
1070
     0
  0
VISUALSTYLE
  5
31
102
{ACAD_REACTORS
330
2A
102
}
102
{ACAD_XDICTIONARY
360
5D7
102
}
330
2A
100
AcDbVisualStyle
  2
3D Hidden
 70
     6
 71
     1
 72
     2
 73
     2
 90
        0
 40
-0.6
 41
-30.0
 62
     5
 63
     7
 74
     2
 91
        2
 64
     7
 65
   257
 75
     2
175
     1
 42
40.0
 92
        0
 66
   257
 43
1.0
 76
     1
 77
     6
 78
     2
 67
     7
 79
     3
170
     0
171
     0
290
     0
174
     0
 93
        1
 44
0.0
173
     0
291
     0
 45
0.0
1001
ACAD
1000
AcDbSavedByObjectVersion
1070
     0
  0
VISUALSTYLE
  5
30
102
{ACAD_REACTORS
330
2A
102
}
102
{ACAD_XDICTIONARY
360
5D5
102
}
330
2A
100
AcDbVisualStyle
  2
3dWireframe
 70
     5
 71
     0
 72
     2
 73
     0
 90
        0
 40
-0.6
 41
-30.0
 62
     5
 63
     7
 74
     1
 91
        4
 64
     7
 65
   257
 75
     1
175
     1
 42
1.0
 92
        0
 66
   257
 43
1.0
 76
     1
 77
     6
 78
     2
 67
     7
 79
     5
170
     0
171
     0
290
     0
174
     0
 93
        1
 44
0.0
173
     0
291
     0
 45
0.0
1001
ACAD
1000
AcDbSavedByObjectVersion
1070
     0
  0
VISUALSTYLE
  5
32
102
{ACAD_REACTORS
330
2A
102
}
102
{ACAD_XDICTIONARY
360
5D9
102
}
330
2A
100
AcDbVisualStyle
  2
Basic
 70
     7
 71
     1
 72
     0
 73
     1
 90
        0
 40
-0.6
 41
-30.0
 62
     5
 63
     7
 74
     0
 91
        4
 64
     7
 65
   257
 75
     1
175
     1
 42
1.0
 92
        8
 66
     7
 43
1.0
 76
     1
 77
     6
 78
     2
 67
     7
 79
     5
170
     0
171
     0
290
     0
174
     0
 93
        1
 44
0.0
173
     0
291
     1
 45
0.0
1001
ACAD
1000
AcDbSavedByObjectVersion
1070
     0
  0
VISUALSTYLE
  5
36
102
{ACAD_REACTORS
330
2A
102
}
102
{ACAD_XDICTIONARY
360
5E1
102
}
330
2A
100
AcDbVisualStyle
  2
Brighten
 70
    12
 71
     2
 72
     2
 73
     0
 90
        0
 40
-0.6
 41
-30.0
 62
     5
 63
     7
 74
     1
 91
        4
 64
     7
 65
   257
 75
     1
175
     1
 42
1.0
 92
        8
 66
     7
 43
1.0
 76
     1
 77
     6
 78
     2
 67
     7
 79
     5
170
     0
171
     0
290
     0
174
     0
 93
        1
 44
50.0
173
     0
291
     1
 45
0.0
1001
ACAD
1000
AcDbSavedByObjectVersion
1070
     0
  0
VISUALSTYLE
  5
3A
102
{ACAD_REACTORS
330
2A
102
}
102
{ACAD_XDICTIONARY
360
5E9
102
}
330
2A
100
AcDbVisualStyle
  2
ColorChange
 70
    16
 71
     2
 72
     2
 73
     3
 90
        0
 40
-0.6
 41
-30.0
 62
     5
 63
     8
 74
     1
 91
        4
 64
     7
 65
   257
 75
     1
175
     1
 42
1.0
 92
        8
 66
     8
 43
1.0
 76
     1
 77
     6
 78
     2
 67
     7
 79
     5
170
     0
171
     0
290
     0
174
     0
 93
        1
 44
0.0
173
     0
291
     1
 45
0.0
1001
ACAD
1000
AcDbSavedByObjectVersion
1070
     0
  0
VISUALSTYLE
  5
34
102
{ACAD_REACTORS
330
2A
102
}
102
{ACAD_XDICTIONARY
360
5DD
102
}
330
2A
100
AcDbVisualStyle
  2
Conceptual
 70
     9
 71
     3
 72
     2
 73
     0
 90
        0
 40
-0.6
 41
-30.0
 62
     5
 63
     7
 74
     2
 91
        2
 64
     7
 65
   257
 75
     1
175
     1
 42
40.0
 92
        8
 66
     7
 43
1.0
 76
     1
 77
     6
 78
     2
 67
     7
 79
     3
170
     0
171
     0
290
     0
174
     0
 93
        1
 44
0.0
173
     0
291
     0
 45
0.0
1001
ACAD
1000
AcDbSavedByObjectVersion
1070
     0
  0
VISUALSTYLE
  5
35
102
{ACAD_REACTORS
330
2A
102
}
102
{ACAD_XDICTIONARY
360
5DF
102
}
330
2A
100
AcDbVisualStyle
  2
Dim
 70
    11
 71
     2
 72
     2
 73
     0
 90
        0
 40
-0.6
 41
-30.0
 62
     5
 63
     7
 74
     1
 91
        4
 64
     7
 65
   257
 75
     1
175
     1
 42
1.0
 92
        8
 66
     7
 43
1.0
 76
     1
 77
     6
 78
     2
 67
     7
 79
     5
170
     0
171
     0
290
     0
174
     0
 93
        1
 44
-50.0
173
     0
291
     1
 45
0.0
1001
ACAD
1000
AcDbSavedByObjectVersion
1070
     0
  0
VISUALSTYLE
  5
39
102
{ACAD_REACTORS
330
2A
102
}
102
{ACAD_XDICTIONARY
360
5E7
102
}
330
2A
100
AcDbVisualStyle
  2
Facepattern
 70
    15
 71
     2
 72
     2
 73
     0
 90
        0
 40
-0.6
 41
-30.0
 62
     5
 63
     7
 74
     1
 91
        4
 64
     7
 65
   257
 75
     1
175
     1
 42
1.0
 92
        8
 66
     7
 43
1.0
 76
     1
 77
     6
 78
     2
 67
     7
 79
     5
170
     0
171
     0
290
     0
174
     0
 93
        1
 44
0.0
173
     0
291
     1
 45
0.0
1001
ACAD
1000
AcDbSavedByObjectVersion
1070
     0
  0
VISUALSTYLE
  5
2B
102
{ACAD_REACTORS
330
2A
102
}
102
{ACAD_XDICTIONARY
360
5CB
102
}
330
2A
100
AcDbVisualStyle
  2
Flat
 70
     0
 71
     2
 72
     1
 73
     1
 90
        2
 40
-0.6
 41
30.0
 62
     5
 63
     7
 74
     0
 91
        4
 64
     7
 65
   257
 75
     1
175
     1
 42
1.0
 92
        8
 66
     7
 43
1.0
 76
     1
 77
     6
 78
     2
 67
     7
 79
     5
170
     0
171
     0
290
     0
174
     0
 93
       13
 44
0.0
173
     0
291
     1
 45
0.0
1001
ACAD
1000
AcDbSavedByObjectVersion
1070
     0
  0
VISUALSTYLE
  5
2C
102
{ACAD_REACTORS
330
2A
102
}
102
{ACAD_XDICTIONARY
360
5CD
102
}
330
2A
100
AcDbVisualStyle
  2
FlatWithEdges
 70
     1
 71
     2
 72
     1
 73
     1
 90
        2
 40
-0.6
 41
30.0
 62
     5
 63
     7
 74
     1
 91
        4
 64
     7
 65
   257
 75
     1
175
     1
 42
1.0
 92
        0
 66
   257
 43
1.0
 76
     1
 77
     6
 78
     2
 67
     7
 79
     5
170
     0
171
     0
290
     0
174
     0
 93
       13
 44
0.0
173
     0
291
     1
 45
0.0
1001
ACAD
1000
AcDbSavedByObjectVersion
1070
     0
  0
VISUALSTYLE
  5
2D
102
{ACAD_REACTORS
330
2A
102
}
102
{ACAD_XDICTIONARY
360
5CF
102
}
330
2A
100
AcDbVisualStyle
  2
Gouraud
 70
     2
 71
     2
 72
     2
 73
     1
 90
        2
 40
-0.6
 41
30.0
 62
     5
 63
     7
 74
     0
 91
        4
 64
     7
 65
   257
 75
     1
175
     1
 42
1.0
 92
        0
 66
     7
 43
1.0
 76
     1
 77
     6
 78
     2
 67
     7
 79
     5
170
     0
171
     0
290
     0
174
     0
 93
       13
 44
0.0
173
     0
291
     1
 45
0.0
1001
ACAD
1000
AcDbSavedByObjectVersion
1070
     0
  0
VISUALSTYLE
  5
2E
102
{ACAD_REACTORS
330
2A
102
}
102
{ACAD_XDICTIONARY
360
5D1
102
}
330
2A
100
AcDbVisualStyle
  2
GouraudWithEdges
 70
     3
 71
     2
 72
     2
 73
     1
 90
        2
 40
-0.6
 41
30.0
 62
     5
 63
     7
 74
     1
 91
        4
 64
     7
 65
   257
 75
     1
175
     1
 42
1.0
 92
        0
 66
   257
 43
1.0
 76
     1
 77
     6
 78
     2
 67
     7
 79
     5
170
     0
171
     0
290
     0
174
     0
 93
       13
 44
0.0
173
     0
291
     1
 45
0.0
1001
ACAD
1000
AcDbSavedByObjectVersion
1070
     0
  0
VISUALSTYLE
  5
38
102
{ACAD_REACTORS
330
2A
102
}
102
{ACAD_XDICTIONARY
360
5E5
102
}
330
2A
100
AcDbVisualStyle
  2
Linepattern
 70
    14
 71
     2
 72
     2
 73
     0
 90
        0
 40
-0.6
 41
-30.0
 62
     5
 63
     7
 74
     1
 91
        4
 64
     7
 65
   257
 75
     7
175
     7
 42
1.0
 92
        8
 66
     7
 43
1.0
 76
     1
 77
     6
 78
     2
 67
     7
 79
     5
170
     0
171
     0
290
     0
174
     0
 93
        1
 44
0.0
173
     0
291
     1
 45
0.0
1001
ACAD
1000
AcDbSavedByObjectVersion
1070
     0
  0
VISUALSTYLE
  5
33
102
{ACAD_REACTORS
330
2A
102
}
102
{ACAD_XDICTIONARY
360
5DB
102
}
330
2A
100
AcDbVisualStyle
  2
Realistic
 70
     8
 71
     2
 72
     2
 73
     0
 90
        0
 40
-0.6
 41
-30.0
 62
     5
 63
     7
 74
     1
 91
        0
 64
     7
 65
   257
 75
     1
175
     1
 42
1.0
 92
        8
 66
     8
 43
1.0
 76
     1
 77
     6
 78
     2
 67
     7
 79
     5
170
     0
171
     0
290
     0
174
     0
 93
       13
 44
0.0
173
     0
291
     0
 45
0.0
1001
ACAD
1000
AcDbSavedByObjectVersion
1070
     0
  0
VISUALSTYLE
  5
37
102
{ACAD_REACTORS
330
2A
102
}
102
{ACAD_XDICTIONARY
360
5E3
102
}
330
2A
100
AcDbVisualStyle
  2
Thicken
 70
    13
 71
     2
 72
     2
 73
     0
 90
        0
 40
-0.6
 41
-30.0
 62
     5
 63
     7
 74
     1
 91
        4
 64
     7
 65
   257
 75
     1
175
     1
 42
1.0
 92
       12
 66
     7
 43
1.0
 76
     1
 77
     6
 78
     2
 67
     7
 79
     5
170
     0
171
     0
290
     0
174
     0
 93
        1
 44
0.0
173
     0
291
     1
 45
0.0
1001
ACAD
1000
AcDbSavedByObjectVersion
1070
     0
  0
DICTIONARYVAR
  5
5C8
102
{ACAD_REACTORS
330
5C5
102
}
330
5C5
100
DictionaryVariables
280
     0
  1
1:1
  0
DICTIONARYVAR
  5
5C9
102
{ACAD_REACTORS
330
5C5
102
}
330
5C5
100
DictionaryVariables
280
     0
  1
2
  0
DICTIONARYVAR
  5
5CA
102
{ACAD_REACTORS
330
5C5
102
}
330
5C5
100
DictionaryVariables
280
     0
  1
1
  0
DICTIONARY
  5
5ED
330
3D
100
AcDbDictionary
280
     1
281
     1
  3
ACAD_XREC_ROUNDTRIP
360
5EE
  0
DICTIONARY
  5
5EB
330
3C
100
AcDbDictionary
280
     1
281
     1
  3
ACAD_XREC_ROUNDTRIP
360
5EC
  0
DICTIONARY
  5
5EF
330
3E
100
AcDbDictionary
280
     1
281
     1
  3
ACAD_XREC_ROUNDTRIP
360
5F0
  0
DICTIONARY
  5
5D3
330
2F
100
AcDbDictionary
280
     1
281
     1
  3
ACAD_XREC_ROUNDTRIP
360
5D4
  0
DICTIONARY
  5
5D7
330
31
100
AcDbDictionary
280
     1
281
     1
  3
ACAD_XREC_ROUNDTRIP
360
5D8
  0
DICTIONARY
  5
5D5
330
30
100
AcDbDictionary
280
     1
281
     1
  3
ACAD_XREC_ROUNDTRIP
360
5D6
  0
DICTIONARY
  5
5D9
330
32
100
AcDbDictionary
280
     1
281
     1
  3
ACAD_XREC_ROUNDTRIP
360
5DA
  0
DICTIONARY
  5
5E1
330
36
100
AcDbDictionary
280
     1
281
     1
  3
ACAD_XREC_ROUNDTRIP
360
5E2
  0
DICTIONARY
  5
5E9
330
3A
100
AcDbDictionary
280
     1
281
     1
  3
ACAD_XREC_ROUNDTRIP
360
5EA
  0
DICTIONARY
  5
5DD
330
34
100
AcDbDictionary
280
     1
281
     1
  3
ACAD_XREC_ROUNDTRIP
360
5DE
  0
DICTIONARY
  5
5DF
330
35
100
AcDbDictionary
280
     1
281
     1
  3
ACAD_XREC_ROUNDTRIP
360
5E0
  0
DICTIONARY
  5
5E7
330
39
100
AcDbDictionary
280
     1
281
     1
  3
ACAD_XREC_ROUNDTRIP
360
5E8
  0
DICTIONARY
  5
5CB
330
2B
100
AcDbDictionary
280
     1
281
     1
  3
ACAD_XREC_ROUNDTRIP
360
5CC
  0
DICTIONARY
  5
5CD
330
2C
100
AcDbDictionary
280
     1
281
     1
  3
ACAD_XREC_ROUNDTRIP
360
5CE
  0
DICTIONARY
  5
5CF
330
2D
100
AcDbDictionary
280
     1
281
     1
  3
ACAD_XREC_ROUNDTRIP
360
5D0
  0
DICTIONARY
  5
5D1
330
2E
100
AcDbDictionary
280
     1
281
     1
  3
ACAD_XREC_ROUNDTRIP
360
5D2
  0
DICTIONARY
  5
5E5
330
38
100
AcDbDictionary
280
     1
281
     1
  3
ACAD_XREC_ROUNDTRIP
360
5E6
  0
DICTIONARY
  5
5DB
330
33
100
AcDbDictionary
280
     1
281
     1
  3
ACAD_XREC_ROUNDTRIP
360
5DC
  0
DICTIONARY
  5
5E3
330
37
100
AcDbDictionary
280
     1
281
     1
  3
ACAD_XREC_ROUNDTRIP
360
5E4
  0
XRECORD
  5
5EE
102
{ACAD_REACTORS
330
5ED
102
}
330
5ED
100
AcDbXrecord
280
     1
102
MATERIAL
148
0.0
149
0.0
149
0.0
 93
        0
 94
      127
282
     0
 72
     1
 77
     1
171
     1
175
     1
179
     1
273
     0
  0
XRECORD
  5
5EC
102
{ACAD_REACTORS
330
5EB
102
}
330
5EB
100
AcDbXrecord
280
     1
102
MATERIAL
148
0.0
149
0.0
149
0.0
 93
        0
 94
      127
282
     0
 72
     1
 77
     1
171
     1
175
     1
179
     1
273
     0
  0
XRECORD
  5
5F0
102
{ACAD_REACTORS
330
5EF
102
}
330
5EF
100
AcDbXrecord
280
     1
102
MATERIAL
148
0.0
149
0.0
149
0.0
 93
        0
 94
      127
282
     0
 72
     1
 77
     1
171
     1
175
     1
179
     1
273
     0
  0
XRECORD
  5
5D4
102
{ACAD_REACTORS
330
5D3
102
}
330
5D3
100
AcDbXrecord
280
     1
102
RTVSPropertyOp0
 70
     1
102
RTVSPropertyOp1
 70
     1
102
RTVSPropertyOp2
 70
     1
102
RTVSPropertyOp3
 70
     1
102
RTVSPropertyOp4
 70
     1
102
RTVSPropertyOp5
 70
     1
102
RTVSPropertyOp6
 70
     1
102
RTVSPropertyOp7
 70
     1
102
RTVSPropertyOp8
 70
     1
102
RTVSPropertyOp9
 70
     1
102
RTVSPropertyOp10
 70
     1
102
RTVSPropertyOp11
 70
     1
102
RTVSPropertyOp12
 70
     1
102
RTVSPropertyOp13
 70
     1
102
RTVSPropertyOp14
 70
     1
102
RTVSPropertyOp15
 70
     1
102
RTVSPropertyOp16
 70
     1
102
RTVSPropertyOp17
 70
     1
102
RTVSPropertyOp18
 70
     1
102
RTVSPropertyOp19
 70
     1
102
RTVSPropertyOp20
 70
     1
102
RTVSPropertyOp21
 70
     1
102
RTVSPropertyOp22
 70
     1
102
RTVSPropertyOp23
 70
     1
102
RTVSPropertyOp24
 70
     1
102
RTVSPropertyOp25
 70
     1
102
RTVSPropertyOp26
 70
     1
102
RTVSPropertyOp27
 70
     1
  0
XRECORD
  5
5D8
102
{ACAD_REACTORS
330
5D7
102
}
330
5D7
100
AcDbXrecord
280
     1
102
RTVSPropertyOp0
 70
     1
102
RTVSPropertyOp1
 70
     1
102
RTVSPropertyOp2
 70
     1
102
RTVSPropertyOp3
 70
     1
102
RTVSPropertyOp4
 70
     1
102
RTVSPropertyOp5
 70
     1
102
RTVSPropertyOp6
 70
     1
102
RTVSPropertyOp7
 70
     1
102
RTVSPropertyOp8
 70
     1
102
RTVSPropertyOp9
 70
     1
102
RTVSPropertyOp10
 70
     1
102
RTVSPropertyOp11
 70
     1
102
RTVSPropertyOp12
 70
     1
102
RTVSPropertyOp13
 70
     1
102
RTVSPropertyOp14
 70
     1
102
RTVSPropertyOp15
 70
     1
102
RTVSPropertyOp16
 70
     1
102
RTVSPropertyOp17
 70
     1
102
RTVSPropertyOp18
 70
     1
102
RTVSPropertyOp19
 70
     1
102
RTVSPropertyOp20
 70
     1
102
RTVSPropertyOp21
 70
     1
102
RTVSPropertyOp22
 70
     1
102
RTVSPropertyOp23
 70
     1
102
RTVSPropertyOp24
 70
     1
102
RTVSPropertyOp25
 70
     1
102
RTVSPropertyOp26
 70
     1
102
RTVSPropertyOp27
 70
     1
  0
XRECORD
  5
5D6
102
{ACAD_REACTORS
330
5D5
102
}
330
5D5
100
AcDbXrecord
280
     1
102
RTVSPropertyOp0
 70
     1
102
RTVSPropertyOp1
 70
     1
102
RTVSPropertyOp2
 70
     1
102
RTVSPropertyOp3
 70
     1
102
RTVSPropertyOp4
 70
     1
102
RTVSPropertyOp5
 70
     1
102
RTVSPropertyOp6
 70
     1
102
RTVSPropertyOp7
 70
     1
102
RTVSPropertyOp8
 70
     1
102
RTVSPropertyOp9
 70
     1
102
RTVSPropertyOp10
 70
     1
102
RTVSPropertyOp11
 70
     1
102
RTVSPropertyOp12
 70
     1
102
RTVSPropertyOp13
 70
     1
102
RTVSPropertyOp14
 70
     1
102
RTVSPropertyOp15
 70
     1
102
RTVSPropertyOp16
 70
     1
102
RTVSPropertyOp17
 70
     1
102
RTVSPropertyOp18
 70
     1
102
RTVSPropertyOp19
 70
     1
102
RTVSPropertyOp20
 70
     1
102
RTVSPropertyOp21
 70
     1
102
RTVSPropertyOp22
 70
     1
102
RTVSPropertyOp23
 70
     1
102
RTVSPropertyOp24
 70
     1
102
RTVSPropertyOp25
 70
     1
102
RTVSPropertyOp26
 70
     1
102
RTVSPropertyOp27
 70
     1
  0
XRECORD
  5
5DA
102
{ACAD_REACTORS
330
5D9
102
}
330
5D9
100
AcDbXrecord
280
     1
102
RTVSPropertyOp0
 70
     1
102
RTVSPropertyOp1
 70
     1
102
RTVSPropertyOp2
 70
     1
102
RTVSPropertyOp3
 70
     1
102
RTVSPropertyOp4
 70
     1
102
RTVSPropertyOp5
 70
     1
102
RTVSPropertyOp6
 70
     1
102
RTVSPropertyOp7
 70
     1
102
RTVSPropertyOp8
 70
     1
102
RTVSPropertyOp9
 70
     1
102
RTVSPropertyOp10
 70
     1
102
RTVSPropertyOp11
 70
     1
102
RTVSPropertyOp12
 70
     1
102
RTVSPropertyOp13
 70
     1
102
RTVSPropertyOp14
 70
     1
102
RTVSPropertyOp15
 70
     1
102
RTVSPropertyOp16
 70
     1
102
RTVSPropertyOp17
 70
     1
102
RTVSPropertyOp18
 70
     1
102
RTVSPropertyOp19
 70
     1
102
RTVSPropertyOp20
 70
     1
102
RTVSPropertyOp21
 70
     1
102
RTVSPropertyOp22
 70
     1
102
RTVSPropertyOp23
 70
     1
102
RTVSPropertyOp24
 70
     1
102
RTVSPropertyOp25
 70
     1
102
RTVSPropertyOp26
 70
     1
102
RTVSPropertyOp27
 70
     1
  0
XRECORD
  5
5E2
102
{ACAD_REACTORS
330
5E1
102
}
330
5E1
100
AcDbXrecord
280
     1
102
RTVSPropertyOp0
 70
     1
102
RTVSPropertyOp1
 70
     1
102
RTVSPropertyOp2
 70
     1
102
RTVSPropertyOp3
 70
     1
102
RTVSPropertyOp4
 70
     1
102
RTVSPropertyOp5
 70
     1
102
RTVSPropertyOp6
 70
     1
102
RTVSPropertyOp7
 70
     1
102
RTVSPropertyOp8
 70
     1
102
RTVSPropertyOp9
 70
     1
102
RTVSPropertyOp10
 70
     1
102
RTVSPropertyOp11
 70
     1
102
RTVSPropertyOp12
 70
     1
102
RTVSPropertyOp13
 70
     1
102
RTVSPropertyOp14
 70
     1
102
RTVSPropertyOp15
 70
     1
102
RTVSPropertyOp16
 70
     1
102
RTVSPropertyOp17
 70
     1
102
RTVSPropertyOp18
 70
     1
102
RTVSPropertyOp19
 70
     1
102
RTVSPropertyOp20
 70
     1
102
RTVSPropertyOp21
 70
     1
102
RTVSPropertyOp22
 70
     1
102
RTVSPropertyOp23
 70
     1
102
RTVSPropertyOp24
 70
     1
102
RTVSPropertyOp25
 70
     1
102
RTVSPropertyOp26
 70
     1
102
RTVSPropertyOp27
 70
     1
  0
XRECORD
  5
5EA
102
{ACAD_REACTORS
330
5E9
102
}
330
5E9
100
AcDbXrecord
280
     1
102
RTVSPropertyOp0
 70
     1
102
RTVSPropertyOp1
 70
     1
102
RTVSPropertyOp2
 70
     1
102
RTVSPropertyOp3
 70
     1
102
RTVSPropertyOp4
 70
     1
102
RTVSPropertyOp5
 70
     1
102
RTVSPropertyOp6
 70
     1
102
RTVSPropertyOp7
 70
     1
102
RTVSPropertyOp8
 70
     1
102
RTVSPropertyOp9
 70
     1
102
RTVSPropertyOp10
 70
     1
102
RTVSPropertyOp11
 70
     1
102
RTVSPropertyOp12
 70
     1
102
RTVSPropertyOp13
 70
     1
102
RTVSPropertyOp14
 70
     1
102
RTVSPropertyOp15
 70
     1
102
RTVSPropertyOp16
 70
     1
102
RTVSPropertyOp17
 70
     1
102
RTVSPropertyOp18
 70
     1
102
RTVSPropertyOp19
 70
     1
102
RTVSPropertyOp20
 70
     1
102
RTVSPropertyOp21
 70
     1
102
RTVSPropertyOp22
 70
     1
102
RTVSPropertyOp23
 70
     1
102
RTVSPropertyOp24
 70
     1
102
RTVSPropertyOp25
 70
     1
102
RTVSPropertyOp26
 70
     1
102
RTVSPropertyOp27
 70
     1
  0
XRECORD
  5
5DE
102
{ACAD_REACTORS
330
5DD
102
}
330
5DD
100
AcDbXrecord
280
     1
102
RTVSPropertyOp0
 70
     1
102
RTVSPropertyOp1
 70
     1
102
RTVSPropertyOp2
 70
     1
102
RTVSPropertyOp3
 70
     1
102
RTVSPropertyOp4
 70
     1
102
RTVSPropertyOp5
 70
     1
102
RTVSPropertyOp6
 70
     1
102
RTVSPropertyOp7
 70
     1
102
RTVSPropertyOp8
 70
     1
102
RTVSPropertyOp9
 70
     1
102
RTVSPropertyOp10
 70
     1
102
RTVSPropertyOp11
 70
     1
102
RTVSPropertyOp12
 70
     1
102
RTVSPropertyOp13
 70
     1
102
RTVSPropertyOp14
 70
     1
102
RTVSPropertyOp15
 70
     1
102
RTVSPropertyOp16
 70
     1
102
RTVSPropertyOp17
 70
     1
102
RTVSPropertyOp18
 70
     1
102
RTVSPropertyOp19
 70
     1
102
RTVSPropertyOp20
 70
     1
102
RTVSPropertyOp21
 70
     1
102
RTVSPropertyOp22
 70
     1
102
RTVSPropertyOp23
 70
     1
102
RTVSPropertyOp24
 70
     1
102
RTVSPropertyOp25
 70
     1
102
RTVSPropertyOp26
 70
     1
102
RTVSPropertyOp27
 70
     1
  0
XRECORD
  5
5E0
102
{ACAD_REACTORS
330
5DF
102
}
330
5DF
100
AcDbXrecord
280
     1
102
RTVSPropertyOp0
 70
     1
102
RTVSPropertyOp1
 70
     1
102
RTVSPropertyOp2
 70
     1
102
RTVSPropertyOp3
 70
     1
102
RTVSPropertyOp4
 70
     1
102
RTVSPropertyOp5
 70
     1
102
RTVSPropertyOp6
 70
     1
102
RTVSPropertyOp7
 70
     1
102
RTVSPropertyOp8
 70
     1
102
RTVSPropertyOp9
 70
     1
102
RTVSPropertyOp10
 70
     1
102
RTVSPropertyOp11
 70
     1
102
RTVSPropertyOp12
 70
     1
102
RTVSPropertyOp13
 70
     1
102
RTVSPropertyOp14
 70
     1
102
RTVSPropertyOp15
 70
     1
102
RTVSPropertyOp16
 70
     1
102
RTVSPropertyOp17
 70
     1
102
RTVSPropertyOp18
 70
     1
102
RTVSPropertyOp19
 70
     1
102
RTVSPropertyOp20
 70
     1
102
RTVSPropertyOp21
 70
     1
102
RTVSPropertyOp22
 70
     1
102
RTVSPropertyOp23
 70
     1
102
RTVSPropertyOp24
 70
     1
102
RTVSPropertyOp25
 70
     1
102
RTVSPropertyOp26
 70
     1
102
RTVSPropertyOp27
 70
     1
  0
XRECORD
  5
5E8
102
{ACAD_REACTORS
330
5E7
102
}
330
5E7
100
AcDbXrecord
280
     1
102
RTVSPropertyOp0
 70
     1
102
RTVSPropertyOp1
 70
     1
102
RTVSPropertyOp2
 70
     1
102
RTVSPropertyOp3
 70
     1
102
RTVSPropertyOp4
 70
     1
102
RTVSPropertyOp5
 70
     1
102
RTVSPropertyOp6
 70
     1
102
RTVSPropertyOp7
 70
     1
102
RTVSPropertyOp8
 70
     1
102
RTVSPropertyOp9
 70
     1
102
RTVSPropertyOp10
 70
     1
102
RTVSPropertyOp11
 70
     1
102
RTVSPropertyOp12
 70
     1
102
RTVSPropertyOp13
 70
     1
102
RTVSPropertyOp14
 70
     1
102
RTVSPropertyOp15
 70
     1
102
RTVSPropertyOp16
 70
     1
102
RTVSPropertyOp17
 70
     1
102
RTVSPropertyOp18
 70
     1
102
RTVSPropertyOp19
 70
     1
102
RTVSPropertyOp20
 70
     1
102
RTVSPropertyOp21
 70
     1
102
RTVSPropertyOp22
 70
     1
102
RTVSPropertyOp23
 70
     1
102
RTVSPropertyOp24
 70
     1
102
RTVSPropertyOp25
 70
     1
102
RTVSPropertyOp26
 70
     1
102
RTVSPropertyOp27
 70
     1
  0
XRECORD
  5
5CC
102
{ACAD_REACTORS
330
5CB
102
}
330
5CB
100
AcDbXrecord
280
     1
102
RTVSPropertyOp0
 70
     1
102
RTVSPropertyOp1
 70
     1
102
RTVSPropertyOp2
 70
     1
102
RTVSPropertyOp3
 70
     1
102
RTVSPropertyOp4
 70
     1
102
RTVSPropertyOp5
 70
     1
102
RTVSPropertyOp6
 70
     1
102
RTVSPropertyOp7
 70
     1
102
RTVSPropertyOp8
 70
     1
102
RTVSPropertyOp9
 70
     1
102
RTVSPropertyOp10
 70
     1
102
RTVSPropertyOp11
 70
     1
102
RTVSPropertyOp12
 70
     1
102
RTVSPropertyOp13
 70
     1
102
RTVSPropertyOp14
 70
     1
102
RTVSPropertyOp15
 70
     1
102
RTVSPropertyOp16
 70
     1
102
RTVSPropertyOp17
 70
     1
102
RTVSPropertyOp18
 70
     1
102
RTVSPropertyOp19
 70
     1
102
RTVSPropertyOp20
 70
     1
102
RTVSPropertyOp21
 70
     1
102
RTVSPropertyOp22
 70
     1
102
RTVSPropertyOp23
 70
     1
102
RTVSPropertyOp24
 70
     1
102
RTVSPropertyOp25
 70
     1
102
RTVSPropertyOp26
 70
     1
102
RTVSPropertyOp27
 70
     1
  0
XRECORD
  5
5CE
102
{ACAD_REACTORS
330
5CD
102
}
330
5CD
100
AcDbXrecord
280
     1
102
RTVSPropertyOp0
 70
     1
102
RTVSPropertyOp1
 70
     1
102
RTVSPropertyOp2
 70
     1
102
RTVSPropertyOp3
 70
     1
102
RTVSPropertyOp4
 70
     1
102
RTVSPropertyOp5
 70
     1
102
RTVSPropertyOp6
 70
     1
102
RTVSPropertyOp7
 70
     1
102
RTVSPropertyOp8
 70
     1
102
RTVSPropertyOp9
 70
     1
102
RTVSPropertyOp10
 70
     1
102
RTVSPropertyOp11
 70
     1
102
RTVSPropertyOp12
 70
     1
102
RTVSPropertyOp13
 70
     1
102
RTVSPropertyOp14
 70
     1
102
RTVSPropertyOp15
 70
     1
102
RTVSPropertyOp16
 70
     1
102
RTVSPropertyOp17
 70
     1
102
RTVSPropertyOp18
 70
     1
102
RTVSPropertyOp19
 70
     1
102
RTVSPropertyOp20
 70
     1
102
RTVSPropertyOp21
 70
     1
102
RTVSPropertyOp22
 70
     1
102
RTVSPropertyOp23
 70
     1
102
RTVSPropertyOp24
 70
     1
102
RTVSPropertyOp25
 70
     1
102
RTVSPropertyOp26
 70
     1
102
RTVSPropertyOp27
 70
     1
  0
XRECORD
  5
5D0
102
{ACAD_REACTORS
330
5CF
102
}
330
5CF
100
AcDbXrecord
280
     1
102
RTVSPropertyOp0
 70
     1
102
RTVSPropertyOp1
 70
     1
102
RTVSPropertyOp2
 70
     1
102
RTVSPropertyOp3
 70
     1
102
RTVSPropertyOp4
 70
     1
102
RTVSPropertyOp5
 70
     1
102
RTVSPropertyOp6
 70
     1
102
RTVSPropertyOp7
 70
     1
102
RTVSPropertyOp8
 70
     1
102
RTVSPropertyOp9
 70
     1
102
RTVSPropertyOp10
 70
     1
102
RTVSPropertyOp11
 70
     1
102
RTVSPropertyOp12
 70
     1
102
RTVSPropertyOp13
 70
     1
102
RTVSPropertyOp14
 70
     1
102
RTVSPropertyOp15
 70
     1
102
RTVSPropertyOp16
 70
     1
102
RTVSPropertyOp17
 70
     1
102
RTVSPropertyOp18
 70
     1
102
RTVSPropertyOp19
 70
     1
102
RTVSPropertyOp20
 70
     1
102
RTVSPropertyOp21
 70
     1
102
RTVSPropertyOp22
 70
     1
102
RTVSPropertyOp23
 70
     1
102
RTVSPropertyOp24
 70
     1
102
RTVSPropertyOp25
 70
     1
102
RTVSPropertyOp26
 70
     1
102
RTVSPropertyOp27
 70
     1
  0
XRECORD
  5
5D2
102
{ACAD_REACTORS
330
5D1
102
}
330
5D1
100
AcDbXrecord
280
     1
102
RTVSPropertyOp0
 70
     1
102
RTVSPropertyOp1
 70
     1
102
RTVSPropertyOp2
 70
     1
102
RTVSPropertyOp3
 70
     1
102
RTVSPropertyOp4
 70
     1
102
RTVSPropertyOp5
 70
     1
102
RTVSPropertyOp6
 70
     1
102
RTVSPropertyOp7
 70
     1
102
RTVSPropertyOp8
 70
     1
102
RTVSPropertyOp9
 70
     1
102
RTVSPropertyOp10
 70
     1
102
RTVSPropertyOp11
 70
     1
102
RTVSPropertyOp12
 70
     1
102
RTVSPropertyOp13
 70
     1
102
RTVSPropertyOp14
 70
     1
102
RTVSPropertyOp15
 70
     1
102
RTVSPropertyOp16
 70
     1
102
RTVSPropertyOp17
 70
     1
102
RTVSPropertyOp18
 70
     1
102
RTVSPropertyOp19
 70
     1
102
RTVSPropertyOp20
 70
     1
102
RTVSPropertyOp21
 70
     1
102
RTVSPropertyOp22
 70
     1
102
RTVSPropertyOp23
 70
     1
102
RTVSPropertyOp24
 70
     1
102
RTVSPropertyOp25
 70
     1
102
RTVSPropertyOp26
 70
     1
102
RTVSPropertyOp27
 70
     1
  0
XRECORD
  5
5E6
102
{ACAD_REACTORS
330
5E5
102
}
330
5E5
100
AcDbXrecord
280
     1
102
RTVSPropertyOp0
 70
     1
102
RTVSPropertyOp1
 70
     1
102
RTVSPropertyOp2
 70
     1
102
RTVSPropertyOp3
 70
     1
102
RTVSPropertyOp4
 70
     1
102
RTVSPropertyOp5
 70
     1
102
RTVSPropertyOp6
 70
     1
102
RTVSPropertyOp7
 70
     1
102
RTVSPropertyOp8
 70
     1
102
RTVSPropertyOp9
 70
     1
102
RTVSPropertyOp10
 70
     1
102
RTVSPropertyOp11
 70
     1
102
RTVSPropertyOp12
 70
     1
102
RTVSPropertyOp13
 70
     1
102
RTVSPropertyOp14
 70
     1
102
RTVSPropertyOp15
 70
     1
102
RTVSPropertyOp16
 70
     1
102
RTVSPropertyOp17
 70
     1
102
RTVSPropertyOp18
 70
     1
102
RTVSPropertyOp19
 70
     1
102
RTVSPropertyOp20
 70
     1
102
RTVSPropertyOp21
 70
     1
102
RTVSPropertyOp22
 70
     1
102
RTVSPropertyOp23
 70
     1
102
RTVSPropertyOp24
 70
     1
102
RTVSPropertyOp25
 70
     1
102
RTVSPropertyOp26
 70
     1
102
RTVSPropertyOp27
 70
     1
  0
XRECORD
  5
5DC
102
{ACAD_REACTORS
330
5DB
102
}
330
5DB
100
AcDbXrecord
280
     1
102
RTVSPropertyOp0
 70
     1
102
RTVSPropertyOp1
 70
     1
102
RTVSPropertyOp2
 70
     1
102
RTVSPropertyOp3
 70
     1
102
RTVSPropertyOp4
 70
     1
102
RTVSPropertyOp5
 70
     1
102
RTVSPropertyOp6
 70
     1
102
RTVSPropertyOp7
 70
     1
102
RTVSPropertyOp8
 70
     1
102
RTVSPropertyOp9
 70
     1
102
RTVSPropertyOp10
 70
     1
102
RTVSPropertyOp11
 70
     1
102
RTVSPropertyOp12
 70
     1
102
RTVSPropertyOp13
 70
     1
102
RTVSPropertyOp14
 70
     1
102
RTVSPropertyOp15
 70
     1
102
RTVSPropertyOp16
 70
     1
102
RTVSPropertyOp17
 70
     1
102
RTVSPropertyOp18
 70
     1
102
RTVSPropertyOp19
 70
     1
102
RTVSPropertyOp20
 70
     1
102
RTVSPropertyOp21
 70
     1
102
RTVSPropertyOp22
 70
     1
102
RTVSPropertyOp23
 70
     1
102
RTVSPropertyOp24
 70
     1
102
RTVSPropertyOp25
 70
     1
102
RTVSPropertyOp26
 70
     1
102
RTVSPropertyOp27
 70
     1
  0
XRECORD
  5
5E4
102
{ACAD_REACTORS
330
5E3
102
}
330
5E3
100
AcDbXrecord
280
     1
102
RTVSPropertyOp0
 70
     1
102
RTVSPropertyOp1
 70
     1
102
RTVSPropertyOp2
 70
     1
102
RTVSPropertyOp3
 70
     1
102
RTVSPropertyOp4
 70
     1
102
RTVSPropertyOp5
 70
     1
102
RTVSPropertyOp6
 70
     1
102
RTVSPropertyOp7
 70
     1
102
RTVSPropertyOp8
 70
     1
102
RTVSPropertyOp9
 70
     1
102
RTVSPropertyOp10
 70
     1
102
RTVSPropertyOp11
 70
     1
102
RTVSPropertyOp12
 70
     1
102
RTVSPropertyOp13
 70
     1
102
RTVSPropertyOp14
 70
     1
102
RTVSPropertyOp15
 70
     1
102
RTVSPropertyOp16
 70
     1
102
RTVSPropertyOp17
 70
     1
102
RTVSPropertyOp18
 70
     1
102
RTVSPropertyOp19
 70
     1
102
RTVSPropertyOp20
 70
     1
102
RTVSPropertyOp21
 70
     1
102
RTVSPropertyOp22
 70
     1
102
RTVSPropertyOp23
 70
     1
102
RTVSPropertyOp24
 70
     1
102
RTVSPropertyOp25
 70
     1
102
RTVSPropertyOp26
 70
     1
102
RTVSPropertyOp27
 70
     1
  0
ENDSEC
  0
EOF
