  0
SECTION
  2
HEADER
  9
$ACADVER
  1
AC1015
  9
$ACADMAINTVER
 70
     6
  9
$DWGCODEPAGE
  3
ANSI_932
  9
$INSBASE
 10
0.0
 20
0.0
 30
0.0
  9
$EXTMIN
 10
-537.1000052914023
 20
-361.8500034809113
 30
0.0
  9
$EXTMAX
 10
528.2000105828047
 20
338.9500069618226
 30
0.0
  9
$LIMMIN
 10
-182.0
 20
-128.5
  9
$LIMMAX
 10
182.0
 20
128.5
  9
$ORTHOMODE
 70
     0
  9
$REGENMODE
 70
     1
  9
$FILLMODE
 70
     1
  9
$QTEXTMODE
 70
     0
  9
$MIRRTEXT
 70
     1
  9
$LTSCALE
 40
0.25
  9
$ATTMODE
 70
     1
  9
$TEXTSIZE
 40
0.2
  9
$TRACEWID
 40
0.05
  9
$TEXTSTYLE
  7
Standard
  9
$CLAYER
  8
0
  9
$CELTYPE
  6
ByLayer
  9
$CECOLOR
 62
   256
  9
$CELTSCALE
 40
1.0
  9
$DISPSILH
 70
     0
  9
$DIMSCALE
 40
1.0
  9
$DIMASZ
 40
3.000001882570243
  9
$DIMEXO
 40
1.0
  9
$DIMDLI
 40
10.0
  9
$DIMRND
 40
0.0
  9
$DIMDLE
 40
0.0
  9
$DIMEXE
 40
1.0
  9
$DIMTP
 40
0.0
  9
$DIMTM
 40
0.0
  9
$DIMTXT
 40
3.0
  9
$DIMCEN
 40
0.0
  9
$DIMTSZ
 40
0.0
  9
$DIMTOL
 70
     0
  9
$DIMLIM
 70
     0
  9
$DIMTIH
 70
     0
  9
$DIMTOH
 70
     0
  9
$DIMSE1
 70
     0
  9
$DIMSE2
 70
     0
  9
$DIMTAD
 70
     1
  9
$DIMZIN
 70
     8
  9
$DIMBLK
  1

  9
$DIMASO
 70
     1
  9
$DIMSHO
 70
     1
  9
$DIMPOST
  1

  9
$DIMAPOST
  1

  9
$DIMALT
 70
     0
  9
$DIMALTD
 70
     2
  9
$DIMALTF
 40
25.4
  9
$DIMLFAC
 40
1.0
  9
$DIMTOFL
 70
     0
  9
$DIMTVP
 40
0.0
  9
$DIMTIX
 70
     0
  9
$DIMSOXD
 70
     0
  9
$DIMSAH
 70
     0
  9
$DIMBLK1
  1

  9
$DIMBLK2
  1

  9
$DIMSTYLE
  2
Standard
  9
$DIMCLRD
 70
     0
  9
$DIMCLRE
 70
     0
  9
$DIMCLRT
 70
     0
  9
$DIMTFAC
 40
0.65
  9
$DIMGAP
 40
0.09
  9
$DIMJUST
 70
     0
  9
$DIMSD1
 70
     0
  9
$DIMSD2
 70
     0
  9
$DIMTOLJ
 70
     0
  9
$DIMTZIN
 70
     0
  9
$DIMALTZ
 70
     0
  9
$DIMALTTZ
 70
     0
  9
$DIMUPT
 70
     0
  9
$DIMDEC
 70
     2
  9
$DIMTDEC
 70
     2
  9
$DIMALTU
 70
     2
  9
$DIMALTTD
 70
     2
  9
$DIMTXSTY
  7
Standard
  9
$DIMAUNIT
 70
     0
  9
$DIMADEC
 70
     2
  9
$DIMALTRND
 40
0.0
  9
$DIMAZIN
 70
     2
  9
$DIMDSEP
 70
    46
  9
$DIMATFIT
 70
     3
  9
$DIMFRAC
 70
     0
  9
$DIMLDRBLK
  1

  9
$DIMLUNIT
 70
     2
  9
$DIMLWD
 70
    -2
  9
$DIMLWE
 70
    -2
  9
$DIMTMOVE
 70
     0
  9
$LUNITS
 70
     2
  9
$LUPREC
 70
     4
  9
$SKETCHINC
 40
0.1
  9
$FILLETRAD
 40
0.5
  9
$AUNITS
 70
     0
  9
$AUPREC
 70
     0
  9
$MENU
  1
.
  9
$ELEVATION
 40
0.0
  9
$PELEVATION
 40
0.0
  9
$THICKNESS
 40
0.0
  9
$LIMCHECK
 70
     0
  9
$CHAMFERA
 40
0.5
  9
$CHAMFERB
 40
0.5
  9
$CHAMFERC
 40
1.0
  9
$CHAMFERD
 40
0.0
  9
$SKPOLY
 70
     0
  9
$TDCREATE
 40
2459606.985608391
  9
$TDUCREATE
 40
2459606.610608391
  9
$TDUPDATE
 40
2459606.985608403
  9
$TDUUPDATE
 40
2459606.610608403
  9
$TDINDWG
 40
0.0000000116
  9
$TDUSRTIMER
 40
0.0000000116
  9
$USRTIMER
 70
     1
  9
$ANGBASE
 50
0.0
  9
$ANGDIR
 70
     0
  9
$PDMODE
 70
     0
  9
$PDSIZE
 40
1.0
  9
$PLINEWID
 40
0.0
  9
$SPLFRAME
 70
     0
  9
$SPLINETYPE
 70
     6
  9
$SPLINESEGS
 70
     8
  9
$HANDSEED
  5
6FB
  9
$SURFTAB1
 70
     6
  9
$SURFTAB2
 70
     6
  9
$SURFTYPE
 70
     6
  9
$SURFU
 70
     6
  9
$SURFV
 70
     6
  9
$UCSBASE
  2

  9
$UCSNAME
  2

  9
$UCSORG
 10
0.0
 20
0.0
 30
0.0
  9
$UCSXDIR
 10
1.0
 20
0.0
 30
0.0
  9
$UCSYDIR
 10
0.0
 20
1.0
 30
0.0
  9
$UCSORTHOREF
  2

  9
$UCSORTHOVIEW
 70
     0
  9
$UCSORGTOP
 10
0.0
 20
0.0
 30
0.0
  9
$UCSORGBOTTOM
 10
0.0
 20
0.0
 30
0.0
  9
$UCSORGLEFT
 10
0.0
 20
0.0
 30
0.0
  9
$UCSORGRIGHT
 10
0.0
 20
0.0
 30
0.0
  9
$UCSORGFRONT
 10
0.0
 20
0.0
 30
0.0
  9
$UCSORGBACK
 10
0.0
 20
0.0
 30
0.0
  9
$PUCSBASE
  2

  9
$PUCSNAME
  2

  9
$PUCSORG
 10
0.0
 20
0.0
 30
0.0
  9
$PUCSXDIR
 10
1.0
 20
0.0
 30
0.0
  9
$PUCSYDIR
 10
0.0
 20
1.0
 30
0.0
  9
$PUCSORTHOREF
  2

  9
$PUCSORTHOVIEW
 70
     0
  9
$PUCSORGTOP
 10
0.0
 20
0.0
 30
0.0
  9
$PUCSORGBOTTOM
 10
0.0
 20
0.0
 30
0.0
  9
$PUCSORGLEFT
 10
0.0
 20
0.0
 30
0.0
  9
$PUCSORGRIGHT
 10
0.0
 20
0.0
 30
0.0
  9
$PUCSORGFRONT
 10
0.0
 20
0.0
 30
0.0
  9
$PUCSORGBACK
 10
0.0
 20
0.0
 30
0.0
  9
$USERI1
 70
     0
  9
$USERI2
 70
     0
  9
$USERI3
 70
     0
  9
$USERI4
 70
     0
  9
$USERI5
 70
     0
  9
$USERR1
 40
0.0
  9
$USERR2
 40
0.0
  9
$USERR3
 40
0.0
  9
$USERR4
 40
0.0
  9
$USERR5
 40
0.0
  9
$WORLDVIEW
 70
     1
  9
$SHADEDGE
 70
     3
  9
$SHADEDIF
 70
    70
  9
$TILEMODE
 70
     1
  9
$MAXACTVP
 70
    64
  9
$PINSBASE
 10
0.0
 20
0.0
 30
0.0
  9
$PLIMCHECK
 70
     0
  9
$PEXTMIN
 10
1.000000000000000E+20
 20
1.000000000000000E+20
 30
1.000000000000000E+20
  9
$PEXTMAX
 10
-1.000000000000000E+20
 20
-1.000000000000000E+20
 30
-1.000000000000000E+20
  9
$PLIMMIN
 10
0.0
 20
0.0
  9
$PLIMMAX
 10
12.0
 20
9.0
  9
$UNITMODE
 70
     0
  9
$VISRETAIN
 70
     0
  9
$PLINEGEN
 70
     1
  9
$PSLTSCALE
 70
     0
  9
$TREEDEPTH
 70
  3020
  9
$CMLSTYLE
  2
Standard
  9
$CMLJUST
 70
     0
  9
$CMLSCALE
 40
1.0
  9
$PROXYGRAPHICS
 70
     0
  9
$MEASUREMENT
 70
     1
  9
$CELWEIGHT
370
    -1
  9
$ENDCAPS
280
     0
  9
$JOINSTYLE
280
     0
  9
$LWDISPLAY
290
     1
  9
$INSUNITS
 70
     4
  9
$HYPERLINKBASE
  1

  9
$STYLESHEET
  1

  9
$XEDIT
290
     1
  9
$CEPSNTYPE
380
     0
  9
$PSTYLEMODE
290
     1
  9
$FINGERPRINTGUID
  2
{EFE055AD-C2CA-494B-960A-1BACE1DC9B87}
  9
$VERSIONGUID
  2
{FAEB1C32-E019-11D5-929B-00C0DF256EC4}
  9
$EXTNAMES
290
     1
  9
$PSVPSCALE
 40
0.0
  9
$OLESTARTUP
290
     0
  0
ENDSEC
  0
SECTION
  2
CLASSES
  0
CLASS
  1
ACDBDICTIONARYWDFLT
  2
AcDbDictionaryWithDefault
  3
ObjectDBX Classes
 90
        0
280
     0
281
     0
  0
CLASS
  1
VISUALSTYLE
  2
AcDbVisualStyle
  3
ObjectDBX Classes
 90
     4095
280
     0
281
     0
  0
CLASS
  1
MATERIAL
  2
AcDbMaterial
  3
ObjectDBX Classes
 90
     1153
280
     0
281
     0
  0
CLASS
  1
SCALE
  2
AcDbScale
  3
ObjectDBX Classes
 90
     1153
280
     0
281
     0
  0
CLASS
  1
DICTIONARYVAR
  2
AcDbDictionaryVar
  3
ObjectDBX Classes
 90
        0
280
     0
281
     0
  0
CLASS
  1
ACDBPLACEHOLDER
  2
AcDbPlaceHolder
  3
ObjectDBX Classes
 90
        0
280
     0
281
     0
  0
CLASS
  1
LAYOUT
  2
AcDbLayout
  3
ObjectDBX Classes
 90
        0
280
     0
281
     0
  0
ENDSEC
  0
SECTION
  2
TABLES
  0
TABLE
  2
VPORT
  5
8
330
0
100
AcDbSymbolTable
 70
     1
  0
VPORT
  5
29
330
8
100
AcDbSymbolTableRecord
100
AcDbViewportTableRecord
  2
*Active
 70
     0
 10
0.0
 20
0.0
 11
1.0
 21
1.0
 12
-4.449997354298834
 22
-11.44999825954434
 13
0.0
 23
0.0
 14
0.5
 24
0.5
 15
0.5
 25
0.5
 16
0.0
 26
0.0
 36
1.0
 17
0.0
 27
0.0
 37
0.0
 40
238.2720035505295
 41
1.520119863013698
 42
50.0
 43
0.0
 44
0.0
 50
0.0
 51
0.0
 71
     0
 72
  1000
 73
     1
 74
     1
 75
     0
 76
     0
 77
     0
 78
     0
281
     0
 65
     1
110
0.0
120
0.0
130
0.0
111
1.0
121
0.0
131
0.0
112
0.0
122
1.0
132
0.0
 79
     0
146
0.0
  0
ENDTAB
  0
TABLE
  2
LTYPE
  5
5
330
0
100
AcDbSymbolTable
 70
    53
  0
LTYPE
  5
14
330
5
100
AcDbSymbolTableRecord
100
AcDbLinetypeTableRecord
  2
ByBlock
 70
     0
  3

 72
    65
 73
     0
 40
0.0
  0
LTYPE
  5
15
330
5
100
AcDbSymbolTableRecord
100
AcDbLinetypeTableRecord
  2
ByLayer
 70
     0
  3

 72
    65
 73
     0
 40
0.0
  0
LTYPE
  5
16
330
5
100
AcDbSymbolTableRecord
100
AcDbLinetypeTableRecord
  2
Continuous
 70
     0
  3
Solid line
 72
    65
 73
     0
 40
0.0
  0
LTYPE
  5
40
330
5
100
AcDbSymbolTableRecord
100
AcDbLinetypeTableRecord
  2
HIDDENX2
 70
     0
  3
Hidden (2x) ____ ____ ____ ____ ____ ____ ____ 
 72
    65
 73
     2
 40
19.05
 49
12.7
 74
     0
 49
-6.35
 74
     0
  0
LTYPE
  5
41
330
5
100
AcDbSymbolTableRecord
100
AcDbLinetypeTableRecord
  2
HIDDEN
 70
     0
  3
Hidden __ __ __ __ __ __ __ __ __ __ __ __ __ __
 72
    65
 73
     2
 40
9.524999999999999
 49
6.35
 74
     0
 49
-3.175
 74
     0
  0
LTYPE
  5
42
330
5
100
AcDbSymbolTableRecord
100
AcDbLinetypeTableRecord
  2
HIDDEN2
 70
     0
  3
Hidden (.5x) _ _ _ _ _ _ _ _ _ _ _ _ _ _ _ _ _ 
 72
    65
 73
     2
 40
4.762499999999999
 49
3.175
 74
     0
 49
-1.5875
 74
     0
  0
LTYPE
  5
43
330
5
100
AcDbSymbolTableRecord
100
AcDbLinetypeTableRecord
  2
DASHED
 70
     0
  3
Dashed __ __ __ __ __ __ __ __ __ __ __ __ __ _
 72
    65
 73
     2
 40
19.05
 49
12.7
 74
     0
 49
-6.35
 74
     0
  0
LTYPE
  5
44
330
5
100
AcDbSymbolTableRecord
100
AcDbLinetypeTableRecord
  2
DASHED2
 70
     0
  3
Dashed (.5x) _ _ _ _ _ _ _ _ _ _ _ _ _ _ _ _ _ 
 72
    65
 73
     2
 40
9.524999999999999
 49
6.35
 74
     0
 49
-3.175
 74
     0
  0
LTYPE
  5
45
330
5
100
AcDbSymbolTableRecord
100
AcDbLinetypeTableRecord
  2
DASHEDX2
 70
     0
  3
Dashed (2x) ____  ____  ____  ____  ____  ___
 72
    65
 73
     2
 40
38.09999999999999
 49
25.4
 74
     0
 49
-12.7
 74
     0
  0
LTYPE
  5
46
330
5
100
AcDbSymbolTableRecord
100
AcDbLinetypeTableRecord
  2
DOTX2
 70
     0
  3
Dot (2x) .  .  .  .  .  .  .  .  .  .  .  .  .  .
 72
    65
 73
     2
 40
12.7
 49
0.0
 74
     0
 49
-12.7
 74
     0
  0
LTYPE
  5
47
330
5
100
AcDbSymbolTableRecord
100
AcDbLinetypeTableRecord
  2
DOT
 70
     0
  3
Dot . . . . . . . . . . . . . . . . . . . . . . . .
 72
    65
 73
     2
 40
6.35
 49
0.0
 74
     0
 49
-6.35
 74
     0
  0
LTYPE
  5
48
330
5
100
AcDbSymbolTableRecord
100
AcDbLinetypeTableRecord
  2
DOT2
 70
     0
  3
Dot (.5x) ........................................
 72
    65
 73
     2
 40
3.175
 49
0.0
 74
     0
 49
-3.175
 74
     0
  0
LTYPE
  5
49
330
5
100
AcDbSymbolTableRecord
100
AcDbLinetypeTableRecord
  2
CENTERX2
 70
     0
  3
Center (2x) ________  __  ________  __  _____
 72
    65
 73
     4
 40
101.6
 49
63.5
 74
     0
 49
-12.7
 74
     0
 49
12.7
 74
     0
 49
-12.7
 74
     0
  0
LTYPE
  5
4A
330
5
100
AcDbSymbolTableRecord
100
AcDbLinetypeTableRecord
  2
CENTER
 70
     0
  3
Center ____ _ ____ _ ____ _ ____ _ ____ _ ____
 72
    65
 73
     4
 40
50.8
 49
31.75
 74
     0
 49
-6.35
 74
     0
 49
6.35
 74
     0
 49
-6.35
 74
     0
  0
LTYPE
  5
4B
330
5
100
AcDbSymbolTableRecord
100
AcDbLinetypeTableRecord
  2
CENTER2
 70
     0
  3
Center (.5x) ___ _ ___ _ ___ _ ___ _ ___ _ ___
 72
    65
 73
     4
 40
28.575
 49
19.05
 74
     0
 49
-3.175
 74
     0
 49
3.175
 74
     0
 49
-3.175
 74
     0
  0
LTYPE
  5
4C
330
5
100
AcDbSymbolTableRecord
100
AcDbLinetypeTableRecord
  2
DASHDOTX2
 70
     0
  3
Dash dot (2x) ____  .  ____  .  ____  .  ___
 72
    65
 73
     4
 40
50.8
 49
25.4
 74
     0
 49
-12.7
 74
     0
 49
0.0
 74
     0
 49
-12.7
 74
     0
  0
LTYPE
  5
4D
330
5
100
AcDbSymbolTableRecord
100
AcDbLinetypeTableRecord
  2
DASHDOT
 70
     0
  3
Dash dot __ . __ . __ . __ . __ . __ . __ . __
 72
    65
 73
     4
 40
25.4
 49
12.7
 74
     0
 49
-6.35
 74
     0
 49
0.0
 74
     0
 49
-6.35
 74
     0
  0
LTYPE
  5
4E
330
5
100
AcDbSymbolTableRecord
100
AcDbLinetypeTableRecord
  2
DASHDOT2
 70
     0
  3
Dash dot (.5x) _._._._._._._._._._._._._._._.
 72
    65
 73
     4
 40
12.7
 49
6.35
 74
     0
 49
-3.175
 74
     0
 49
0.0
 74
     0
 49
-3.175
 74
     0
  0
LTYPE
  5
4F
330
5
100
AcDbSymbolTableRecord
100
AcDbLinetypeTableRecord
  2
DIVIDEX2
 70
     0
  3
Divide (2x) ________  .  .  ________  .  .  _
 72
    65
 73
     6
 40
63.5
 49
25.4
 74
     0
 49
-12.7
 74
     0
 49
0.0
 74
     0
 49
-12.7
 74
     0
 49
0.0
 74
     0
 49
-12.7
 74
     0
  0
LTYPE
  5
50
330
5
100
AcDbSymbolTableRecord
100
AcDbLinetypeTableRecord
  2
DIVIDE
 70
     0
  3
Divide ____ . . ____ . . ____ . . ____ . . ____
 72
    65
 73
     6
 40
31.75
 49
12.7
 74
     0
 49
-6.35
 74
     0
 49
0.0
 74
     0
 49
-6.35
 74
     0
 49
0.0
 74
     0
 49
-6.35
 74
     0
  0
LTYPE
  5
51
330
5
100
AcDbSymbolTableRecord
100
AcDbLinetypeTableRecord
  2
DIVIDE2
 70
     0
  3
Divide (.5x) __..__..__..__..__..__..__..__.._
 72
    65
 73
     6
 40
15.875
 49
6.35
 74
     0
 49
-3.175
 74
     0
 49
0.0
 74
     0
 49
-3.175
 74
     0
 49
0.0
 74
     0
 49
-3.175
 74
     0
  0
LTYPE
  5
52
330
5
100
AcDbSymbolTableRecord
100
AcDbLinetypeTableRecord
  2
BORDERX2
 70
     0
  3
Border (2x) ____  ____  .  ____  ____  .  ___
 72
    65
 73
     6
 40
88.89999999999999
 49
25.4
 74
     0
 49
-12.7
 74
     0
 49
25.4
 74
     0
 49
-12.7
 74
     0
 49
0.0
 74
     0
 49
-12.7
 74
     0
  0
LTYPE
  5
53
330
5
100
AcDbSymbolTableRecord
100
AcDbLinetypeTableRecord
  2
BORDER
 70
     0
  3
Border __ __ . __ __ . __ __ . __ __ . __ __ .
 72
    65
 73
     6
 40
44.45
 49
12.7
 74
     0
 49
-6.35
 74
     0
 49
12.7
 74
     0
 49
-6.35
 74
     0
 49
0.0
 74
     0
 49
-6.35
 74
     0
  0
LTYPE
  5
54
330
5
100
AcDbSymbolTableRecord
100
AcDbLinetypeTableRecord
  2
BORDER2
 70
     0
  3
Border (.5x) __.__.__.__.__.__.__.__.__.__.__.
 72
    65
 73
     6
 40
22.225
 49
6.35
 74
     0
 49
-3.175
 74
     0
 49
6.35
 74
     0
 49
-3.175
 74
     0
 49
0.0
 74
     0
 49
-3.175
 74
     0
  0
LTYPE
  5
55
330
5
100
AcDbSymbolTableRecord
100
AcDbLinetypeTableRecord
  2
PHANTOMX2
 70
     0
  3
Phantom (2x) ____________    ____    ____   _
 72
    65
 73
     6
 40
127.0
 49
63.5
 74
     0
 49
-12.7
 74
     0
 49
12.7
 74
     0
 49
-12.7
 74
     0
 49
12.7
 74
     0
 49
-12.7
 74
     0
  0
LTYPE
  5
56
330
5
100
AcDbSymbolTableRecord
100
AcDbLinetypeTableRecord
  2
PHANTOM
 70
     0
  3
Phantom ______  __  __  ______  __  __  ______ 
 72
    65
 73
     6
 40
63.5
 49
31.75
 74
     0
 49
-6.35
 74
     0
 49
6.35
 74
     0
 49
-6.35
 74
     0
 49
6.35
 74
     0
 49
-6.35
 74
     0
  0
LTYPE
  5
57
330
5
100
AcDbSymbolTableRecord
100
AcDbLinetypeTableRecord
  2
PHANTOM2
 70
     0
  3
Phantom (.5x) ___ _ _ ___ _ _ ___ _ _ ___ _ _
 72
    65
 73
     6
 40
31.75
 49
15.875
 74
     0
 49
-3.175
 74
     0
 49
3.175
 74
     0
 49
-3.175
 74
     0
 49
3.175
 74
     0
 49
-3.175
 74
     0
  0
LTYPE
  5
58
330
5
100
AcDbSymbolTableRecord
100
AcDbLinetypeTableRecord
  2
ACAD_ISO06W100
 70
     0
  3
ISO long-dash triple-dot ____ ... ____ ... ____
 72
    65
 73
     8
 40
36.0
 49
24.0
 74
     0
 49
-3.0
 74
     0
 49
0.0
 74
     0
 49
-3.0
 74
     0
 49
0.0
 74
     0
 49
-3.0
 74
     0
 49
0.0
 74
     0
 49
-3.0
 74
     0
  0
LTYPE
  5
59
330
5
100
AcDbSymbolTableRecord
100
AcDbLinetypeTableRecord
  2
ACAD_ISO13W100
 70
     0
  3
ISO double-dash double-dot __ __ . . __ __ . . _
 72
    65
 73
     8
 40
36.0
 49
12.0
 74
     0
 49
-3.0
 74
     0
 49
12.0
 74
     0
 49
-3.0
 74
     0
 49
0.0
 74
     0
 49
-3.0
 74
     0
 49
0.0
 74
     0
 49
-3.0
 74
     0
  0
LTYPE
  5
5A
330
5
100
AcDbSymbolTableRecord
100
AcDbLinetypeTableRecord
  2
ACAD_ISO14W100
 70
     0
  3
ISO dash triple-dot __ . . . __ . . . __ . . . _
 72
    65
 73
     8
 40
24.0
 49
12.0
 74
     0
 49
-3.0
 74
     0
 49
0.0
 74
     0
 49
-3.0
 74
     0
 49
0.0
 74
     0
 49
-3.0
 74
     0
 49
0.0
 74
     0
 49
-3.0
 74
     0
  0
LTYPE
  5
5B
330
5
100
AcDbSymbolTableRecord
100
AcDbLinetypeTableRecord
  2
ACAD_ISO02W100
 70
     0
  3
ISO dash __ __ __ __ __ __ __ __ __ __ __ __ __
 72
    65
 73
     2
 40
15.0
 49
12.0
 74
     0
 49
-3.0
 74
     0
  0
LTYPE
  5
5C
330
5
100
AcDbSymbolTableRecord
100
AcDbLinetypeTableRecord
  2
ACAD_ISO03W100
 70
     0
  3
ISO dash space __    __    __    __    __    __
 72
    65
 73
     2
 40
30.0
 49
12.0
 74
     0
 49
-18.0
 74
     0
  0
LTYPE
  5
5D
330
5
100
AcDbSymbolTableRecord
100
AcDbLinetypeTableRecord
  2
ACAD_ISO04W100
 70
     0
  3
ISO long-dash dot ____ . ____ . ____ . ____ . _
 72
    65
 73
     4
 40
30.0
 49
24.0
 74
     0
 49
-3.0
 74
     0
 49
0.0
 74
     0
 49
-3.0
 74
     0
  0
LTYPE
  5
5E
330
5
100
AcDbSymbolTableRecord
100
AcDbLinetypeTableRecord
  2
ACAD_ISO05W100
 70
     0
  3
ISO long-dash double-dot ____ .. ____ .. ____ . 
 72
    65
 73
     6
 40
33.0
 49
24.0
 74
     0
 49
-3.0
 74
     0
 49
0.0
 74
     0
 49
-3.0
 74
     0
 49
0.0
 74
     0
 49
-3.0
 74
     0
  0
LTYPE
  5
5F
330
5
100
AcDbSymbolTableRecord
100
AcDbLinetypeTableRecord
  2
ACAD_ISO07W100
 70
     0
  3
ISO dot . . . . . . . . . . . . . . . . . . . . 
 72
    65
 73
     2
 40
3.0
 49
0.0
 74
     0
 49
-3.0
 74
     0
  0
LTYPE
  5
60
330
5
100
AcDbSymbolTableRecord
100
AcDbLinetypeTableRecord
  2
ACAD_ISO08W100
 70
     0
  3
ISO long-dash short-dash ____ __ ____ __ ____ _
 72
    65
 73
     4
 40
36.0
 49
24.0
 74
     0
 49
-3.0
 74
     0
 49
6.0
 74
     0
 49
-3.0
 74
     0
  0
LTYPE
  5
61
330
5
100
AcDbSymbolTableRecord
100
AcDbLinetypeTableRecord
  2
ACAD_ISO09W100
 70
     0
  3
ISO long-dash double-short-dash ____ __ __ ____
 72
    65
 73
     6
 40
45.0
 49
24.0
 74
     0
 49
-3.0
 74
     0
 49
6.0
 74
     0
 49
-3.0
 74
     0
 49
6.0
 74
     0
 49
-3.0
 74
     0
  0
LTYPE
  5
62
330
5
100
AcDbSymbolTableRecord
100
AcDbLinetypeTableRecord
  2
ACAD_ISO10W100
 70
     0
  3
ISO dash dot __ . __ . __ . __ . __ . __ . __ . 
 72
    65
 73
     4
 40
18.0
 49
12.0
 74
     0
 49
-3.0
 74
     0
 49
0.0
 74
     0
 49
-3.0
 74
     0
  0
LTYPE
  5
63
330
5
100
AcDbSymbolTableRecord
100
AcDbLinetypeTableRecord
  2
ACAD_ISO11W100
 70
     0
  3
ISO double-dash dot __ __ . __ __ . __ __ . __ _
 72
    65
 73
     6
 40
33.0
 49
12.0
 74
     0
 49
-3.0
 74
     0
 49
12.0
 74
     0
 49
-3.0
 74
     0
 49
0.0
 74
     0
 49
-3.0
 74
     0
  0
LTYPE
  5
64
330
5
100
AcDbSymbolTableRecord
100
AcDbLinetypeTableRecord
  2
ACAD_ISO12W100
 70
     0
  3
ISO dash double-dot __ . . __ . . __ . . __ . . 
 72
    65
 73
     6
 40
21.0
 49
12.0
 74
     0
 49
-3.0
 74
     0
 49
0.0
 74
     0
 49
-3.0
 74
     0
 49
0.0
 74
     0
 49
-3.0
 74
     0
  0
LTYPE
  5
65
330
5
100
AcDbSymbolTableRecord
100
AcDbLinetypeTableRecord
  2
ACAD_ISO15W100
 70
     0
  3
ISO double-dash triple-dot __ __ . . . __ __ . .
 72
    65
 73
    10
 40
39.0
 49
12.0
 74
     0
 49
-3.0
 74
     0
 49
12.0
 74
     0
 49
-3.0
 74
     0
 49
0.0
 74
     0
 49
-3.0
 74
     0
 49
0.0
 74
     0
 49
-3.0
 74
     0
 49
0.0
 74
     0
 49
-3.0
 74
     0
  0
LTYPE
  5
66
330
5
100
AcDbSymbolTableRecord
100
AcDbLinetypeTableRecord
  2
JIS_02_0.7
 70
     0
  3
HIDDEN0.75 _ _ _ _ _ _ _ _ _ _ _ _ _ _ _ _ _ 
 72
    65
 73
     2
 40
1.35
 49
0.75
 74
     0
 49
-0.6
 74
     0
  0
LTYPE
  5
67
330
5
100
AcDbSymbolTableRecord
100
AcDbLinetypeTableRecord
  2
JIS_02_1.0
 70
     0
  3
HIDDEN01 _ _ _ _ _ _ _ _ _ _ _ _ _ _ _ _ _ 
 72
    65
 73
     2
 40
2.0
 49
1.0
 74
     0
 49
-1.0
 74
     0
  0
LTYPE
  5
68
330
5
100
AcDbSymbolTableRecord
100
AcDbLinetypeTableRecord
  2
JIS_02_1.2
 70
     0
  3
HIDDEN01.25  _ _ _ _ _ _ _ _ _ _ _ _ _ _ _ _ _ 
 72
    65
 73
     2
 40
2.5
 49
1.25
 74
     0
 49
-1.25
 74
     0
  0
LTYPE
  5
69
330
5
100
AcDbSymbolTableRecord
100
AcDbLinetypeTableRecord
  2
JIS_02_2.0
 70
     0
  3
HIDDEN02 __ __ __ __ __ __ __ __ __ __ __ 
 72
    65
 73
     2
 40
3.0
 49
2.0
 74
     0
 49
-1.0
 74
     0
  0
LTYPE
  5
6A
330
5
100
AcDbSymbolTableRecord
100
AcDbLinetypeTableRecord
  2
JIS_02_4.0
 70
     0
  3
HIDDEN04 ____ ____ ____ ____ ____ ____ ____ 
 72
    65
 73
     2
 40
5.5
 49
4.0
 74
     0
 49
-1.5
 74
     0
  0
LTYPE
  5
6B
330
5
100
AcDbSymbolTableRecord
100
AcDbLinetypeTableRecord
  2
JIS_08_11
 70
     0
  3
1SASEN11 ___ _ ___ _ ___ _ ___ _ ___ _ ___
 72
    65
 73
     4
 40
12.8
 49
11.0
 74
     0
 49
-0.6
 74
     0
 49
0.6
 74
     0
 49
-0.6
 74
     0
  0
LTYPE
  5
6C
330
5
100
AcDbSymbolTableRecord
100
AcDbLinetypeTableRecord
  2
JIS_08_15
 70
     0
  3
1SASEN15 ____ _ ____ _ ____ _ ____ _ ____ 
 72
    65
 73
     4
 40
17.25
 49
15.0
 74
     0
 49
-0.75
 74
     0
 49
0.75
 74
     0
 49
-0.75
 74
     0
  0
LTYPE
  5
6D
330
5
100
AcDbSymbolTableRecord
100
AcDbLinetypeTableRecord
  2
JIS_08_25
 70
     0
  3
1SASEN25 ________  __  ________  __  _____
 72
    65
 73
     4
 40
28.0
 49
25.0
 74
     0
 49
-1.125
 74
     0
 49
0.75
 74
     0
 49
-1.125
 74
     0
  0
LTYPE
  5
6E
330
5
100
AcDbSymbolTableRecord
100
AcDbLinetypeTableRecord
  2
JIS_08_37
 70
     0
  3
1SASEN37 ________  __  ________  __  _____
 72
    65
 73
     4
 40
40.5
 49
37.5
 74
     0
 49
-1.125
 74
     0
 49
0.75
 74
     0
 49
-1.125
 74
     0
  0
LTYPE
  5
6F
330
5
100
AcDbSymbolTableRecord
100
AcDbLinetypeTableRecord
  2
JIS_08_50
 70
     0
  3
1SASEN50 _______________  __  ____________
 72
    65
 73
     4
 40
53.0
 49
50.0
 74
     0
 49
-1.125
 74
     0
 49
0.75
 74
     0
 49
-1.125
 74
     0
  0
LTYPE
  5
70
330
5
100
AcDbSymbolTableRecord
100
AcDbLinetypeTableRecord
  2
JIS_09_08
 70
     0
  3
2SASEN8 __ _ _ __ _ _ __ _ _ __ _ _ __ _ _ 
 72
    65
 73
     6
 40
10.75
 49
8.0
 74
     0
 49
-0.55
 74
     0
 49
0.55
 74
     0
 49
-0.55
 74
     0
 49
0.55
 74
     0
 49
-0.55
 74
     0
  0
LTYPE
  5
71
330
5
100
AcDbSymbolTableRecord
100
AcDbLinetypeTableRecord
  2
JIS_09_15
 70
     0
  3
2SASEN15 ___ _ _ ___ _ _ ___ _ _ ___ _ _ ___ 
 72
    65
 73
     6
 40
18.9
 49
15.0
 74
     0
 49
-0.9
 74
     0
 49
0.6
 74
     0
 49
-0.9
 74
     0
 49
0.6
 74
     0
 49
-0.9
 74
     0
  0
LTYPE
  5
72
330
5
100
AcDbSymbolTableRecord
100
AcDbLinetypeTableRecord
  2
JIS_09_29
 70
     0
  3
2SASEN29 ______　__  __  ______　__  __  ___
 72
    65
 73
     6
 40
34.0
 49
29.0
 74
     0
 49
-1.2
 74
     0
 49
0.7
 74
     0
 49
-1.2
 74
     0
 49
0.7
 74
     0
 49
-1.2
 74
     0
  0
LTYPE
  5
73
330
5
100
AcDbSymbolTableRecord
100
AcDbLinetypeTableRecord
  2
JIS_09_50
 70
     0
  3
2SASEN50 ____________　__  __  _____________
 72
    65
 73
     6
 40
55.0
 49
50.0
 74
     0
 49
-1.2
 74
     0
 49
0.7
 74
     0
 49
-1.2
 74
     0
 49
0.7
 74
     0
 49
-1.2
 74
     0
  0
ENDTAB
  0
TABLE
  2
LAYER
  5
2
330
0
100
AcDbSymbolTable
 70
     5
  0
LAYER
  5
10
330
2
100
AcDbSymbolTableRecord
100
AcDbLayerTableRecord
  2
0
 70
     0
 62
     7
  6
Continuous
370
    -3
390
F
  0
LAYER
  5
74
330
2
100
AcDbSymbolTableRecord
100
AcDbLayerTableRecord
  2
16
 70
     0
 62
     7
  6
Continuous
370
    -3
390
F
  0
LAYER
  5
75
330
2
100
AcDbSymbolTableRecord
100
AcDbLayerTableRecord
  2
22
 70
     0
 62
     7
  6
Continuous
370
    -3
390
F
  0
LAYER
  5
76
330
2
100
AcDbSymbolTableRecord
100
AcDbLayerTableRecord
  2
24
 70
     0
 62
     7
  6
Continuous
370
    -3
390
F
  0
LAYER
  5
77
330
2
100
AcDbSymbolTableRecord
100
AcDbLayerTableRecord
  2
32
 70
     0
 62
     7
  6
Continuous
370
    -3
390
F
  0
ENDTAB
  0
TABLE
  2
STYLE
  5
3
330
0
100
AcDbSymbolTable
 70
     2
  0
STYLE
  5
11
330
3
100
AcDbSymbolTableRecord
100
AcDbTextStyleTableRecord
  2
Standard
 70
     0
 40
0.0
 41
1.0
 50
0.0
 71
     0
 42
0.2
  3
txt.shx
  4
bigfont.shx
  0
STYLE
  5
AF
330
3
100
AcDbSymbolTableRecord
100
AcDbTextStyleTableRecord
  2
dcStyle0
 70
     0
 40
0.0
 41
0.833333335493827
 50
0.0
 71
     0
 42
0.2
  3
txt.shx
  4
bigfont
  0
ENDTAB
  0
TABLE
  2
VIEW
  5
6
330
0
100
AcDbSymbolTable
 70
     0
  0
ENDTAB
  0
TABLE
  2
UCS
  5
7
330
0
100
AcDbSymbolTable
 70
     0
  0
ENDTAB
  0
TABLE
  2
APPID
  5
9
330
0
100
AcDbSymbolTable
 70
     2
  0
APPID
  5
12
330
9
100
AcDbSymbolTableRecord
100
AcDbRegAppTableRecord
  2
ACAD
 70
     0
  0
APPID
  5
3F
330
9
100
AcDbSymbolTableRecord
100
AcDbRegAppTableRecord
  2
DaFusionOut
 70
     0
  0
ENDTAB
  0
TABLE
  2
DIMSTYLE
  5
A
330
0
100
AcDbSymbolTable
 70
     1
100
AcDbDimStyleTable
  0
DIMSTYLE
105
27
330
A
100
AcDbSymbolTableRecord
100
AcDbDimStyleTableRecord
  2
Standard
 70
     0
178
     0
340
11
  0
ENDTAB
  0
TABLE
  2
BLOCK_RECORD
  5
1
330
0
100
AcDbSymbolTable
 70
     1
  0
BLOCK_RECORD
  5
1F
330
1
100
AcDbSymbolTableRecord
100
AcDbBlockTableRecord
  2
*Model_Space
340
22
  0
BLOCK_RECORD
  5
1B
330
1
100
AcDbSymbolTableRecord
100
AcDbBlockTableRecord
  2
*Paper_Space
340
1E
  0
BLOCK_RECORD
  5
23
330
1
100
AcDbSymbolTableRecord
100
AcDbBlockTableRecord
  2
*Paper_Space0
340
26
  0
ENDTAB
  0
ENDSEC
  0
SECTION
  2
BLOCKS
  0
BLOCK
  5
20
330
1F
100
AcDbEntity
  8
0
100
AcDbBlockBegin
  2
*Model_Space
 70
     0
 10
0.0
 20
0.0
 30
0.0
  3
*Model_Space
  1

  0
ENDBLK
  5
21
330
1F
100
AcDbEntity
  8
0
100
AcDbBlockEnd
  0
BLOCK
  5
1C
330
1B
100
AcDbEntity
 67
     1
  8
0
100
AcDbBlockBegin
  2
*Paper_Space
 70
     0
 10
0.0
 20
0.0
 30
0.0
  3
*Paper_Space
  1

  0
ENDBLK
  5
1D
330
1B
100
AcDbEntity
 67
     1
  8
0
100
AcDbBlockEnd
  0
BLOCK
  5
24
330
23
100
AcDbEntity
  8
0
100
AcDbBlockBegin
  2
*Paper_Space0
 70
     0
 10
0.0
 20
0.0
 30
0.0
  3
*Paper_Space0
  1

  0
ENDBLK
  5
25
330
23
100
AcDbEntity
  8
0
100
AcDbBlockEnd
  0
ENDSEC
  0
SECTION
  2
ENTITIES
  0
LINE
  5
79
330
1F
100
AcDbEntity
  8
0
  6
Continuous
 62
   150
370
    25
100
AcDbLine
 10
-182.0
 20
-128.25
 30
0.0
 11
-178.9999999552965
 21
-128.25
 31
0.0
  0
LINE
  5
7A
330
1F
100
AcDbEntity
  8
0
  6
Continuous
 62
   150
370
    25
100
AcDbLine
 10
-178.9999999552965
 20
-128.25
 30
0.0
 11
-178.9999999552965
 21
-125.2499999552965
 31
0.0
  0
LINE
  5
7B
330
1F
100
AcDbEntity
  8
0
  6
Continuous
 62
   150
370
    25
100
AcDbLine
 10
-178.9999999552965
 20
-125.2499999552965
 30
0.0
 11
-182.0
 21
-125.2499999552965
 31
0.0
  0
LINE
  5
7C
330
1F
100
AcDbEntity
  8
0
  6
Continuous
 62
   150
370
    25
100
AcDbLine
 10
-182.0
 20
-125.2499999552965
 30
0.0
 11
-182.0
 21
-128.25
 31
0.0
  0
LINE
  5
7D
330
1F
100
AcDbEntity
  8
0
  6
Continuous
 62
   150
370
    25
100
AcDbLine
 10
-182.0
 20
-128.25
 30
0.0
 11
-178.9999999552965
 21
-128.25
 31
0.0
  0
LINE
  5
7E
330
1F
100
AcDbEntity
  8
0
  6
Continuous
 62
   150
370
    25
100
AcDbLine
 10
-178.9999999552965
 20
-128.25
 30
0.0
 11
-178.9999999552965
 21
-125.2499999552965
 31
0.0
  0
LINE
  5
7F
330
1F
100
AcDbEntity
  8
0
  6
Continuous
 62
   150
370
    25
100
AcDbLine
 10
-178.9999999552965
 20
-125.2499999552965
 30
0.0
 11
-182.0
 21
-125.2499999552965
 31
0.0
  0
LINE
  5
80
330
1F
100
AcDbEntity
  8
0
  6
Continuous
 62
   150
370
    25
100
AcDbLine
 10
-182.0
 20
-125.2499999552965
 30
0.0
 11
-182.0
 21
-128.25
 31
0.0
  0
LINE
  5
81
330
1F
100
AcDbEntity
  8
0
  6
Continuous
 62
   150
370
    25
100
AcDbLine
 10
-182.0
 20
-128.25
 30
0.0
 11
-178.9999999552965
 21
-128.25
 31
0.0
  0
LINE
  5
82
330
1F
100
AcDbEntity
  8
0
  6
Continuous
 62
   150
370
    25
100
AcDbLine
 10
-178.9999999552965
 20
-128.25
 30
0.0
 11
-178.9999999552965
 21
-125.2499999552965
 31
0.0
  0
LINE
  5
83
330
1F
100
AcDbEntity
  8
0
  6
Continuous
 62
   150
370
    25
100
AcDbLine
 10
-178.9999999552965
 20
-125.2499999552965
 30
0.0
 11
-182.0
 21
-125.2499999552965
 31
0.0
  0
LINE
  5
84
330
1F
100
AcDbEntity
  8
0
  6
Continuous
 62
   150
370
    25
100
AcDbLine
 10
-182.0
 20
-125.2499999552965
 30
0.0
 11
-182.0
 21
-128.25
 31
0.0
  0
LINE
  5
85
330
1F
100
AcDbEntity
  8
0
  6
Continuous
 62
   150
370
    25
100
AcDbLine
 10
-182.0
 20
-128.25
 30
0.0
 11
-178.9999999552965
 21
-128.25
 31
0.0
  0
LINE
  5
86
330
1F
100
AcDbEntity
  8
0
  6
Continuous
 62
   150
370
    25
100
AcDbLine
 10
-178.9999999552965
 20
-128.25
 30
0.0
 11
-178.9999999552965
 21
-125.2499999552965
 31
0.0
  0
LINE
  5
87
330
1F
100
AcDbEntity
  8
0
  6
Continuous
 62
   150
370
    25
100
AcDbLine
 10
-178.9999999552965
 20
-125.2499999552965
 30
0.0
 11
-182.0
 21
-125.2499999552965
 31
0.0
  0
LINE
  5
88
330
1F
100
AcDbEntity
  8
0
  6
Continuous
 62
   150
370
    25
100
AcDbLine
 10
-182.0
 20
-125.2499999552965
 30
0.0
 11
-182.0
 21
-128.25
 31
0.0
  0
LINE
  5
89
330
1F
100
AcDbEntity
  8
0
  6
Continuous
 62
   150
370
    25
100
AcDbLine
 10
-182.0
 20
-128.25
 30
0.0
 11
-178.9999999552965
 21
-128.25
 31
0.0
  0
LINE
  5
8A
330
1F
100
AcDbEntity
  8
0
  6
Continuous
 62
   150
370
    25
100
AcDbLine
 10
-178.9999999552965
 20
-128.25
 30
0.0
 11
-178.9999999552965
 21
-125.2499999552965
 31
0.0
  0
LINE
  5
8B
330
1F
100
AcDbEntity
  8
0
  6
Continuous
 62
   150
370
    25
100
AcDbLine
 10
-178.9999999552965
 20
-125.2499999552965
 30
0.0
 11
-182.0
 21
-125.2499999552965
 31
0.0
  0
LINE
  5
8C
330
1F
100
AcDbEntity
  8
0
  6
Continuous
 62
   150
370
    25
100
AcDbLine
 10
-182.0
 20
-125.2499999552965
 30
0.0
 11
-182.0
 21
-128.25
 31
0.0
  0
LINE
  5
8D
330
1F
100
AcDbEntity
  8
0
  6
Continuous
 62
   150
370
    25
100
AcDbLine
 10
-172.8999998643994
 20
-114.6499997973442
 30
0.0
 11
-172.8999998643994
 21
105.3500034809113
 31
0.0
  0
LINE
  5
8E
330
1F
100
AcDbEntity
  8
0
  6
Continuous
 62
   150
370
    25
100
AcDbLine
 10
-172.8999998643994
 20
105.3500034809113
 30
0.0
 11
173.1000052914023
 21
105.3500034809113
 31
0.0
  0
LINE
  5
8F
330
1F
100
AcDbEntity
  8
0
  6
Continuous
 62
   150
370
    25
100
AcDbLine
 10
173.1000052914023
 20
105.3500034809113
 30
0.0
 11
173.1000052914023
 21
-114.6499997973442
 31
0.0
  0
LINE
  5
90
330
1F
100
AcDbEntity
  8
0
  6
Continuous
 62
   150
370
    25
100
AcDbLine
 10
173.1000052914023
 20
-114.6499997973442
 30
0.0
 11
-172.8999998643994
 21
-114.6499997973442
 31
0.0
  0
LINE
  5
91
330
1F
100
AcDbEntity
  8
0
  6
Continuous
 62
   150
370
    25
100
AcDbLine
 10
173.1000052914023
 20
-84.64999935030937
 30
0.0
 11
11.10000287741423
 21
-84.64999935030937
 31
0.0
  0
LINE
  5
92
330
1F
100
AcDbEntity
  8
0
  6
Continuous
 62
   150
370
    25
100
AcDbLine
 10
11.10000287741423
 20
-84.64999935030937
 30
0.0
 11
11.10000287741423
 21
-114.6499997973442
 31
0.0
  0
LINE
  5
93
330
1F
100
AcDbEntity
  8
0
  6
Continuous
 62
   150
370
    25
100
AcDbLine
 10
11.10000287741423
 20
-97.64999954402447
 30
0.0
 11
97.10000415891409
 21
-97.64999954402447
 31
0.0
  0
LINE
  5
94
330
1F
100
AcDbEntity
  8
0
  6
Continuous
 62
   150
370
    25
100
AcDbLine
 10
97.10000415891409
 20
-89.1499994173646
 30
0.0
 11
11.10000287741423
 21
-89.1499994173646
 31
0.0
  0
LINE
  5
95
330
1F
100
AcDbEntity
  8
0
  6
Continuous
 62
   150
370
    25
100
AcDbLine
 10
24.10000307112932
 20
-84.64999935030937
 30
0.0
 11
24.10000307112932
 21
-97.64999954402447
 31
0.0
  0
LINE
  5
96
330
1F
100
AcDbEntity
  8
0
  6
Continuous
 62
   150
370
    25
100
AcDbLine
 10
37.10000326484442
 20
-97.64999954402447
 30
0.0
 11
37.10000326484442
 21
-84.64999935030937
 31
0.0
  0
LINE
  5
97
330
1F
100
AcDbEntity
  8
0
  6
Continuous
 62
   150
370
    25
100
AcDbLine
 10
50.10000345855951
 20
-84.64999935030937
 30
0.0
 11
50.10000345855951
 21
-97.64999954402447
 31
0.0
  0
LINE
  5
98
330
1F
100
AcDbEntity
  8
0
  6
Continuous
 62
   150
370
    25
100
AcDbLine
 10
76.1000038459897
 20
-97.64999954402447
 30
0.0
 11
76.1000038459897
 21
-84.64999935030937
 31
0.0
  0
LINE
  5
99
330
1F
100
AcDbEntity
  8
0
  6
Continuous
 62
   150
370
    25
100
AcDbLine
 10
97.10000415891409
 20
-84.64999935030937
 30
0.0
 11
97.10000415891409
 21
-114.6499997973442
 31
0.0
  0
LINE
  5
9A
330
1F
100
AcDbEntity
  8
0
  6
Continuous
 62
   150
370
    25
100
AcDbLine
 10
102.1000042334199
 20
-114.6499997973442
 30
0.0
 11
102.1000042334199
 21
-101.1499995961785
 31
0.0
  0
LINE
  5
9B
330
1F
100
AcDbEntity
  8
0
  6
Continuous
 62
   150
370
    25
100
AcDbLine
 10
97.10000415891409
 20
-101.1499995961785
 30
0.0
 11
173.1000052914023
 21
-101.1499995961785
 31
0.0
  0
LINE
  5
9C
330
1F
100
AcDbEntity
  8
0
  6
Continuous
 62
   150
370
    25
100
AcDbLine
 10
169.1000052317977
 20
-95.14999950677156
 30
0.0
 11
101.1000042185187
 21
-95.14999950677156
 31
0.0
  0
LINE
  5
9D
330
1F
100
AcDbEntity
  8
0
  6
Continuous
 62
   150
370
    25
100
AcDbLine
 10
20.10000301152468
 20
-109.7499997243285
 30
0.0
 11
24.6000030785799
 21
-107.2499996870756
 31
0.0
  0
LINE
  5
9E
330
1F
100
AcDbEntity
  8
0
  6
Continuous
 62
   150
370
    25
100
AcDbLine
 10
24.6000030785799
 20
-107.2499996870756
 30
0.0
 11
29.10000314563513
 21
-109.7499997243285
 31
0.0
  0
LINE
  5
9F
330
1F
100
AcDbEntity
  8
0
  6
Continuous
 62
   150
370
    25
100
AcDbLine
 10
29.10000314563513
 20
-109.7499997243285
 30
0.0
 11
24.6000030785799
 21
-112.2499997615814
 31
0.0
  0
LINE
  5
A0
330
1F
100
AcDbEntity
  8
0
  6
Continuous
 62
   150
370
    25
100
AcDbLine
 10
24.6000030785799
 20
-112.2499997615814
 30
0.0
 11
20.10000301152468
 21
-109.7499997243285
 31
0.0
  0
LINE
  5
A1
330
1F
100
AcDbEntity
  8
0
  6
Continuous
 62
   150
370
    25
100
AcDbLine
 10
24.10000307112932
 20
-108.2499997019768
 30
0.0
 11
25.10000308603048
 21
-108.2499997019768
 31
0.0
  0
LINE
  5
A2
330
1F
100
AcDbEntity
  8
0
  6
Continuous
 62
   150
370
    25
100
AcDbLine
 10
25.10000308603048
 20
-108.2499997019768
 30
0.0
 11
25.10000308603048
 21
-111.2499997466803
 31
0.0
  0
LINE
  5
A3
330
1F
100
AcDbEntity
  8
0
  6
Continuous
 62
   150
370
    25
100
AcDbLine
 10
25.10000308603048
 20
-111.2499997466803
 30
0.0
 11
24.10000307112932
 21
-111.2499997466803
 31
0.0
  0
LINE
  5
A4
330
1F
100
AcDbEntity
  8
0
  6
Continuous
 62
   150
370
    25
100
AcDbLine
 10
24.10000307112932
 20
-111.2499997466803
 30
0.0
 11
24.10000307112932
 21
-108.2499997019768
 31
0.0
  0
LINE
  5
A5
330
1F
100
AcDbEntity
  8
0
  6
Continuous
 62
   150
370
    25
100
AcDbLine
 10
24.10000307112932
 20
-108.2499997019768
 30
0.0
 11
24.30000307410955
 21
-108.2499997019768
 31
0.0
  0
LINE
  5
A6
330
1F
100
AcDbEntity
  8
0
  6
Continuous
 62
   150
370
    25
100
AcDbLine
 10
24.30000307410955
 20
-108.2499997019768
 30
0.0
 11
24.30000307410955
 21
-111.2499997466803
 31
0.0
  0
LINE
  5
A7
330
1F
100
AcDbEntity
  8
0
  6
Continuous
 62
   150
370
    25
100
AcDbLine
 10
24.30000307410955
 20
-111.2499997466803
 30
0.0
 11
24.50000307708979
 21
-111.2499997466803
 31
0.0
  0
LINE
  5
A8
330
1F
100
AcDbEntity
  8
0
  6
Continuous
 62
   150
370
    25
100
AcDbLine
 10
24.50000307708979
 20
-111.2499997466803
 30
0.0
 11
24.50000307708979
 21
-108.2499997019768
 31
0.0
  0
LINE
  5
A9
330
1F
100
AcDbEntity
  8
0
  6
Continuous
 62
   150
370
    25
100
AcDbLine
 10
24.50000307708979
 20
-108.2499997019768
 30
0.0
 11
24.70000308007002
 21
-108.2499997019768
 31
0.0
  0
LINE
  5
AA
330
1F
100
AcDbEntity
  8
0
  6
Continuous
 62
   150
370
    25
100
AcDbLine
 10
24.70000308007002
 20
-108.2499997019768
 30
0.0
 11
24.70000308007002
 21
-111.2499997466803
 31
0.0
  0
LINE
  5
AB
330
1F
100
AcDbEntity
  8
0
  6
Continuous
 62
   150
370
    25
100
AcDbLine
 10
24.70000308007002
 20
-111.2499997466803
 30
0.0
 11
24.90000308305025
 21
-111.2499997466803
 31
0.0
  0
LINE
  5
AC
330
1F
100
AcDbEntity
  8
0
  6
Continuous
 62
   150
370
    25
100
AcDbLine
 10
24.90000308305025
 20
-111.2499997466803
 30
0.0
 11
24.90000308305025
 21
-108.2499997019768
 31
0.0
  0
LINE
  5
AD
330
1F
100
AcDbEntity
  8
0
  6
Continuous
 62
   150
370
    25
100
AcDbLine
 10
24.90000308305025
 20
-108.2499997019768
 30
0.0
 11
25.10000308603048
 21
-108.2499997019768
 31
0.0
  0
LINE
  5
AE
330
1F
100
AcDbEntity
  8
0
  6
Continuous
 62
   150
370
    25
100
AcDbLine
 10
25.10000308603048
 20
-108.2499997019768
 30
0.0
 11
25.10000308603048
 21
-111.2499997466803
 31
0.0
  0
TEXT
  5
B0
330
1F
100
AcDbEntity
  8
0
 62
   150
100
AcDbText
 10
13.10000291
 20
-88.44999941
 30
0.0
 40
3.0
  1
担　当
 41
0.833333335493827
  7
dcStyle0
 72
     5
 11
22.10000305
 21
-88.44999941
 31
0.0
100
AcDbText
  0
TEXT
  5
B1
330
1F
100
AcDbEntity
  8
0
 62
   150
100
AcDbText
 10
26.1000031
 20
-88.44999941
 30
0.0
 40
3.0
  1
製　図
 41
0.8333333354938274
  7
dcStyle0
 72
     5
 11
35.10000324
 21
-88.44999941
 31
0.0
100
AcDbText
  0
TEXT
  5
B2
330
1F
100
AcDbEntity
  8
0
 62
   150
100
AcDbText
 10
39.10000329
 20
-88.44999941
 30
0.0
 40
3.0
  1
検　図
 41
0.833333335493827
  7
dcStyle0
 72
     5
 11
48.10000342999999
 21
-88.44999941
 31
0.0
100
AcDbText
  0
TEXT
  5
B3
330
1F
100
AcDbEntity
  8
0
 62
   150
100
AcDbText
 10
57.10000356
 20
-88.44999941
 30
0.0
 40
3.0
  1
尺　　度
 41
0.8333333354166672
  7
dcStyle0
 72
     5
 11
69.10000374
 21
-88.44999941
 31
0.0
100
AcDbText
  0
TEXT
  5
B4
330
1F
100
AcDbEntity
  8
0
 62
   150
100
AcDbText
 10
80.60000391
 20
-88.44999941
 30
0.0
 40
3.0
  1
作　　図
 41
0.8333333354166668
  7
dcStyle0
 72
     5
 11
92.60000409
 21
-88.44999941
 31
0.0
100
AcDbText
  0
TEXT
  5
B5
330
1F
100
AcDbEntity
  8
0
 62
   150
100
AcDbText
 10
98.10000417
 20
-88.44999941
 30
0.0
 40
3.0
  1
工事名
 41
0.833333335493827
  7
dcStyle0
 72
     5
 11
107.10000431
 21
-88.44999941
 31
0.0
100
AcDbText
  0
TEXT
  5
B6
330
1F
100
AcDbEntity
  8
0
 62
   150
100
AcDbText
 10
98.10000417
 20
-99.94999958
 30
0.0
 40
2.5
  1
図面番号
 41
0.8333333354166671
  7
dcStyle0
 72
     5
 11
108.10000432
 21
-99.94999958
 31
0.0
100
AcDbText
  0
TEXT
  5
B7
330
1F
100
AcDbEntity
  8
0
 62
   150
100
AcDbText
 10
98.10000417
 20
-104.64999965
 30
0.0
 40
2.5
  1
図
 41
0.8333333333333334
  7
dcStyle0
 72
     5
 11
100.60000417
 21
-104.64999965
 31
0.0
100
AcDbText
  0
TEXT
  5
B8
330
1F
100
AcDbEntity
  8
0
 62
   150
100
AcDbText
 10
98.10000417
 20
-107.64999969
 30
0.0
 40
2.5
  1
面
 41
0.8333333333333334
  7
dcStyle0
 72
     5
 11
100.60000417
 21
-107.64999969
 31
0.0
100
AcDbText
  0
TEXT
  5
B9
330
1F
100
AcDbEntity
  8
0
 62
   150
100
AcDbText
 10
98.10000417
 20
-110.64999974
 30
0.0
 40
2.5
  1
名
 41
0.8333333333333334
  7
dcStyle0
 72
     5
 11
100.60000417
 21
-110.64999974
 31
0.0
100
AcDbText
  0
TEXT
  5
BA
330
1F
100
AcDbEntity
  8
0
 62
   150
100
AcDbText
 10
98.10000417
 20
-113.64999978
 30
0.0
 40
2.5
  1
称
 41
0.8333333333333334
  7
dcStyle0
 72
     5
 11
100.60000417
 21
-113.64999978
 31
0.0
100
AcDbText
  0
TEXT
  5
BB
330
1F
100
AcDbEntity
  8
0
 62
   150
100
AcDbText
 10
81.30000392
 20
-94.6499995
 30
0.0
 40
2.5
  1
年
 41
0.8333333333333334
  7
dcStyle0
 72
     5
 11
83.80000392
 21
-94.6499995
 31
0.0
100
AcDbText
  0
TEXT
  5
BC
330
1F
100
AcDbEntity
  8
0
 62
   150
100
AcDbText
 10
87.80000402
 20
-94.6499995
 30
0.0
 40
2.5
  1
月
 41
0.8333333333333334
  7
dcStyle0
 72
     5
 11
90.30000402
 21
-94.6499995
 31
0.0
100
AcDbText
  0
TEXT
  5
BD
330
1F
100
AcDbEntity
  8
0
 62
   150
100
AcDbText
 10
94.30000412
 20
-94.6499995
 30
0.0
 40
2.5
  1
日
 41
0.8333333333333334
  7
dcStyle0
 72
     5
 11
96.80000412
 21
-94.6499995
 31
0.0
100
AcDbText
  0
TEXT
  5
BE
330
1F
100
AcDbEntity
  8
0
 62
   222
100
AcDbText
 10
25.60000309
 20
-104.44999965
 30
0.0
 40
4.0
  1
タイヘイグレーチング
 41
1.041666666041667
  7
dcStyle0
 72
     5
 11
75.60000381
 21
-104.44999965
 31
0.0
100
AcDbText
  0
TEXT
  5
BF
330
1F
100
AcDbEntity
  8
0
 62
   222
100
AcDbText
 10
30.85000317
 20
-111.94999976
 30
0.0
 40
5.0
  1
石田鉄工株式会社
 41
0.8461538481952663
  7
dcStyle0
 72
     5
 11
74.85000386
 21
-111.94999976
 31
0.0
100
AcDbText
  0
LINE
  5
C0
330
1F
100
AcDbEntity
  8
22
  6
Continuous
 62
     2
370
    25
100
AcDbLine
 10
-182.0
 20
-128.25
 30
0.0
 11
-178.9999999552965
 21
-128.25
 31
0.0
  0
LINE
  5
C1
330
1F
100
AcDbEntity
  8
22
  6
Continuous
 62
     2
370
    25
100
AcDbLine
 10
-178.9999999552965
 20
-128.25
 30
0.0
 11
-178.9999999552965
 21
-125.2499999552965
 31
0.0
  0
LINE
  5
C2
330
1F
100
AcDbEntity
  8
22
  6
Continuous
 62
     2
370
    25
100
AcDbLine
 10
-178.9999999552965
 20
-125.2499999552965
 30
0.0
 11
-182.0
 21
-125.2499999552965
 31
0.0
  0
LINE
  5
C3
330
1F
100
AcDbEntity
  8
22
  6
Continuous
 62
     2
370
    25
100
AcDbLine
 10
-182.0
 20
-125.2499999552965
 30
0.0
 11
-182.0
 21
-128.25
 31
0.0
  0
LINE
  5
C4
330
1F
100
AcDbEntity
  8
22
  6
Continuous
 62
     2
370
    25
100
AcDbLine
 10
-182.0
 20
-128.25
 30
0.0
 11
-178.9999999552965
 21
-128.25
 31
0.0
  0
LINE
  5
C5
330
1F
100
AcDbEntity
  8
22
  6
Continuous
 62
     2
370
    25
100
AcDbLine
 10
-178.9999999552965
 20
-128.25
 30
0.0
 11
-178.9999999552965
 21
-125.2499999552965
 31
0.0
  0
LINE
  5
C6
330
1F
100
AcDbEntity
  8
22
  6
Continuous
 62
     2
370
    25
100
AcDbLine
 10
-178.9999999552965
 20
-125.2499999552965
 30
0.0
 11
-182.0
 21
-125.2499999552965
 31
0.0
  0
LINE
  5
C7
330
1F
100
AcDbEntity
  8
22
  6
Continuous
 62
     2
370
    25
100
AcDbLine
 10
-182.0
 20
-125.2499999552965
 30
0.0
 11
-182.0
 21
-128.25
 31
0.0
  0
LINE
  5
C8
330
1F
100
AcDbEntity
  8
22
  6
Continuous
 62
     2
370
    25
100
AcDbLine
 10
-182.0
 20
-128.25
 30
0.0
 11
-178.9999999552965
 21
-128.25
 31
0.0
  0
LINE
  5
C9
330
1F
100
AcDbEntity
  8
22
  6
Continuous
 62
     2
370
    25
100
AcDbLine
 10
-178.9999999552965
 20
-128.25
 30
0.0
 11
-178.9999999552965
 21
-125.2499999552965
 31
0.0
  0
LINE
  5
CA
330
1F
100
AcDbEntity
  8
22
  6
Continuous
 62
     2
370
    25
100
AcDbLine
 10
-178.9999999552965
 20
-125.2499999552965
 30
0.0
 11
-182.0
 21
-125.2499999552965
 31
0.0
  0
LINE
  5
CB
330
1F
100
AcDbEntity
  8
22
  6
Continuous
 62
     2
370
    25
100
AcDbLine
 10
-182.0
 20
-125.2499999552965
 30
0.0
 11
-182.0
 21
-128.25
 31
0.0
  0
TEXT
  5
CC
330
1F
100
AcDbEntity
  8
22
 62
     2
100
AcDbText
 10
103.10000425
 20
-105.74999966
 30
0.0
 40
3.2
  1
GTU
 41
0.937500000911458
  7
dcStyle0
 72
     5
 11
112.10000439
 21
-105.74999966
 31
0.0
100
AcDbText
  0
TEXT
  5
CD
330
1F
100
AcDbEntity
  8
22
 62
     2
100
AcDbText
 10
112.10000438
 20
-105.74999966
 30
0.0
 40
3.0
  1
 150 
 41
0.8333333355555557
  7
dcStyle0
 72
     5
 11
124.60000458
 21
-105.74999966
 31
0.0
100
AcDbText
  0
TEXT
  5
CE
330
1F
100
AcDbEntity
  8
22
 62
     2
100
AcDbText
 10
122.10000453
 20
-105.74999966
 30
0.0
 40
3.0
  1
×
 41
0.6944444444444445
  7
dcStyle0
 72
     5
 11
124.60000453
 21
-105.74999966
 31
0.0
100
AcDbText
  0
TEXT
  5
CF
330
1F
100
AcDbEntity
  8
22
 62
     2
100
AcDbText
 10
122.10000453
 20
-105.74999966
 30
0.0
 40
3.0
  1
 995 
 41
0.8333333355555547
  7
dcStyle0
 72
     5
 11
134.60000473
 21
-105.74999966
 31
0.0
100
AcDbText
  0
TEXT
  5
D0
330
1F
100
AcDbEntity
  8
22
 62
     2
100
AcDbText
 10
132.10000468
 20
-105.74999966
 30
0.0
 40
3.0
  1
×
 41
0.6944444444444445
  7
dcStyle0
 72
     5
 11
134.60000468
 21
-105.74999966
 31
0.0
100
AcDbText
  0
TEXT
  5
D1
330
1F
100
AcDbEntity
  8
22
 62
     2
100
AcDbText
 10
132.10000468
 20
-105.74999966
 30
0.0
 40
3.0
  1
 25 
 41
0.8333333354166671
  7
dcStyle0
 72
     5
 11
142.10000483
 21
-105.74999966
 31
0.0
100
AcDbText
  0
TEXT
  5
D2
330
1F
100
AcDbEntity
  8
22
 62
     2
100
AcDbText
 10
130.10000465
 20
-109.24999972
 30
0.0
 40
2.5
  1
Ｃ寸法：
 41
0.6666666700000008
  7
dcStyle0
 72
     5
 11
138.10000477
 21
-109.24999972
 31
0.0
100
AcDbText
  0
TEXT
  5
D3
330
1F
100
AcDbEntity
  8
22
 62
     2
100
AcDbText
 10
135.60000473
 20
-109.24999972
 30
0.0
 40
2.5
  1
 140 
 41
0.8000000025600009
  7
dcStyle0
 72
     5
 11
145.60000489
 21
-109.24999972
 31
0.0
100
AcDbText
  0
TEXT
  5
D4
330
1F
100
AcDbEntity
  8
22
 62
     2
100
AcDbText
 10
26.3500031
 20
-94.6499995
 30
0.0
 40
3.0
  1
伊藤　
 41
0.8536585384889943
  7
dcStyle0
 72
     5
 11
36.85000325999999
 21
-94.6499995
 31
0.0
100
AcDbText
  0
TEXT
  5
D5
330
1F
100
AcDbEntity
  8
22
 62
     2
100
AcDbText
 10
38.85000329
 20
-94.6499995
 30
0.0
 40
3.0
  1
水谷　
 41
0.8536585384889945
  7
dcStyle0
 72
     5
 11
49.35000345
 21
-94.6499995
 31
0.0
100
AcDbText
  0
TEXT
  5
D6
330
1F
100
AcDbEntity
  8
22
 62
     2
100
AcDbText
 10
57.40000357
 20
-94.6499995
 30
0.0
 40
3.0
  1
1/
 41
1.000000000000001
  7
dcStyle0
 72
     5
 11
63.40000366000001
 21
-94.6499995
 31
0.0
100
AcDbText
  0
TEXT
  5
D7
330
1F
100
AcDbEntity
  8
22
 62
     2
100
AcDbText
 10
60.40000361
 20
-94.6499995
 30
0.0
 40
3.0
  1
 8 
 41
0.9999999999999998
  7
dcStyle0
 72
     5
 11
69.40000375
 21
-94.6499995
 31
0.0
100
AcDbText
  0
TEXT
  5
D8
330
1F
100
AcDbEntity
  8
22
 62
     2
100
AcDbText
 10
110.00000435
 20
-100.14999958
 30
0.0
 40
3.0
  1
GTU25-15 T-6 50        
 41
0.8333333354589372
  7
dcStyle0
 72
     5
 11
167.50000523
 21
-100.14999958
 31
0.0
100
AcDbText
  0
TEXT
  5
D9
330
1F
100
AcDbEntity
  8
22
 62
     2
100
AcDbText
 10
74.65000382
 20
-73.24999918
 30
0.0
 40
3.5
  1
＜表面処理＞
 41
0.7446808537799908
  7
dcStyle0
 72
     5
 11
95.65000411999999
 21
-73.24999918
 31
0.0
100
AcDbText
  0
TEXT
  5
DA
330
1F
100
AcDbEntity
  8
22
 62
     2
100
AcDbText
 10
79.6500039
 20
-78.24999925
 30
0.0
 40
3.5
  1
本体：溶融亜鉛メッキ
 41
0.7446808537256675
  7
dcStyle0
 72
     5
 11
114.65000439
 21
-78.24999925
 31
0.0
100
AcDbText
  0
TEXT
  5
DB
330
1F
100
AcDbEntity
  8
22
 62
     2
100
AcDbText
 10
24.90000308
 20
-78.24999925
 30
0.0
 40
3.0
  1
本体重量：
 41
0.6944444478395061
  7
dcStyle0
 72
     5
 11
37.40000328
 21
-78.24999925
 31
0.0
100
AcDbText
  0
TEXT
  5
DC
330
1F
100
AcDbEntity
  8
22
 62
     2
100
AcDbText
 10
37.40000327
 20
-78.24999925
 30
0.0
 40
3.0
  1
  9.5
 41
0.666666670222222
  7
dcStyle0
 72
     5
 11
47.40000343
 21
-78.24999925
 31
0.0
100
AcDbText
  0
TEXT
  5
DD
330
1F
100
AcDbEntity
  8
22
 62
     2
100
AcDbText
 10
47.40000342
 20
-78.24999925
 30
0.0
 40
3.0
  1
Kg
 41
0.6666666699999997
  7
dcStyle0
 72
     5
 11
51.40000348
 21
-78.24999925
 31
0.0
100
AcDbText
  0
TEXT
  5
DE
330
1F
100
AcDbEntity
  8
22
 62
     2
100
AcDbText
 10
-126.56249971
 20
54.20000057
 30
0.0
 40
2.5
  1
ベアリングバー：
 41
0.8333333352777776
  7
dcStyle0
 72
     5
 11
-106.56249943
 21
54.20000057
 31
0.0
100
AcDbText
  0
TEXT
  5
DF
330
1F
100
AcDbEntity
  8
22
 62
     2
100
AcDbText
 10
-106.56249941
 20
54.20000057
 30
0.0
 40
2.5
  1
GI-
 41
0.9999999999999994
  7
dcStyle0
 72
     5
 11
-99.06249929
 21
54.20000057
 31
0.0
100
AcDbText
  0
TEXT
  5
E0
330
1F
100
AcDbEntity
  8
22
 62
     2
100
AcDbText
 10
-101.06249933
 20
54.20000057
 30
0.0
 40
2.5
  1
 5 
 41
0.9999999999999994
  7
dcStyle0
 72
     5
 11
-93.56249921
 21
54.20000057
 31
0.0
100
AcDbText
  0
TEXT
  5
E1
330
1F
100
AcDbEntity
  8
22
 62
     2
100
AcDbText
 10
-96.06249925
 20
54.20000057
 30
0.0
 40
2.5
  1
×
 41
0.8333333333333334
  7
dcStyle0
 72
     5
 11
-93.56249925
 21
54.20000057
 31
0.0
100
AcDbText
  0
TEXT
  5
E2
330
1F
100
AcDbEntity
  8
22
 62
     2
100
AcDbText
 10
-95.56249924
 20
54.20000057
 30
0.0
 40
2.5
  1
 3 
 41
0.9999999999999994
  7
dcStyle0
 72
     5
 11
-88.06249912
 21
54.20000057
 31
0.0
100
AcDbText
  0
TEXT
  5
E3
330
1F
100
AcDbEntity
  8
22
 62
     2
100
AcDbText
 10
-90.56249917
 20
54.20000057
 30
0.0
 40
2.5
  1
×
 41
0.8333333333333334
  7
dcStyle0
 72
     5
 11
-88.06249917
 21
54.20000057
 31
0.0
100
AcDbText
  0
TEXT
  5
E4
330
1F
100
AcDbEntity
  8
22
 62
     2
100
AcDbText
 10
-90.06249916
 20
54.20000057
 30
0.0
 40
2.5
  1
 25 
 41
1.0
  7
dcStyle0
 72
     5
 11
-80.06249901
 21
54.20000057
 31
0.0
100
AcDbText
  0
TEXT
  5
E5
330
1F
100
AcDbEntity
  8
22
 62
     2
100
AcDbText
 10
-121.37499976
 20
49.57500045
 30
0.0
 40
2.5
  1
ツイストバー：
 41
0.8333333352380955
  7
dcStyle0
 72
     5
 11
-103.87499952
 21
49.57500045
 31
0.0
100
AcDbText
  0
TEXT
  5
E6
330
1F
100
AcDbEntity
  8
22
 62
     2
100
AcDbText
 10
-102.37494465
 20
49.58547093
 30
0.0
 40
2.5
  1
 6 
 41
0.9999999999999994
  7
dcStyle0
 72
     5
 11
-94.87494453000001
 21
49.58547093
 31
0.0
100
AcDbText
  0
TEXT
  5
E7
330
1F
100
AcDbEntity
  8
22
 62
     2
100
AcDbText
 10
-117.43749987
 20
44.57500023
 30
0.0
 40
2.5
  1
エンドアングル：
 41
0.8333333352777776
  7
dcStyle0
 72
     5
 11
-97.43749959
 21
44.57500023
 31
0.0
100
AcDbText
  0
TEXT
  5
E8
330
1F
100
AcDbEntity
  8
22
 62
     2
100
AcDbText
 10
-97.43749958
 20
44.57500023
 30
0.0
 40
2.5
  1
L
  7
dcStyle0
 72
     5
 11
-94.93749958
 21
44.57500023
 31
0.0
100
AcDbText
  0
TEXT
  5
E9
330
1F
100
AcDbEntity
  8
22
 62
     2
100
AcDbText
 10
-96.93749957
 20
44.57500023
 30
0.0
 40
2.5
  1
 5 
 41
0.9999999999999994
  7
dcStyle0
 72
     5
 11
-89.43749945
 21
44.57500023
 31
0.0
100
AcDbText
  0
TEXT
  5
EA
330
1F
100
AcDbEntity
  8
22
 62
     2
100
AcDbText
 10
-91.93749949
 20
44.57500023
 30
0.0
 40
2.5
  1
×
 41
0.8333333333333334
  7
dcStyle0
 72
     5
 11
-89.43749949
 21
44.57500023
 31
0.0
100
AcDbText
  0
TEXT
  5
EB
330
1F
100
AcDbEntity
  8
22
 62
     2
100
AcDbText
 10
-91.43749949
 20
44.57500023
 30
0.0
 40
2.5
  1
 40 
 41
1.0
  7
dcStyle0
 72
     5
 11
-81.43749933999999
 21
44.57500023
 31
0.0
100
AcDbText
  0
TEXT
  5
EC
330
1F
100
AcDbEntity
  8
22
 62
     2
100
AcDbText
 10
-83.93749937
 20
44.57500023
 30
0.0
 40
2.5
  1
×
 41
0.8333333333333334
  7
dcStyle0
 72
     5
 11
-81.43749937
 21
44.57500023
 31
0.0
100
AcDbText
  0
TEXT
  5
ED
330
1F
100
AcDbEntity
  8
22
 62
     2
100
AcDbText
 10
-83.43749937
 20
44.57500023
 30
0.0
 40
2.5
  1
 40 
 41
1.0
  7
dcStyle0
 72
     5
 11
-73.43749921999999
 21
44.57500023
 31
0.0
100
AcDbText
  0
TEXT
  5
EE
330
1F
100
AcDbEntity
  8
22
 62
     2
100
AcDbText
 10
-110.06249996
 20
-31.87499993
 30
0.0
 40
3.0
  1
 30 
 41
0.8333333354166671
  7
dcStyle0
 72
     5
 11
-100.06249981
 21
-31.87499993
 31
0.0
100
AcDbText
  0
TEXT
  5
EF
330
1F
100
AcDbEntity
  8
22
 62
     2
100
AcDbText
 10
-98.43749917
 20
-24.87499982
 30
0.0
 40
3.0
  1
 995 
 41
0.8333333355555557
  7
dcStyle0
 72
     5
 11
-85.93749897
 21
-24.87499982
 31
0.0
100
AcDbText
  0
TEXT
  5
F0
330
1F
100
AcDbEntity
  8
22
 62
     2
100
AcDbText
 10
11.69999687400638
 20
17.87499999480765
 30
0.0
 40
3.0
  1
 50 
 50
90.0000001836389
 41
0.8333333354166665
  7
dcStyle0
 72
     5
 11
11.69999684195534
 21
27.87500014480765
 31
0.0
100
AcDbText
  0
TEXT
  5
F1
330
1F
100
AcDbEntity
  8
22
 62
     2
100
AcDbText
 10
4.699996774006379
 20
9.499999794807655
 30
0.0
 40
3.0
  1
 130 
 50
90.0000001836389
 41
0.8333333355555556
  7
dcStyle0
 72
     5
 11
4.699996733942585
 21
21.99999999480766
 31
0.0
100
AcDbText
  0
TEXT
  5
F2
330
1F
100
AcDbEntity
  8
22
 62
     2
100
AcDbText
 10
-2.300003325993621
 20
9.499999714807656
 30
0.0
 40
3.0
  1
 210 
 50
90.0000001836389
 41
0.8333333355555553
  7
dcStyle0
 72
     5
 11
-2.300003366057415
 21
21.99999991480765
 31
0.0
100
AcDbText
  0
TEXT
  5
F3
330
1F
100
AcDbEntity
  8
22
 62
     2
100
AcDbText
 10
29.00000009400638
 20
9.499999784807654
 30
0.0
 40
3.0
  1
 140 
 50
90.0000001836389
 41
0.8333333355555558
  7
dcStyle0
 72
     5
 11
29.00000005394259
 21
21.99999998480766
 31
0.0
100
AcDbText
  0
TEXT
  5
F4
330
1F
100
AcDbEntity
  8
22
 62
     2
100
AcDbText
 10
35.89999388400638
 20
9.499999774807655
 30
0.0
 40
3.0
  1
 150 
 50
90.0000001836389
 41
0.8333333355555557
  7
dcStyle0
 72
     5
 11
35.89999384394258
 21
21.99999997480766
 31
0.0
100
AcDbText
  0
TEXT
  5
F5
330
1F
100
AcDbEntity
  8
22
 62
     2
100
AcDbText
 10
40.89999396480766
 20
11.24999979480766
 30
0.0
 40
3.0
  1
溝幅
 50
90.0000001836389
 41
0.8695652190926274
  7
dcStyle0
 72
     5
 11
40.89999393916683
 21
19.24999991480765
 31
0.0
100
AcDbText
  0
TEXT
  5
F6
330
1F
100
AcDbEntity
  8
22
 62
     2
100
AcDbText
 10
8.49999987
 20
-10.80000331
 30
0.0
 40
3.0
  1
 25 
 41
0.8333333354166668
  7
dcStyle0
 72
     5
 11
18.50000002
 21
-10.80000331
 31
0.0
100
AcDbText
  0
LINE
  5
F7
330
1F
100
AcDbEntity
  8
32
  6
Continuous
 62
     4
370
    25
100
AcDbLine
 10
-182.0
 20
-128.25
 30
0.0
 11
-178.9999999552965
 21
-128.25
 31
0.0
  0
LINE
  5
F8
330
1F
100
AcDbEntity
  8
32
  6
Continuous
 62
     4
370
    25
100
AcDbLine
 10
-178.9999999552965
 20
-128.25
 30
0.0
 11
-178.9999999552965
 21
-125.2499999552965
 31
0.0
  0
LINE
  5
F9
330
1F
100
AcDbEntity
  8
32
  6
Continuous
 62
     4
370
    25
100
AcDbLine
 10
-178.9999999552965
 20
-125.2499999552965
 30
0.0
 11
-182.0
 21
-125.2499999552965
 31
0.0
  0
LINE
  5
FA
330
1F
100
AcDbEntity
  8
32
  6
Continuous
 62
     4
370
    25
100
AcDbLine
 10
-182.0
 20
-125.2499999552965
 30
0.0
 11
-182.0
 21
-128.25
 31
0.0
  0
LINE
  5
FB
330
1F
100
AcDbEntity
  8
32
  6
Continuous
 62
     4
370
    25
100
AcDbLine
 10
-182.0
 20
-128.25
 30
0.0
 11
-178.9999999552965
 21
-128.25
 31
0.0
  0
LINE
  5
FC
330
1F
100
AcDbEntity
  8
32
  6
Continuous
 62
     4
370
    25
100
AcDbLine
 10
-178.9999999552965
 20
-128.25
 30
0.0
 11
-178.9999999552965
 21
-125.2499999552965
 31
0.0
  0
LINE
  5
FD
330
1F
100
AcDbEntity
  8
32
  6
Continuous
 62
     4
370
    25
100
AcDbLine
 10
-178.9999999552965
 20
-125.2499999552965
 30
0.0
 11
-182.0
 21
-125.2499999552965
 31
0.0
  0
LINE
  5
FE
330
1F
100
AcDbEntity
  8
32
  6
Continuous
 62
     4
370
    25
100
AcDbLine
 10
-182.0
 20
-125.2499999552965
 30
0.0
 11
-182.0
 21
-128.25
 31
0.0
  0
LINE
  5
FF
330
1F
100
AcDbEntity
  8
32
  6
Continuous
 62
     4
370
    25
100
AcDbLine
 10
-182.0
 20
-128.25
 30
0.0
 11
-178.9999999552965
 21
-128.25
 31
0.0
  0
LINE
  5
100
330
1F
100
AcDbEntity
  8
32
  6
Continuous
 62
     4
370
    25
100
AcDbLine
 10
-178.9999999552965
 20
-128.25
 30
0.0
 11
-178.9999999552965
 21
-125.2499999552965
 31
0.0
  0
LINE
  5
101
330
1F
100
AcDbEntity
  8
32
  6
Continuous
 62
     4
370
    25
100
AcDbLine
 10
-178.9999999552965
 20
-125.2499999552965
 30
0.0
 11
-182.0
 21
-125.2499999552965
 31
0.0
  0
LINE
  5
102
330
1F
100
AcDbEntity
  8
32
  6
Continuous
 62
     4
370
    25
100
AcDbLine
 10
-182.0
 20
-125.2499999552965
 30
0.0
 11
-182.0
 21
-128.25
 31
0.0
  0
LINE
  5
103
330
1F
100
AcDbEntity
  8
32
  6
Continuous
 62
     4
370
    25
100
AcDbLine
 10
-182.0
 20
-128.25
 30
0.0
 11
-178.9999999552965
 21
-128.25
 31
0.0
  0
LINE
  5
104
330
1F
100
AcDbEntity
  8
32
  6
Continuous
 62
     4
370
    25
100
AcDbLine
 10
-178.9999999552965
 20
-128.25
 30
0.0
 11
-178.9999999552965
 21
-125.2499999552965
 31
0.0
  0
LINE
  5
105
330
1F
100
AcDbEntity
  8
32
  6
Continuous
 62
     4
370
    25
100
AcDbLine
 10
-178.9999999552965
 20
-125.2499999552965
 30
0.0
 11
-182.0
 21
-125.2499999552965
 31
0.0
  0
LINE
  5
106
330
1F
100
AcDbEntity
  8
32
  6
Continuous
 62
     4
370
    25
100
AcDbLine
 10
-182.0
 20
-125.2499999552965
 30
0.0
 11
-182.0
 21
-128.25
 31
0.0
  0
LINE
  5
107
330
1F
100
AcDbEntity
  8
32
  6
Continuous
 62
     4
370
    25
100
AcDbLine
 10
-182.0
 20
-128.25
 30
0.0
 11
-178.9999999552965
 21
-128.25
 31
0.0
  0
LINE
  5
108
330
1F
100
AcDbEntity
  8
32
  6
Continuous
 62
     4
370
    25
100
AcDbLine
 10
-178.9999999552965
 20
-128.25
 30
0.0
 11
-178.9999999552965
 21
-125.2499999552965
 31
0.0
  0
LINE
  5
109
330
1F
100
AcDbEntity
  8
32
  6
Continuous
 62
     4
370
    25
100
AcDbLine
 10
-178.9999999552965
 20
-125.2499999552965
 30
0.0
 11
-182.0
 21
-125.2499999552965
 31
0.0
  0
LINE
  5
10A
330
1F
100
AcDbEntity
  8
32
  6
Continuous
 62
     4
370
    25
100
AcDbLine
 10
-182.0
 20
-125.2499999552965
 30
0.0
 11
-182.0
 21
-128.25
 31
0.0
  0
LINE
  5
10B
330
1F
100
AcDbEntity
  8
32
  6
Continuous
 62
     4
370
    25
100
AcDbLine
 10
-3.099997334182262
 20
-87.64999939501286
 30
0.0
 11
-0.5999973341822624
 21
-87.64999939501286
 31
0.0
  0
LINE
  5
10C
330
1F
100
AcDbEntity
  8
32
  6
Continuous
 62
     4
370
    25
100
AcDbLine
 10
-0.5999973341822624
 20
-87.64999939501286
 30
0.0
 11
-0.5999973341822624
 21
-105.6499993950129
 31
0.0
  0
LINE
  5
10D
330
1F
100
AcDbEntity
  8
32
  6
Continuous
 62
     4
370
    25
100
AcDbLine
 10
-3.099997334182262
 20
-105.6499993950129
 30
0.0
 11
-3.099997334182262
 21
-87.64999939501286
 31
0.0
  0
LINE
  5
10E
330
1F
100
AcDbEntity
  8
32
  6
Continuous
 62
     4
370
    25
100
AcDbLine
 10
-0.5999973341822624
 20
-87.64999939501286
 30
0.0
 11
-1.599997334182262
 21
-88.24999941885471
 31
0.0
  0
LINE
  5
10F
330
1F
100
AcDbEntity
  8
32
  6
Continuous
 62
     4
370
    25
100
AcDbLine
 10
-1.599997334182262
 20
-88.24999941885471
 30
0.0
 11
-1.599997334182262
 21
-90.049999371171
 31
0.0
  0
LINE
  5
110
330
1F
100
AcDbEntity
  8
32
  6
Continuous
 62
     4
370
    25
100
AcDbLine
 10
-1.599997334182262
 20
-90.049999371171
 30
0.0
 11
-0.5999973341822624
 21
-90.64999939501286
 31
0.0
  0
LINE
  5
111
330
1F
100
AcDbEntity
  8
32
  6
Continuous
 62
     4
370
    25
100
AcDbLine
 10
-0.5999973341822624
 20
-90.64999939501286
 30
0.0
 11
-1.599997334182262
 21
-91.24999941885471
 31
0.0
  0
LINE
  5
112
330
1F
100
AcDbEntity
  8
32
  6
Continuous
 62
     4
370
    25
100
AcDbLine
 10
-1.599997334182262
 20
-91.24999941885471
 30
0.0
 11
-1.599997334182262
 21
-93.049999371171
 31
0.0
  0
LINE
  5
113
330
1F
100
AcDbEntity
  8
32
  6
Continuous
 62
     4
370
    25
100
AcDbLine
 10
-1.599997334182262
 20
-93.049999371171
 30
0.0
 11
-0.5999973341822624
 21
-93.64999939501286
 31
0.0
  0
LINE
  5
114
330
1F
100
AcDbEntity
  8
32
  6
Continuous
 62
     4
370
    25
100
AcDbLine
 10
-0.5999973341822624
 20
-93.64999939501286
 30
0.0
 11
-1.599997334182262
 21
-94.24999941885471
 31
0.0
  0
LINE
  5
115
330
1F
100
AcDbEntity
  8
32
  6
Continuous
 62
     4
370
    25
100
AcDbLine
 10
-1.599997334182262
 20
-94.24999941885471
 30
0.0
 11
-1.599997334182262
 21
-96.049999371171
 31
0.0
  0
LINE
  5
116
330
1F
100
AcDbEntity
  8
32
  6
Continuous
 62
     4
370
    25
100
AcDbLine
 10
-1.599997334182262
 20
-96.049999371171
 30
0.0
 11
-0.5999973341822624
 21
-96.64999939501286
 31
0.0
  0
LINE
  5
117
330
1F
100
AcDbEntity
  8
32
  6
Continuous
 62
     4
370
    25
100
AcDbLine
 10
-0.5999973341822624
 20
-96.64999939501286
 30
0.0
 11
-1.599997334182262
 21
-97.24999941885471
 31
0.0
  0
LINE
  5
118
330
1F
100
AcDbEntity
  8
32
  6
Continuous
 62
     4
370
    25
100
AcDbLine
 10
-1.599997334182262
 20
-97.24999941885471
 30
0.0
 11
-1.599997334182262
 21
-99.049999371171
 31
0.0
  0
LINE
  5
119
330
1F
100
AcDbEntity
  8
32
  6
Continuous
 62
     4
370
    25
100
AcDbLine
 10
-1.599997334182262
 20
-99.049999371171
 30
0.0
 11
-0.5999973341822624
 21
-99.64999939501286
 31
0.0
  0
LINE
  5
11A
330
1F
100
AcDbEntity
  8
32
  6
Continuous
 62
     4
370
    25
100
AcDbLine
 10
-0.5999973341822624
 20
-99.64999939501286
 30
0.0
 11
-1.599997334182262
 21
-100.2499994188547
 31
0.0
  0
LINE
  5
11B
330
1F
100
AcDbEntity
  8
32
  6
Continuous
 62
     4
370
    25
100
AcDbLine
 10
-1.599997334182262
 20
-100.2499994188547
 30
0.0
 11
-1.599997334182262
 21
-102.049999371171
 31
0.0
  0
LINE
  5
11C
330
1F
100
AcDbEntity
  8
32
  6
Continuous
 62
     4
370
    25
100
AcDbLine
 10
-1.599997334182262
 20
-102.049999371171
 30
0.0
 11
-0.5999973341822624
 21
-102.6499993950129
 31
0.0
  0
LINE
  5
11D
330
1F
100
AcDbEntity
  8
32
  6
Continuous
 62
     4
370
    25
100
AcDbLine
 10
-0.5999973341822624
 20
-102.6499993950129
 30
0.0
 11
-1.599997334182262
 21
-103.2499994188547
 31
0.0
  0
LINE
  5
11E
330
1F
100
AcDbEntity
  8
32
  6
Continuous
 62
     4
370
    25
100
AcDbLine
 10
-1.599997334182262
 20
-103.2499994188547
 30
0.0
 11
-1.599997334182262
 21
-105.049999371171
 31
0.0
  0
LINE
  5
11F
330
1F
100
AcDbEntity
  8
32
  6
Continuous
 62
     4
370
    25
100
AcDbLine
 10
-1.599997334182262
 20
-105.049999371171
 30
0.0
 11
-0.5999973341822624
 21
-105.6499993950129
 31
0.0
  0
LINE
  5
120
330
1F
100
AcDbEntity
  8
32
  6
Continuous
 62
     4
370
    25
100
AcDbLine
 10
-2.099997334182262
 20
-87.64999939501286
 30
0.0
 11
-2.099997334182262
 21
-88.549999371171
 31
0.0
  0
LINE
  5
121
330
1F
100
AcDbEntity
  8
32
  6
Continuous
 62
     4
370
    25
100
AcDbLine
 10
-2.099997334182262
 20
-88.549999371171
 30
0.0
 11
-3.099997334182262
 21
-89.14999939501286
 31
0.0
  0
LINE
  5
122
330
1F
100
AcDbEntity
  8
32
  6
Continuous
 62
     4
370
    25
100
AcDbLine
 10
-3.099997334182262
 20
-89.14999939501286
 30
0.0
 11
-2.099997334182262
 21
-89.74999941885471
 31
0.0
  0
LINE
  5
123
330
1F
100
AcDbEntity
  8
32
  6
Continuous
 62
     4
370
    25
100
AcDbLine
 10
-2.099997334182262
 20
-89.74999941885471
 30
0.0
 11
-2.099997334182262
 21
-91.549999371171
 31
0.0
  0
LINE
  5
124
330
1F
100
AcDbEntity
  8
32
  6
Continuous
 62
     4
370
    25
100
AcDbLine
 10
-2.099997334182262
 20
-91.549999371171
 30
0.0
 11
-3.099997334182262
 21
-92.14999939501286
 31
0.0
  0
LINE
  5
125
330
1F
100
AcDbEntity
  8
32
  6
Continuous
 62
     4
370
    25
100
AcDbLine
 10
-3.099997334182262
 20
-92.14999939501286
 30
0.0
 11
-2.099997334182262
 21
-92.74999941885471
 31
0.0
  0
LINE
  5
126
330
1F
100
AcDbEntity
  8
32
  6
Continuous
 62
     4
370
    25
100
AcDbLine
 10
-2.099997334182262
 20
-92.74999941885471
 30
0.0
 11
-2.099997334182262
 21
-94.549999371171
 31
0.0
  0
LINE
  5
127
330
1F
100
AcDbEntity
  8
32
  6
Continuous
 62
     4
370
    25
100
AcDbLine
 10
-2.099997334182262
 20
-94.549999371171
 30
0.0
 11
-3.099997334182262
 21
-95.14999939501286
 31
0.0
  0
LINE
  5
128
330
1F
100
AcDbEntity
  8
32
  6
Continuous
 62
     4
370
    25
100
AcDbLine
 10
-3.099997334182262
 20
-95.14999939501286
 30
0.0
 11
-2.099997334182262
 21
-95.74999941885471
 31
0.0
  0
LINE
  5
129
330
1F
100
AcDbEntity
  8
32
  6
Continuous
 62
     4
370
    25
100
AcDbLine
 10
-2.099997334182262
 20
-95.74999941885471
 30
0.0
 11
-2.099997334182262
 21
-97.549999371171
 31
0.0
  0
LINE
  5
12A
330
1F
100
AcDbEntity
  8
32
  6
Continuous
 62
     4
370
    25
100
AcDbLine
 10
-2.099997334182262
 20
-97.549999371171
 30
0.0
 11
-3.099997334182262
 21
-98.14999939501286
 31
0.0
  0
LINE
  5
12B
330
1F
100
AcDbEntity
  8
32
  6
Continuous
 62
     4
370
    25
100
AcDbLine
 10
-3.099997334182262
 20
-98.14999939501286
 30
0.0
 11
-2.099997334182262
 21
-98.74999941885471
 31
0.0
  0
LINE
  5
12C
330
1F
100
AcDbEntity
  8
32
  6
Continuous
 62
     4
370
    25
100
AcDbLine
 10
-2.099997334182262
 20
-98.74999941885471
 30
0.0
 11
-2.099997334182262
 21
-100.549999371171
 31
0.0
  0
LINE
  5
12D
330
1F
100
AcDbEntity
  8
32
  6
Continuous
 62
     4
370
    25
100
AcDbLine
 10
-2.099997334182262
 20
-100.549999371171
 30
0.0
 11
-3.099997334182262
 21
-101.1499993950129
 31
0.0
  0
LINE
  5
12E
330
1F
100
AcDbEntity
  8
32
  6
Continuous
 62
     4
370
    25
100
AcDbLine
 10
-3.099997334182262
 20
-101.1499993950129
 30
0.0
 11
-2.099997334182262
 21
-101.7499994188547
 31
0.0
  0
LINE
  5
12F
330
1F
100
AcDbEntity
  8
32
  6
Continuous
 62
     4
370
    25
100
AcDbLine
 10
-2.099997334182262
 20
-101.7499994188547
 30
0.0
 11
-2.099997334182262
 21
-103.549999371171
 31
0.0
  0
LINE
  5
130
330
1F
100
AcDbEntity
  8
32
  6
Continuous
 62
     4
370
    25
100
AcDbLine
 10
-2.099997334182262
 20
-103.549999371171
 30
0.0
 11
-3.099997334182262
 21
-104.1499993950129
 31
0.0
  0
LINE
  5
131
330
1F
100
AcDbEntity
  8
32
  6
Continuous
 62
     4
370
    25
100
AcDbLine
 10
-3.099997334182262
 20
-104.1499993950129
 30
0.0
 11
-2.099997334182262
 21
-104.7499994188547
 31
0.0
  0
LINE
  5
132
330
1F
100
AcDbEntity
  8
32
  6
Continuous
 62
     4
370
    25
100
AcDbLine
 10
-2.099997334182262
 20
-104.7499994188547
 30
0.0
 11
-2.099997334182262
 21
-105.6499993950129
 31
0.0
  0
LINE
  5
133
330
1F
100
AcDbEntity
  8
32
  6
Continuous
 62
     4
370
    25
100
AcDbLine
 10
-3.099997334182262
 20
-87.14999938756227
 30
0.0
 11
-3.099997334182262
 21
-83.14999932795763
 31
0.0
  0
LINE
  5
134
330
1F
100
AcDbEntity
  8
32
  6
Continuous
 62
     4
370
    25
100
AcDbLine
 10
-3.099997334182262
 20
-83.64999933540821
 30
0.0
 11
-4.599997356534004
 21
-83.24999932944775
 31
0.0
  0
LINE
  5
135
330
1F
100
AcDbEntity
  8
32
  6
Continuous
 62
     4
370
    25
100
AcDbLine
 10
-4.599997356534004
 20
-84.04999934136868
 30
0.0
 11
-3.099997334182262
 21
-83.64999933540821
 31
0.0
  0
LINE
  5
136
330
1F
100
AcDbEntity
  8
32
  6
Continuous
 62
     4
370
    25
100
AcDbLine
 10
-3.099997334182262
 20
-83.64999933540821
 30
0.0
 11
-6.099997378885746
 21
-83.64999933540821
 31
0.0
  0
LINE
  5
137
330
1F
100
AcDbEntity
  8
32
  6
Continuous
 62
     4
370
    25
100
AcDbLine
 10
-3.099997334182262
 20
-83.64999933540821
 30
0.0
 11
-0.5999972969293594
 21
-83.64999933540821
 31
0.0
  0
LINE
  5
138
330
1F
100
AcDbEntity
  8
32
  6
Continuous
 62
     4
370
    25
100
AcDbLine
 10
-0.5999972969293594
 20
-83.64999933540821
 30
0.0
 11
0.9000027254223824
 21
-83.24999932944775
 31
0.0
  0
LINE
  5
139
330
1F
100
AcDbEntity
  8
32
  6
Continuous
 62
     4
370
    25
100
AcDbLine
 10
0.9000027254223824
 20
-84.04999934136868
 30
0.0
 11
-0.5999972969293594
 21
-83.64999933540821
 31
0.0
  0
LINE
  5
13A
330
1F
100
AcDbEntity
  8
32
  6
Continuous
 62
     4
370
    25
100
AcDbLine
 10
-0.5999972969293594
 20
-83.64999933540821
 30
0.0
 11
2.400002747774124
 21
-83.64999933540821
 31
0.0
  0
LINE
  5
13B
330
1F
100
AcDbEntity
  8
32
  6
Continuous
 62
     4
370
    25
100
AcDbLine
 10
-0.5999972969293594
 20
-83.14999932795763
 30
0.0
 11
-0.5999972969293594
 21
-87.14999938756227
 31
0.0
  0
LINE
  5
13C
330
1F
100
AcDbEntity
  8
32
  6
Continuous
 62
     4
370
    25
100
AcDbLine
 10
6.400003030896187
 20
-111.1499994024634
 30
0.0
 11
-19.09999734908342
 21
-111.1499994024634
 31
0.0
  0
TEXT
  5
13D
330
1F
100
AcDbEntity
  8
32
 62
     2
100
AcDbText
 10
-4.84999736
 20
-83.14999933
 30
0.0
 40
2.5
  1
 5 
 41
0.8000000021333332
  7
dcStyle0
 72
     5
 11
1.15000272
 21
-83.14999933
 31
0.0
100
AcDbText
  0
TEXT
  5
13E
330
1F
100
AcDbEntity
  8
32
 62
     2
100
AcDbText
 10
-18.09999733
 20
-110.6499994
 30
0.0
 40
2.5
  1
主部材ノンスリップ部詳細
 41
0.6666666697222222
  7
dcStyle0
 72
     5
 11
5.900002999999998
 21
-110.6499994
 31
0.0
100
AcDbText
  0
LINE
  5
13F
330
1F
100
AcDbEntity
  8
16
  6
Continuous
 62
     3
370
    25
100
AcDbLine
 10
-182.0
 20
-128.25
 30
0.0
 11
-178.9999999552965
 21
-128.25
 31
0.0
  0
LINE
  5
140
330
1F
100
AcDbEntity
  8
16
  6
Continuous
 62
     3
370
    25
100
AcDbLine
 10
-178.9999999552965
 20
-128.25
 30
0.0
 11
-178.9999999552965
 21
-125.2499999552965
 31
0.0
  0
LINE
  5
141
330
1F
100
AcDbEntity
  8
16
  6
Continuous
 62
     3
370
    25
100
AcDbLine
 10
-178.9999999552965
 20
-125.2499999552965
 30
0.0
 11
-182.0
 21
-125.2499999552965
 31
0.0
  0
LINE
  5
142
330
1F
100
AcDbEntity
  8
16
  6
Continuous
 62
     3
370
    25
100
AcDbLine
 10
-182.0
 20
-125.2499999552965
 30
0.0
 11
-182.0
 21
-128.25
 31
0.0
  0
LINE
  5
143
330
1F
100
AcDbEntity
  8
16
  6
Continuous
 62
     3
370
    25
100
AcDbLine
 10
-182.0
 20
-128.25
 30
0.0
 11
-178.9999999552965
 21
-128.25
 31
0.0
  0
LINE
  5
144
330
1F
100
AcDbEntity
  8
16
  6
Continuous
 62
     3
370
    25
100
AcDbLine
 10
-178.9999999552965
 20
-128.25
 30
0.0
 11
-178.9999999552965
 21
-125.2499999552965
 31
0.0
  0
LINE
  5
145
330
1F
100
AcDbEntity
  8
16
  6
Continuous
 62
     3
370
    25
100
AcDbLine
 10
-178.9999999552965
 20
-125.2499999552965
 30
0.0
 11
-182.0
 21
-125.2499999552965
 31
0.0
  0
LINE
  5
146
330
1F
100
AcDbEntity
  8
16
  6
Continuous
 62
     3
370
    25
100
AcDbLine
 10
-182.0
 20
-125.2499999552965
 30
0.0
 11
-182.0
 21
-128.25
 31
0.0
  0
LINE
  5
147
330
1F
100
AcDbEntity
  8
16
  6
Continuous
 62
     3
370
    25
100
AcDbLine
 10
-182.0
 20
-128.25
 30
0.0
 11
-178.9999999552965
 21
-128.25
 31
0.0
  0
LINE
  5
148
330
1F
100
AcDbEntity
  8
16
  6
Continuous
 62
     3
370
    25
100
AcDbLine
 10
-178.9999999552965
 20
-128.25
 30
0.0
 11
-178.9999999552965
 21
-125.2499999552965
 31
0.0
  0
LINE
  5
149
330
1F
100
AcDbEntity
  8
16
  6
Continuous
 62
     3
370
    25
100
AcDbLine
 10
-178.9999999552965
 20
-125.2499999552965
 30
0.0
 11
-182.0
 21
-125.2499999552965
 31
0.0
  0
LINE
  5
14A
330
1F
100
AcDbEntity
  8
16
  6
Continuous
 62
     3
370
    25
100
AcDbLine
 10
-182.0
 20
-125.2499999552965
 30
0.0
 11
-182.0
 21
-128.25
 31
0.0
  0
LINE
  5
14B
330
1F
100
AcDbEntity
  8
16
  6
Continuous
 62
     3
370
    25
100
AcDbLine
 10
-182.0
 20
-128.25
 30
0.0
 11
-178.9999999552965
 21
-128.25
 31
0.0
  0
LINE
  5
14C
330
1F
100
AcDbEntity
  8
16
  6
Continuous
 62
     3
370
    25
100
AcDbLine
 10
-178.9999999552965
 20
-128.25
 30
0.0
 11
-178.9999999552965
 21
-125.2499999552965
 31
0.0
  0
LINE
  5
14D
330
1F
100
AcDbEntity
  8
16
  6
Continuous
 62
     3
370
    25
100
AcDbLine
 10
-178.9999999552965
 20
-125.2499999552965
 30
0.0
 11
-182.0
 21
-125.2499999552965
 31
0.0
  0
LINE
  5
14E
330
1F
100
AcDbEntity
  8
16
  6
Continuous
 62
     3
370
    25
100
AcDbLine
 10
-182.0
 20
-125.2499999552965
 30
0.0
 11
-182.0
 21
-128.25
 31
0.0
  0
LINE
  5
14F
330
1F
100
AcDbEntity
  8
16
  6
Continuous
 62
     3
370
    25
100
AcDbLine
 10
-182.0
 20
-128.25
 30
0.0
 11
-178.9999999552965
 21
-128.25
 31
0.0
  0
LINE
  5
150
330
1F
100
AcDbEntity
  8
16
  6
Continuous
 62
     3
370
    25
100
AcDbLine
 10
-178.9999999552965
 20
-128.25
 30
0.0
 11
-178.9999999552965
 21
-125.2499999552965
 31
0.0
  0
LINE
  5
151
330
1F
100
AcDbEntity
  8
16
  6
Continuous
 62
     3
370
    25
100
AcDbLine
 10
-178.9999999552965
 20
-125.2499999552965
 30
0.0
 11
-182.0
 21
-125.2499999552965
 31
0.0
  0
LINE
  5
152
330
1F
100
AcDbEntity
  8
16
  6
Continuous
 62
     3
370
    25
100
AcDbLine
 10
-182.0
 20
-125.2499999552965
 30
0.0
 11
-182.0
 21
-128.25
 31
0.0
  0
LINE
  5
153
330
1F
100
AcDbEntity
  8
16
  6
Continuous
 62
     3
370
    25
100
AcDbLine
 10
-154.375
 20
28.875
 30
0.0
 11
-30.0
 21
28.875
 31
0.0
  0
LINE
  5
154
330
1F
100
AcDbEntity
  8
16
  6
Continuous
 62
     3
370
    25
100
AcDbLine
 10
-30.0
 20
28.875
 30
0.0
 11
-30.0
 21
23.875
 31
0.0
  0
LINE
  5
155
330
1F
100
AcDbEntity
  8
16
  6
Continuous
 62
     3
370
    25
100
AcDbLine
 10
-30.0
 20
23.875
 30
0.0
 11
-154.375
 21
23.875
 31
0.0
  0
LINE
  5
156
330
1F
100
AcDbEntity
  8
16
  6
Continuous
 62
     3
370
    25
100
AcDbLine
 10
-154.375
 20
23.875
 30
0.0
 11
-154.375
 21
28.875
 31
0.0
  0
LINE
  5
157
330
1F
100
AcDbEntity
  8
16
  6
Continuous
 62
     3
370
    25
100
AcDbLine
 10
-154.375
 20
7.625
 30
0.0
 11
-30.0
 21
7.625
 31
0.0
  0
LINE
  5
158
330
1F
100
AcDbEntity
  8
16
  6
Continuous
 62
     3
370
    25
100
AcDbLine
 10
-30.0
 20
7.625
 30
0.0
 11
-30.0
 21
2.625
 31
0.0
  0
LINE
  5
159
330
1F
100
AcDbEntity
  8
16
  6
Continuous
 62
     3
370
    25
100
AcDbLine
 10
-30.0
 20
2.625
 30
0.0
 11
-154.375
 21
2.625
 31
0.0
  0
LINE
  5
15A
330
1F
100
AcDbEntity
  8
16
  6
Continuous
 62
     3
370
    25
100
AcDbLine
 10
-154.375
 20
2.625
 30
0.0
 11
-154.375
 21
7.625
 31
0.0
  0
LINE
  5
15B
330
1F
100
AcDbEntity
  8
16
  6
Continuous
 62
     3
370
    25
100
AcDbLine
 10
-154.375
 20
19.25
 30
0.0
 11
-30.0
 21
19.25
 31
0.0
  0
LINE
  5
15C
330
1F
100
AcDbEntity
  8
16
  6
Continuous
 62
     3
370
    25
100
AcDbLine
 10
-30.0
 20
18.5
 30
0.0
 11
-30.0
 21
19.25
 31
0.0
  0
LINE
  5
15D
330
1F
100
AcDbEntity
  8
16
  6
Continuous
 62
     3
370
    25
100
AcDbLine
 10
-154.375
 20
18.5
 30
0.0
 11
-30.0
 21
18.5
 31
0.0
  0
LINE
  5
15E
330
1F
100
AcDbEntity
  8
16
  6
Continuous
 62
     3
370
    25
100
AcDbLine
 10
-154.375
 20
18.5
 30
0.0
 11
-154.375
 21
19.25
 31
0.0
  0
LINE
  5
15F
330
1F
100
AcDbEntity
  8
16
  6
Continuous
 62
     3
370
    25
100
AcDbLine
 10
-153.75
 20
18.5
 30
0.0
 11
-150.625
 21
19.25
 31
0.0
  0
LINE
  5
160
330
1F
100
AcDbEntity
  8
16
  6
Continuous
 62
     3
370
    25
100
AcDbLine
 10
-150.0
 20
18.5
 30
0.0
 11
-146.875
 21
19.25
 31
0.0
  0
LINE
  5
161
330
1F
100
AcDbEntity
  8
16
  6
Continuous
 62
     3
370
    25
100
AcDbLine
 10
-146.25
 20
18.5
 30
0.0
 11
-143.125
 21
19.25
 31
0.0
  0
LINE
  5
162
330
1F
100
AcDbEntity
  8
16
  6
Continuous
 62
     3
370
    25
100
AcDbLine
 10
-142.5
 20
18.5
 30
0.0
 11
-139.375
 21
19.25
 31
0.0
  0
LINE
  5
163
330
1F
100
AcDbEntity
  8
16
  6
Continuous
 62
     3
370
    25
100
AcDbLine
 10
-138.75
 20
18.5
 30
0.0
 11
-135.625
 21
19.25
 31
0.0
  0
LINE
  5
164
330
1F
100
AcDbEntity
  8
16
  6
Continuous
 62
     3
370
    25
100
AcDbLine
 10
-135.0
 20
18.5
 30
0.0
 11
-131.875
 21
19.25
 31
0.0
  0
LINE
  5
165
330
1F
100
AcDbEntity
  8
16
  6
Continuous
 62
     3
370
    25
100
AcDbLine
 10
-131.25
 20
18.5
 30
0.0
 11
-128.125
 21
19.25
 31
0.0
  0
LINE
  5
166
330
1F
100
AcDbEntity
  8
16
  6
Continuous
 62
     3
370
    25
100
AcDbLine
 10
-127.5
 20
18.5
 30
0.0
 11
-124.375
 21
19.25
 31
0.0
  0
LINE
  5
167
330
1F
100
AcDbEntity
  8
16
  6
Continuous
 62
     3
370
    25
100
AcDbLine
 10
-123.75
 20
18.5
 30
0.0
 11
-120.625
 21
19.25
 31
0.0
  0
LINE
  5
168
330
1F
100
AcDbEntity
  8
16
  6
Continuous
 62
     3
370
    25
100
AcDbLine
 10
-120.0
 20
18.5
 30
0.0
 11
-116.875
 21
19.25
 31
0.0
  0
LINE
  5
169
330
1F
100
AcDbEntity
  8
16
  6
Continuous
 62
     3
370
    25
100
AcDbLine
 10
-116.25
 20
18.5
 30
0.0
 11
-113.125
 21
19.25
 31
0.0
  0
LINE
  5
16A
330
1F
100
AcDbEntity
  8
16
  6
Continuous
 62
     3
370
    25
100
AcDbLine
 10
-112.5
 20
18.5
 30
0.0
 11
-109.375
 21
19.25
 31
0.0
  0
LINE
  5
16B
330
1F
100
AcDbEntity
  8
16
  6
Continuous
 62
     3
370
    25
100
AcDbLine
 10
-108.75
 20
18.5
 30
0.0
 11
-105.625
 21
19.25
 31
0.0
  0
LINE
  5
16C
330
1F
100
AcDbEntity
  8
16
  6
Continuous
 62
     3
370
    25
100
AcDbLine
 10
-105.0
 20
18.5
 30
0.0
 11
-101.875
 21
19.25
 31
0.0
  0
LINE
  5
16D
330
1F
100
AcDbEntity
  8
16
  6
Continuous
 62
     3
370
    25
100
AcDbLine
 10
-101.25
 20
18.5
 30
0.0
 11
-98.125
 21
19.25
 31
0.0
  0
LINE
  5
16E
330
1F
100
AcDbEntity
  8
16
  6
Continuous
 62
     3
370
    25
100
AcDbLine
 10
-97.5
 20
18.5
 30
0.0
 11
-94.375
 21
19.25
 31
0.0
  0
LINE
  5
16F
330
1F
100
AcDbEntity
  8
16
  6
Continuous
 62
     3
370
    25
100
AcDbLine
 10
-93.75
 20
18.5
 30
0.0
 11
-90.625
 21
19.25
 31
0.0
  0
LINE
  5
170
330
1F
100
AcDbEntity
  8
16
  6
Continuous
 62
     3
370
    25
100
AcDbLine
 10
-90.0
 20
18.5
 30
0.0
 11
-86.875
 21
19.25
 31
0.0
  0
LINE
  5
171
330
1F
100
AcDbEntity
  8
16
  6
Continuous
 62
     3
370
    25
100
AcDbLine
 10
-86.25
 20
18.5
 30
0.0
 11
-83.125
 21
19.25
 31
0.0
  0
LINE
  5
172
330
1F
100
AcDbEntity
  8
16
  6
Continuous
 62
     3
370
    25
100
AcDbLine
 10
-82.5
 20
18.5
 30
0.0
 11
-79.375
 21
19.25
 31
0.0
  0
LINE
  5
173
330
1F
100
AcDbEntity
  8
16
  6
Continuous
 62
     3
370
    25
100
AcDbLine
 10
-78.75
 20
18.5
 30
0.0
 11
-75.625
 21
19.25
 31
0.0
  0
LINE
  5
174
330
1F
100
AcDbEntity
  8
16
  6
Continuous
 62
     3
370
    25
100
AcDbLine
 10
-75.0
 20
18.5
 30
0.0
 11
-71.875
 21
19.25
 31
0.0
  0
LINE
  5
175
330
1F
100
AcDbEntity
  8
16
  6
Continuous
 62
     3
370
    25
100
AcDbLine
 10
-71.25
 20
18.5
 30
0.0
 11
-68.125
 21
19.25
 31
0.0
  0
LINE
  5
176
330
1F
100
AcDbEntity
  8
16
  6
Continuous
 62
     3
370
    25
100
AcDbLine
 10
-67.5
 20
18.5
 30
0.0
 11
-64.375
 21
19.25
 31
0.0
  0
LINE
  5
177
330
1F
100
AcDbEntity
  8
16
  6
Continuous
 62
     3
370
    25
100
AcDbLine
 10
-63.75
 20
18.5
 30
0.0
 11
-60.625
 21
19.25
 31
0.0
  0
LINE
  5
178
330
1F
100
AcDbEntity
  8
16
  6
Continuous
 62
     3
370
    25
100
AcDbLine
 10
-60.0
 20
18.5
 30
0.0
 11
-56.875
 21
19.25
 31
0.0
  0
LINE
  5
179
330
1F
100
AcDbEntity
  8
16
  6
Continuous
 62
     3
370
    25
100
AcDbLine
 10
-56.25
 20
18.5
 30
0.0
 11
-53.125
 21
19.25
 31
0.0
  0
LINE
  5
17A
330
1F
100
AcDbEntity
  8
16
  6
Continuous
 62
     3
370
    25
100
AcDbLine
 10
-52.5
 20
18.5
 30
0.0
 11
-49.375
 21
19.25
 31
0.0
  0
LINE
  5
17B
330
1F
100
AcDbEntity
  8
16
  6
Continuous
 62
     3
370
    25
100
AcDbLine
 10
-48.75
 20
18.5
 30
0.0
 11
-45.625
 21
19.25
 31
0.0
  0
LINE
  5
17C
330
1F
100
AcDbEntity
  8
16
  6
Continuous
 62
     3
370
    25
100
AcDbLine
 10
-45.0
 20
18.5
 30
0.0
 11
-41.875
 21
19.25
 31
0.0
  0
LINE
  5
17D
330
1F
100
AcDbEntity
  8
16
  6
Continuous
 62
     3
370
    25
100
AcDbLine
 10
-41.25
 20
18.5
 30
0.0
 11
-38.125
 21
19.25
 31
0.0
  0
LINE
  5
17E
330
1F
100
AcDbEntity
  8
16
  6
Continuous
 62
     3
370
    25
100
AcDbLine
 10
-37.5
 20
18.5
 30
0.0
 11
-34.375
 21
19.25
 31
0.0
  0
LINE
  5
17F
330
1F
100
AcDbEntity
  8
16
  6
Continuous
 62
     3
370
    25
100
AcDbLine
 10
-33.75
 20
18.5
 30
0.0
 11
-30.625
 21
19.25
 31
0.0
  0
LINE
  5
180
330
1F
100
AcDbEntity
  8
16
  6
Continuous
 62
     3
370
    25
100
AcDbLine
 10
-154.375
 20
13.0
 30
0.0
 11
-30.0
 21
13.0
 31
0.0
  0
LINE
  5
181
330
1F
100
AcDbEntity
  8
16
  6
Continuous
 62
     3
370
    25
100
AcDbLine
 10
-30.0
 20
12.25
 30
0.0
 11
-30.0
 21
13.0
 31
0.0
  0
LINE
  5
182
330
1F
100
AcDbEntity
  8
16
  6
Continuous
 62
     3
370
    25
100
AcDbLine
 10
-154.375
 20
12.25
 30
0.0
 11
-30.0
 21
12.25
 31
0.0
  0
LINE
  5
183
330
1F
100
AcDbEntity
  8
16
  6
Continuous
 62
     3
370
    25
100
AcDbLine
 10
-154.375
 20
12.25
 30
0.0
 11
-154.375
 21
13.0
 31
0.0
  0
LINE
  5
184
330
1F
100
AcDbEntity
  8
16
  6
Continuous
 62
     3
370
    25
100
AcDbLine
 10
-153.75
 20
12.25
 30
0.0
 11
-150.625
 21
13.0
 31
0.0
  0
LINE
  5
185
330
1F
100
AcDbEntity
  8
16
  6
Continuous
 62
     3
370
    25
100
AcDbLine
 10
-150.0
 20
12.25
 30
0.0
 11
-146.875
 21
13.0
 31
0.0
  0
LINE
  5
186
330
1F
100
AcDbEntity
  8
16
  6
Continuous
 62
     3
370
    25
100
AcDbLine
 10
-146.25
 20
12.25
 30
0.0
 11
-143.125
 21
13.0
 31
0.0
  0
LINE
  5
187
330
1F
100
AcDbEntity
  8
16
  6
Continuous
 62
     3
370
    25
100
AcDbLine
 10
-142.5
 20
12.25
 30
0.0
 11
-139.375
 21
13.0
 31
0.0
  0
LINE
  5
188
330
1F
100
AcDbEntity
  8
16
  6
Continuous
 62
     3
370
    25
100
AcDbLine
 10
-138.75
 20
12.25
 30
0.0
 11
-135.625
 21
13.0
 31
0.0
  0
LINE
  5
189
330
1F
100
AcDbEntity
  8
16
  6
Continuous
 62
     3
370
    25
100
AcDbLine
 10
-135.0
 20
12.25
 30
0.0
 11
-131.875
 21
13.0
 31
0.0
  0
LINE
  5
18A
330
1F
100
AcDbEntity
  8
16
  6
Continuous
 62
     3
370
    25
100
AcDbLine
 10
-131.25
 20
12.25
 30
0.0
 11
-128.125
 21
13.0
 31
0.0
  0
LINE
  5
18B
330
1F
100
AcDbEntity
  8
16
  6
Continuous
 62
     3
370
    25
100
AcDbLine
 10
-127.5
 20
12.25
 30
0.0
 11
-124.375
 21
13.0
 31
0.0
  0
LINE
  5
18C
330
1F
100
AcDbEntity
  8
16
  6
Continuous
 62
     3
370
    25
100
AcDbLine
 10
-123.75
 20
12.25
 30
0.0
 11
-120.625
 21
13.0
 31
0.0
  0
LINE
  5
18D
330
1F
100
AcDbEntity
  8
16
  6
Continuous
 62
     3
370
    25
100
AcDbLine
 10
-120.0
 20
12.25
 30
0.0
 11
-116.875
 21
13.0
 31
0.0
  0
LINE
  5
18E
330
1F
100
AcDbEntity
  8
16
  6
Continuous
 62
     3
370
    25
100
AcDbLine
 10
-116.25
 20
12.25
 30
0.0
 11
-113.125
 21
13.0
 31
0.0
  0
LINE
  5
18F
330
1F
100
AcDbEntity
  8
16
  6
Continuous
 62
     3
370
    25
100
AcDbLine
 10
-112.5
 20
12.25
 30
0.0
 11
-109.375
 21
13.0
 31
0.0
  0
LINE
  5
190
330
1F
100
AcDbEntity
  8
16
  6
Continuous
 62
     3
370
    25
100
AcDbLine
 10
-108.75
 20
12.25
 30
0.0
 11
-105.625
 21
13.0
 31
0.0
  0
LINE
  5
191
330
1F
100
AcDbEntity
  8
16
  6
Continuous
 62
     3
370
    25
100
AcDbLine
 10
-105.0
 20
12.25
 30
0.0
 11
-101.875
 21
13.0
 31
0.0
  0
LINE
  5
192
330
1F
100
AcDbEntity
  8
16
  6
Continuous
 62
     3
370
    25
100
AcDbLine
 10
-101.25
 20
12.25
 30
0.0
 11
-98.125
 21
13.0
 31
0.0
  0
LINE
  5
193
330
1F
100
AcDbEntity
  8
16
  6
Continuous
 62
     3
370
    25
100
AcDbLine
 10
-97.5
 20
12.25
 30
0.0
 11
-94.375
 21
13.0
 31
0.0
  0
LINE
  5
194
330
1F
100
AcDbEntity
  8
16
  6
Continuous
 62
     3
370
    25
100
AcDbLine
 10
-93.75
 20
12.25
 30
0.0
 11
-90.625
 21
13.0
 31
0.0
  0
LINE
  5
195
330
1F
100
AcDbEntity
  8
16
  6
Continuous
 62
     3
370
    25
100
AcDbLine
 10
-90.0
 20
12.25
 30
0.0
 11
-86.875
 21
13.0
 31
0.0
  0
LINE
  5
196
330
1F
100
AcDbEntity
  8
16
  6
Continuous
 62
     3
370
    25
100
AcDbLine
 10
-86.25
 20
12.25
 30
0.0
 11
-83.125
 21
13.0
 31
0.0
  0
LINE
  5
197
330
1F
100
AcDbEntity
  8
16
  6
Continuous
 62
     3
370
    25
100
AcDbLine
 10
-82.5
 20
12.25
 30
0.0
 11
-79.375
 21
13.0
 31
0.0
  0
LINE
  5
198
330
1F
100
AcDbEntity
  8
16
  6
Continuous
 62
     3
370
    25
100
AcDbLine
 10
-78.75
 20
12.25
 30
0.0
 11
-75.625
 21
13.0
 31
0.0
  0
LINE
  5
199
330
1F
100
AcDbEntity
  8
16
  6
Continuous
 62
     3
370
    25
100
AcDbLine
 10
-75.0
 20
12.25
 30
0.0
 11
-71.875
 21
13.0
 31
0.0
  0
LINE
  5
19A
330
1F
100
AcDbEntity
  8
16
  6
Continuous
 62
     3
370
    25
100
AcDbLine
 10
-71.25
 20
12.25
 30
0.0
 11
-68.125
 21
13.0
 31
0.0
  0
LINE
  5
19B
330
1F
100
AcDbEntity
  8
16
  6
Continuous
 62
     3
370
    25
100
AcDbLine
 10
-67.5
 20
12.25
 30
0.0
 11
-64.375
 21
13.0
 31
0.0
  0
LINE
  5
19C
330
1F
100
AcDbEntity
  8
16
  6
Continuous
 62
     3
370
    25
100
AcDbLine
 10
-63.75
 20
12.25
 30
0.0
 11
-60.625
 21
13.0
 31
0.0
  0
LINE
  5
19D
330
1F
100
AcDbEntity
  8
16
  6
Continuous
 62
     3
370
    25
100
AcDbLine
 10
-60.0
 20
12.25
 30
0.0
 11
-56.875
 21
13.0
 31
0.0
  0
LINE
  5
19E
330
1F
100
AcDbEntity
  8
16
  6
Continuous
 62
     3
370
    25
100
AcDbLine
 10
-56.25
 20
12.25
 30
0.0
 11
-53.125
 21
13.0
 31
0.0
  0
LINE
  5
19F
330
1F
100
AcDbEntity
  8
16
  6
Continuous
 62
     3
370
    25
100
AcDbLine
 10
-52.5
 20
12.25
 30
0.0
 11
-49.375
 21
13.0
 31
0.0
  0
LINE
  5
1A0
330
1F
100
AcDbEntity
  8
16
  6
Continuous
 62
     3
370
    25
100
AcDbLine
 10
-48.75
 20
12.25
 30
0.0
 11
-45.625
 21
13.0
 31
0.0
  0
LINE
  5
1A1
330
1F
100
AcDbEntity
  8
16
  6
Continuous
 62
     3
370
    25
100
AcDbLine
 10
-45.0
 20
12.25
 30
0.0
 11
-41.875
 21
13.0
 31
0.0
  0
LINE
  5
1A2
330
1F
100
AcDbEntity
  8
16
  6
Continuous
 62
     3
370
    25
100
AcDbLine
 10
-41.25
 20
12.25
 30
0.0
 11
-38.125
 21
13.0
 31
0.0
  0
LINE
  5
1A3
330
1F
100
AcDbEntity
  8
16
  6
Continuous
 62
     3
370
    25
100
AcDbLine
 10
-37.5
 20
12.25
 30
0.0
 11
-34.375
 21
13.0
 31
0.0
  0
LINE
  5
1A4
330
1F
100
AcDbEntity
  8
16
  6
Continuous
 62
     3
370
    25
100
AcDbLine
 10
-33.75
 20
12.25
 30
0.0
 11
-30.625
 21
13.0
 31
0.0
  0
LINE
  5
1A5
330
1F
100
AcDbEntity
  8
16
  6
Continuous
 62
     3
370
    25
100
AcDbLine
 10
-154.375
 20
7.625
 30
0.0
 11
-154.375
 21
23.875
 31
0.0
  0
LINE
  5
1A6
330
1F
100
AcDbEntity
  8
16
  6
Continuous
 62
     3
370
    25
100
AcDbLine
 10
-154.375
 20
7.625
 30
0.0
 11
-153.75
 21
7.625
 31
0.0
  0
LINE
  5
1A7
330
1F
100
AcDbEntity
  8
16
  6
Continuous
 62
     3
370
    25
100
AcDbLine
 10
-153.75
 20
7.625
 30
0.0
 11
-153.75
 21
12.25
 31
0.0
  0
LINE
  5
1A8
330
1F
100
AcDbEntity
  8
16
  6
Continuous
 62
     3
370
    25
100
AcDbLine
 10
-153.75
 20
13.0
 30
0.0
 11
-153.75
 21
18.5
 31
0.0
  0
LINE
  5
1A9
330
1F
100
AcDbEntity
  8
16
  6
Continuous
 62
     3
370
    25
100
AcDbLine
 10
-153.75
 20
19.25
 30
0.0
 11
-153.75
 21
23.875
 31
0.0
  0
LINE
  5
1AA
330
1F
100
AcDbEntity
  8
16
  6
Continuous
 62
     3
370
    25
100
AcDbLine
 10
-154.375
 20
23.875
 30
0.0
 11
-153.75
 21
23.875
 31
0.0
  0
LINE
  5
1AB
330
1F
100
AcDbEntity
  8
16
  6
Continuous
 62
     3
370
    25
100
AcDbLine
 10
-154.0625
 20
15.47500038146973
 30
0.0
 11
-154.0625
 21
18.5
 31
0.0
  0
LINE
  5
1AC
330
1F
100
AcDbEntity
  8
16
  6
Continuous
 62
     3
370
    25
100
AcDbLine
 10
-154.0625
 20
19.25
 30
0.0
 11
-154.0625
 21
23.875
 31
0.0
  0
LINE
  5
1AD
330
1F
100
AcDbEntity
  8
16
  6
Continuous
 62
     3
370
    25
100
AcDbLine
 10
-153.75
 20
23.52500000596046
 30
0.0
 11
-154.375
 21
23.875
 31
0.0
  0
LINE
  5
1AE
330
1F
100
AcDbEntity
  8
16
  6
Continuous
 62
     3
370
    25
100
AcDbLine
 10
-154.375
 20
23.17500001192093
 30
0.0
 11
-153.75
 21
23.52500000596046
 31
0.0
  0
LINE
  5
1AF
330
1F
100
AcDbEntity
  8
16
  6
Continuous
 62
     3
370
    25
100
AcDbLine
 10
-153.75
 20
22.82500001788139
 30
0.0
 11
-154.375
 21
23.17500001192093
 31
0.0
  0
LINE
  5
1B0
330
1F
100
AcDbEntity
  8
16
  6
Continuous
 62
     3
370
    25
100
AcDbLine
 10
-154.375
 20
22.47500002384186
 30
0.0
 11
-153.75
 21
22.82500001788139
 31
0.0
  0
LINE
  5
1B1
330
1F
100
AcDbEntity
  8
16
  6
Continuous
 62
     3
370
    25
100
AcDbLine
 10
-153.75
 20
22.12500002980232
 30
0.0
 11
-154.375
 21
22.47500002384186
 31
0.0
  0
LINE
  5
1B2
330
1F
100
AcDbEntity
  8
16
  6
Continuous
 62
     3
370
    25
100
AcDbLine
 10
-154.375
 20
21.77500003576279
 30
0.0
 11
-153.75
 21
22.12500002980232
 31
0.0
  0
LINE
  5
1B3
330
1F
100
AcDbEntity
  8
16
  6
Continuous
 62
     3
370
    25
100
AcDbLine
 10
-153.75
 20
21.42500004172325
 30
0.0
 11
-154.375
 21
21.77500003576279
 31
0.0
  0
LINE
  5
1B4
330
1F
100
AcDbEntity
  8
16
  6
Continuous
 62
     3
370
    25
100
AcDbLine
 10
-154.375
 20
21.07500004768372
 30
0.0
 11
-153.75
 21
21.42500004172325
 31
0.0
  0
LINE
  5
1B5
330
1F
100
AcDbEntity
  8
16
  6
Continuous
 62
     3
370
    25
100
AcDbLine
 10
-153.75
 20
20.72500005364418
 30
0.0
 11
-154.375
 21
21.07500004768372
 31
0.0
  0
LINE
  5
1B6
330
1F
100
AcDbEntity
  8
16
  6
Continuous
 62
     3
370
    25
100
AcDbLine
 10
-154.375
 20
20.37500005960464
 30
0.0
 11
-153.75
 21
20.72500005364418
 31
0.0
  0
LINE
  5
1B7
330
1F
100
AcDbEntity
  8
16
  6
Continuous
 62
     3
370
    25
100
AcDbLine
 10
-153.75
 20
20.02500006556511
 30
0.0
 11
-154.375
 21
20.37500005960464
 31
0.0
  0
LINE
  5
1B8
330
1F
100
AcDbEntity
  8
16
  6
Continuous
 62
     3
370
    25
100
AcDbLine
 10
-154.375
 20
19.67500007152557
 30
0.0
 11
-153.75
 21
20.02500006556511
 31
0.0
  0
LINE
  5
1B9
330
1F
100
AcDbEntity
  8
16
  6
Continuous
 62
     3
370
    25
100
AcDbLine
 10
-153.75
 20
19.32500007748604
 30
0.0
 11
-154.375
 21
19.67500007152557
 31
0.0
  0
LINE
  5
1BA
330
1F
100
AcDbEntity
  8
16
  6
Continuous
 62
     3
370
    25
100
AcDbLine
 10
-154.375
 20
18.9750000834465
 30
0.0
 11
-153.75
 21
19.32500007748604
 31
0.0
  0
LINE
  5
1BB
330
1F
100
AcDbEntity
  8
16
  6
Continuous
 62
     3
370
    25
100
AcDbLine
 10
-154.375
 20
18.27500009536743
 30
0.0
 11
-153.9732144491709
 21
18.5
 31
0.0
  0
LINE
  5
1BC
330
1F
100
AcDbEntity
  8
16
  6
Continuous
 62
     3
370
    25
100
AcDbLine
 10
-153.75
 20
17.9250001013279
 30
0.0
 11
-154.375
 21
18.27500009536743
 31
0.0
  0
LINE
  5
1BD
330
1F
100
AcDbEntity
  8
16
  6
Continuous
 62
     3
370
    25
100
AcDbLine
 10
-154.375
 20
17.57500010728836
 30
0.0
 11
-153.75
 21
17.9250001013279
 31
0.0
  0
LINE
  5
1BE
330
1F
100
AcDbEntity
  8
16
  6
Continuous
 62
     3
370
    25
100
AcDbLine
 10
-153.75
 20
17.22500011324883
 30
0.0
 11
-154.375
 21
17.57500010728836
 31
0.0
  0
LINE
  5
1BF
330
1F
100
AcDbEntity
  8
16
  6
Continuous
 62
     3
370
    25
100
AcDbLine
 10
-154.375
 20
16.87500011920929
 30
0.0
 11
-153.75
 21
17.22500011324883
 31
0.0
  0
LINE
  5
1C0
330
1F
100
AcDbEntity
  8
16
  6
Continuous
 62
     3
370
    25
100
AcDbLine
 10
-153.75
 20
16.52500012516975
 30
0.0
 11
-154.375
 21
16.87500011920929
 31
0.0
  0
LINE
  5
1C1
330
1F
100
AcDbEntity
  8
16
  6
Continuous
 62
     3
370
    25
100
AcDbLine
 10
-154.375
 20
16.17500013113022
 30
0.0
 11
-153.75
 21
16.52500012516975
 31
0.0
  0
LINE
  5
1C2
330
1F
100
AcDbEntity
  8
16
  6
Continuous
 62
     3
370
    25
100
AcDbLine
 10
-153.75
 20
15.82500013709068
 30
0.0
 11
-154.375
 21
16.17500013113022
 31
0.0
  0
LINE
  5
1C3
330
1F
100
AcDbEntity
  8
16
  6
Continuous
 62
     3
370
    25
100
AcDbLine
 10
-154.375
 20
15.47500014305115
 30
0.0
 11
-153.75
 21
15.82500013709068
 31
0.0
  0
LINE
  5
1C4
330
1F
100
AcDbEntity
  8
16
  6
Continuous
 62
     3
370
    25
100
AcDbLine
 10
-150.625
 20
7.625
 30
0.0
 11
-150.625
 21
12.25
 31
0.0
  0
LINE
  5
1C5
330
1F
100
AcDbEntity
  8
16
  6
Continuous
 62
     3
370
    25
100
AcDbLine
 10
-150.625
 20
13.0
 30
0.0
 11
-150.625
 21
18.5
 31
0.0
  0
LINE
  5
1C6
330
1F
100
AcDbEntity
  8
16
  6
Continuous
 62
     3
370
    25
100
AcDbLine
 10
-150.625
 20
19.25
 30
0.0
 11
-150.625
 21
23.875
 31
0.0
  0
LINE
  5
1C7
330
1F
100
AcDbEntity
  8
16
  6
Continuous
 62
     3
370
    25
100
AcDbLine
 10
-150.625
 20
7.625
 30
0.0
 11
-150.0
 21
7.625
 31
0.0
  0
LINE
  5
1C8
330
1F
100
AcDbEntity
  8
16
  6
Continuous
 62
     3
370
    25
100
AcDbLine
 10
-150.0
 20
7.625
 30
0.0
 11
-150.0
 21
12.25
 31
0.0
  0
LINE
  5
1C9
330
1F
100
AcDbEntity
  8
16
  6
Continuous
 62
     3
370
    25
100
AcDbLine
 10
-150.0
 20
13.0
 30
0.0
 11
-150.0
 21
18.5
 31
0.0
  0
LINE
  5
1CA
330
1F
100
AcDbEntity
  8
16
  6
Continuous
 62
     3
370
    25
100
AcDbLine
 10
-150.0
 20
19.25
 30
0.0
 11
-150.0
 21
23.875
 31
0.0
  0
LINE
  5
1CB
330
1F
100
AcDbEntity
  8
16
  6
Continuous
 62
     3
370
    25
100
AcDbLine
 10
-150.625
 20
23.875
 30
0.0
 11
-150.0
 21
23.875
 31
0.0
  0
LINE
  5
1CC
330
1F
100
AcDbEntity
  8
16
  6
Continuous
 62
     3
370
    25
100
AcDbLine
 10
-150.3125
 20
17.57499980926514
 30
0.0
 11
-150.3125
 21
18.5
 31
0.0
  0
LINE
  5
1CD
330
1F
100
AcDbEntity
  8
16
  6
Continuous
 62
     3
370
    25
100
AcDbLine
 10
-150.3125
 20
19.25
 30
0.0
 11
-150.3125
 21
23.875
 31
0.0
  0
LINE
  5
1CE
330
1F
100
AcDbEntity
  8
16
  6
Continuous
 62
     3
370
    25
100
AcDbLine
 10
-150.0
 20
23.52500000596046
 30
0.0
 11
-150.625
 21
23.875
 31
0.0
  0
LINE
  5
1CF
330
1F
100
AcDbEntity
  8
16
  6
Continuous
 62
     3
370
    25
100
AcDbLine
 10
-150.625
 20
23.17500001192093
 30
0.0
 11
-150.0
 21
23.52500000596046
 31
0.0
  0
LINE
  5
1D0
330
1F
100
AcDbEntity
  8
16
  6
Continuous
 62
     3
370
    25
100
AcDbLine
 10
-150.0
 20
22.82500001788139
 30
0.0
 11
-150.625
 21
23.17500001192093
 31
0.0
  0
LINE
  5
1D1
330
1F
100
AcDbEntity
  8
16
  6
Continuous
 62
     3
370
    25
100
AcDbLine
 10
-150.625
 20
22.47500002384186
 30
0.0
 11
-150.0
 21
22.82500001788139
 31
0.0
  0
LINE
  5
1D2
330
1F
100
AcDbEntity
  8
16
  6
Continuous
 62
     3
370
    25
100
AcDbLine
 10
-150.0
 20
22.12500002980232
 30
0.0
 11
-150.625
 21
22.47500002384186
 31
0.0
  0
LINE
  5
1D3
330
1F
100
AcDbEntity
  8
16
  6
Continuous
 62
     3
370
    25
100
AcDbLine
 10
-150.625
 20
21.77500003576279
 30
0.0
 11
-150.0
 21
22.12500002980232
 31
0.0
  0
LINE
  5
1D4
330
1F
100
AcDbEntity
  8
16
  6
Continuous
 62
     3
370
    25
100
AcDbLine
 10
-150.0
 20
21.42500004172325
 30
0.0
 11
-150.625
 21
21.77500003576279
 31
0.0
  0
LINE
  5
1D5
330
1F
100
AcDbEntity
  8
16
  6
Continuous
 62
     3
370
    25
100
AcDbLine
 10
-150.625
 20
21.07500004768372
 30
0.0
 11
-150.0
 21
21.42500004172325
 31
0.0
  0
LINE
  5
1D6
330
1F
100
AcDbEntity
  8
16
  6
Continuous
 62
     3
370
    25
100
AcDbLine
 10
-150.0
 20
20.72500005364418
 30
0.0
 11
-150.625
 21
21.07500004768372
 31
0.0
  0
LINE
  5
1D7
330
1F
100
AcDbEntity
  8
16
  6
Continuous
 62
     3
370
    25
100
AcDbLine
 10
-150.625
 20
20.37500005960464
 30
0.0
 11
-150.0
 21
20.72500005364418
 31
0.0
  0
LINE
  5
1D8
330
1F
100
AcDbEntity
  8
16
  6
Continuous
 62
     3
370
    25
100
AcDbLine
 10
-150.0
 20
20.02500006556511
 30
0.0
 11
-150.625
 21
20.37500005960464
 31
0.0
  0
LINE
  5
1D9
330
1F
100
AcDbEntity
  8
16
  6
Continuous
 62
     3
370
    25
100
AcDbLine
 10
-150.625
 20
19.67500007152557
 30
0.0
 11
-150.0
 21
20.02500006556511
 31
0.0
  0
LINE
  5
1DA
330
1F
100
AcDbEntity
  8
16
  6
Continuous
 62
     3
370
    25
100
AcDbLine
 10
-150.0
 20
19.32500007748604
 30
0.0
 11
-150.625
 21
19.67500007152557
 31
0.0
  0
LINE
  5
1DB
330
1F
100
AcDbEntity
  8
16
  6
Continuous
 62
     3
370
    25
100
AcDbLine
 10
-150.1339287120773
 20
19.25
 30
0.0
 11
-150.0
 21
19.32500007748604
 31
0.0
  0
LINE
  5
1DC
330
1F
100
AcDbEntity
  8
16
  6
Continuous
 62
     3
370
    25
100
AcDbLine
 10
-150.625
 20
18.27500009536743
 30
0.0
 11
-150.2232144491709
 21
18.5
 31
0.0
  0
LINE
  5
1DD
330
1F
100
AcDbEntity
  8
16
  6
Continuous
 62
     3
370
    25
100
AcDbLine
 10
-150.0
 20
17.9250001013279
 30
0.0
 11
-150.625
 21
18.27500009536743
 31
0.0
  0
LINE
  5
1DE
330
1F
100
AcDbEntity
  8
16
  6
Continuous
 62
     3
370
    25
100
AcDbLine
 10
-150.625
 20
17.57500010728836
 30
0.0
 11
-150.0
 21
17.9250001013279
 31
0.0
  0
LINE
  5
1DF
330
1F
100
AcDbEntity
  8
16
  6
Continuous
 62
     3
370
    25
100
AcDbLine
 10
-146.875
 20
7.625
 30
0.0
 11
-146.875
 21
12.25
 31
0.0
  0
LINE
  5
1E0
330
1F
100
AcDbEntity
  8
16
  6
Continuous
 62
     3
370
    25
100
AcDbLine
 10
-146.875
 20
13.0
 30
0.0
 11
-146.875
 21
18.5
 31
0.0
  0
LINE
  5
1E1
330
1F
100
AcDbEntity
  8
16
  6
Continuous
 62
     3
370
    25
100
AcDbLine
 10
-146.875
 20
19.25
 30
0.0
 11
-146.875
 21
23.875
 31
0.0
  0
LINE
  5
1E2
330
1F
100
AcDbEntity
  8
16
  6
Continuous
 62
     3
370
    25
100
AcDbLine
 10
-146.875
 20
7.625
 30
0.0
 11
-146.25
 21
7.625
 31
0.0
  0
LINE
  5
1E3
330
1F
100
AcDbEntity
  8
16
  6
Continuous
 62
     3
370
    25
100
AcDbLine
 10
-146.25
 20
7.625
 30
0.0
 11
-146.25
 21
12.25
 31
0.0
  0
LINE
  5
1E4
330
1F
100
AcDbEntity
  8
16
  6
Continuous
 62
     3
370
    25
100
AcDbLine
 10
-146.25
 20
13.0
 30
0.0
 11
-146.25
 21
18.5
 31
0.0
  0
LINE
  5
1E5
330
1F
100
AcDbEntity
  8
16
  6
Continuous
 62
     3
370
    25
100
AcDbLine
 10
-146.25
 20
19.25
 30
0.0
 11
-146.25
 21
23.875
 31
0.0
  0
LINE
  5
1E6
330
1F
100
AcDbEntity
  8
16
  6
Continuous
 62
     3
370
    25
100
AcDbLine
 10
-146.875
 20
23.875
 30
0.0
 11
-146.25
 21
23.875
 31
0.0
  0
LINE
  5
1E7
330
1F
100
AcDbEntity
  8
16
  6
Continuous
 62
     3
370
    25
100
AcDbLine
 10
-146.5625
 20
19.67500019073486
 30
0.0
 11
-146.5625
 21
23.875
 31
0.0
  0
LINE
  5
1E8
330
1F
100
AcDbEntity
  8
16
  6
Continuous
 62
     3
370
    25
100
AcDbLine
 10
-146.25
 20
23.52500000596046
 30
0.0
 11
-146.875
 21
23.875
 31
0.0
  0
LINE
  5
1E9
330
1F
100
AcDbEntity
  8
16
  6
Continuous
 62
     3
370
    25
100
AcDbLine
 10
-146.875
 20
23.17500001192093
 30
0.0
 11
-146.25
 21
23.52500000596046
 31
0.0
  0
LINE
  5
1EA
330
1F
100
AcDbEntity
  8
16
  6
Continuous
 62
     3
370
    25
100
AcDbLine
 10
-146.25
 20
22.82500001788139
 30
0.0
 11
-146.875
 21
23.17500001192093
 31
0.0
  0
LINE
  5
1EB
330
1F
100
AcDbEntity
  8
16
  6
Continuous
 62
     3
370
    25
100
AcDbLine
 10
-146.875
 20
22.47500002384186
 30
0.0
 11
-146.25
 21
22.82500001788139
 31
0.0
  0
LINE
  5
1EC
330
1F
100
AcDbEntity
  8
16
  6
Continuous
 62
     3
370
    25
100
AcDbLine
 10
-146.25
 20
22.12500002980232
 30
0.0
 11
-146.875
 21
22.47500002384186
 31
0.0
  0
LINE
  5
1ED
330
1F
100
AcDbEntity
  8
16
  6
Continuous
 62
     3
370
    25
100
AcDbLine
 10
-146.875
 20
21.77500003576279
 30
0.0
 11
-146.25
 21
22.12500002980232
 31
0.0
  0
LINE
  5
1EE
330
1F
100
AcDbEntity
  8
16
  6
Continuous
 62
     3
370
    25
100
AcDbLine
 10
-146.25
 20
21.42500004172325
 30
0.0
 11
-146.875
 21
21.77500003576279
 31
0.0
  0
LINE
  5
1EF
330
1F
100
AcDbEntity
  8
16
  6
Continuous
 62
     3
370
    25
100
AcDbLine
 10
-146.875
 20
21.07500004768372
 30
0.0
 11
-146.25
 21
21.42500004172325
 31
0.0
  0
LINE
  5
1F0
330
1F
100
AcDbEntity
  8
16
  6
Continuous
 62
     3
370
    25
100
AcDbLine
 10
-146.25
 20
20.72500005364418
 30
0.0
 11
-146.875
 21
21.07500004768372
 31
0.0
  0
LINE
  5
1F1
330
1F
100
AcDbEntity
  8
16
  6
Continuous
 62
     3
370
    25
100
AcDbLine
 10
-146.875
 20
20.37500005960464
 30
0.0
 11
-146.25
 21
20.72500005364418
 31
0.0
  0
LINE
  5
1F2
330
1F
100
AcDbEntity
  8
16
  6
Continuous
 62
     3
370
    25
100
AcDbLine
 10
-146.25
 20
20.02500006556511
 30
0.0
 11
-146.875
 21
20.37500005960464
 31
0.0
  0
LINE
  5
1F3
330
1F
100
AcDbEntity
  8
16
  6
Continuous
 62
     3
370
    25
100
AcDbLine
 10
-146.875
 20
19.67500007152557
 30
0.0
 11
-146.25
 21
20.02500006556511
 31
0.0
  0
LINE
  5
1F4
330
1F
100
AcDbEntity
  8
16
  6
Continuous
 62
     3
370
    25
100
AcDbLine
 10
-143.125
 20
7.625
 30
0.0
 11
-143.125
 21
12.25
 31
0.0
  0
LINE
  5
1F5
330
1F
100
AcDbEntity
  8
16
  6
Continuous
 62
     3
370
    25
100
AcDbLine
 10
-143.125
 20
13.0
 30
0.0
 11
-143.125
 21
18.5
 31
0.0
  0
LINE
  5
1F6
330
1F
100
AcDbEntity
  8
16
  6
Continuous
 62
     3
370
    25
100
AcDbLine
 10
-143.125
 20
19.25
 30
0.0
 11
-143.125
 21
23.875
 31
0.0
  0
LINE
  5
1F7
330
1F
100
AcDbEntity
  8
16
  6
Continuous
 62
     3
370
    25
100
AcDbLine
 10
-143.125
 20
7.625
 30
0.0
 11
-142.5
 21
7.625
 31
0.0
  0
LINE
  5
1F8
330
1F
100
AcDbEntity
  8
16
  6
Continuous
 62
     3
370
    25
100
AcDbLine
 10
-142.5
 20
7.625
 30
0.0
 11
-142.5
 21
12.25
 31
0.0
  0
LINE
  5
1F9
330
1F
100
AcDbEntity
  8
16
  6
Continuous
 62
     3
370
    25
100
AcDbLine
 10
-142.5
 20
13.0
 30
0.0
 11
-142.5
 21
18.5
 31
0.0
  0
LINE
  5
1FA
330
1F
100
AcDbEntity
  8
16
  6
Continuous
 62
     3
370
    25
100
AcDbLine
 10
-142.5
 20
19.25
 30
0.0
 11
-142.5
 21
23.875
 31
0.0
  0
LINE
  5
1FB
330
1F
100
AcDbEntity
  8
16
  6
Continuous
 62
     3
370
    25
100
AcDbLine
 10
-143.125
 20
23.875
 30
0.0
 11
-142.5
 21
23.875
 31
0.0
  0
LINE
  5
1FC
330
1F
100
AcDbEntity
  8
16
  6
Continuous
 62
     3
370
    25
100
AcDbLine
 10
-142.8125
 20
21.77500009536743
 30
0.0
 11
-142.8125
 21
23.875
 31
0.0
  0
LINE
  5
1FD
330
1F
100
AcDbEntity
  8
16
  6
Continuous
 62
     3
370
    25
100
AcDbLine
 10
-142.5
 20
23.52500000596046
 30
0.0
 11
-143.125
 21
23.875
 31
0.0
  0
LINE
  5
1FE
330
1F
100
AcDbEntity
  8
16
  6
Continuous
 62
     3
370
    25
100
AcDbLine
 10
-143.125
 20
23.17500001192093
 30
0.0
 11
-142.5
 21
23.52500000596046
 31
0.0
  0
LINE
  5
1FF
330
1F
100
AcDbEntity
  8
16
  6
Continuous
 62
     3
370
    25
100
AcDbLine
 10
-142.5
 20
22.82500001788139
 30
0.0
 11
-143.125
 21
23.17500001192093
 31
0.0
  0
LINE
  5
200
330
1F
100
AcDbEntity
  8
16
  6
Continuous
 62
     3
370
    25
100
AcDbLine
 10
-143.125
 20
22.47500002384186
 30
0.0
 11
-142.5
 21
22.82500001788139
 31
0.0
  0
LINE
  5
201
330
1F
100
AcDbEntity
  8
16
  6
Continuous
 62
     3
370
    25
100
AcDbLine
 10
-142.5
 20
22.12500002980232
 30
0.0
 11
-143.125
 21
22.47500002384186
 31
0.0
  0
LINE
  5
202
330
1F
100
AcDbEntity
  8
16
  6
Continuous
 62
     3
370
    25
100
AcDbLine
 10
-143.125
 20
21.77500003576279
 30
0.0
 11
-142.5
 21
22.12500002980232
 31
0.0
  0
LINE
  5
203
330
1F
100
AcDbEntity
  8
16
  6
Continuous
 62
     3
370
    25
100
AcDbLine
 10
-139.375
 20
7.625
 30
0.0
 11
-139.375
 21
12.25
 31
0.0
  0
LINE
  5
204
330
1F
100
AcDbEntity
  8
16
  6
Continuous
 62
     3
370
    25
100
AcDbLine
 10
-139.375
 20
13.0
 30
0.0
 11
-139.375
 21
18.5
 31
0.0
  0
LINE
  5
205
330
1F
100
AcDbEntity
  8
16
  6
Continuous
 62
     3
370
    25
100
AcDbLine
 10
-139.375
 20
19.25
 30
0.0
 11
-139.375
 21
23.875
 31
0.0
  0
LINE
  5
206
330
1F
100
AcDbEntity
  8
16
  6
Continuous
 62
     3
370
    25
100
AcDbLine
 10
-139.375
 20
7.625
 30
0.0
 11
-138.75
 21
7.625
 31
0.0
  0
LINE
  5
207
330
1F
100
AcDbEntity
  8
16
  6
Continuous
 62
     3
370
    25
100
AcDbLine
 10
-138.75
 20
7.625
 30
0.0
 11
-138.75
 21
12.25
 31
0.0
  0
LINE
  5
208
330
1F
100
AcDbEntity
  8
16
  6
Continuous
 62
     3
370
    25
100
AcDbLine
 10
-138.75
 20
13.0
 30
0.0
 11
-138.75
 21
18.5
 31
0.0
  0
LINE
  5
209
330
1F
100
AcDbEntity
  8
16
  6
Continuous
 62
     3
370
    25
100
AcDbLine
 10
-138.75
 20
19.25
 30
0.0
 11
-138.75
 21
23.875
 31
0.0
  0
LINE
  5
20A
330
1F
100
AcDbEntity
  8
16
  6
Continuous
 62
     3
370
    25
100
AcDbLine
 10
-139.375
 20
23.875
 30
0.0
 11
-138.75
 21
23.875
 31
0.0
  0
LINE
  5
20B
330
1F
100
AcDbEntity
  8
16
  6
Continuous
 62
     3
370
    25
100
AcDbLine
 10
-135.625
 20
7.625
 30
0.0
 11
-135.625
 21
12.25
 31
0.0
  0
LINE
  5
20C
330
1F
100
AcDbEntity
  8
16
  6
Continuous
 62
     3
370
    25
100
AcDbLine
 10
-135.625
 20
13.0
 30
0.0
 11
-135.625
 21
18.5
 31
0.0
  0
LINE
  5
20D
330
1F
100
AcDbEntity
  8
16
  6
Continuous
 62
     3
370
    25
100
AcDbLine
 10
-135.625
 20
19.25
 30
0.0
 11
-135.625
 21
23.875
 31
0.0
  0
LINE
  5
20E
330
1F
100
AcDbEntity
  8
16
  6
Continuous
 62
     3
370
    25
100
AcDbLine
 10
-135.625
 20
7.625
 30
0.0
 11
-135.0
 21
7.625
 31
0.0
  0
LINE
  5
20F
330
1F
100
AcDbEntity
  8
16
  6
Continuous
 62
     3
370
    25
100
AcDbLine
 10
-135.0
 20
7.625
 30
0.0
 11
-135.0
 21
12.25
 31
0.0
  0
LINE
  5
210
330
1F
100
AcDbEntity
  8
16
  6
Continuous
 62
     3
370
    25
100
AcDbLine
 10
-135.0
 20
13.0
 30
0.0
 11
-135.0
 21
18.5
 31
0.0
  0
LINE
  5
211
330
1F
100
AcDbEntity
  8
16
  6
Continuous
 62
     3
370
    25
100
AcDbLine
 10
-135.0
 20
19.25
 30
0.0
 11
-135.0
 21
23.875
 31
0.0
  0
LINE
  5
212
330
1F
100
AcDbEntity
  8
16
  6
Continuous
 62
     3
370
    25
100
AcDbLine
 10
-135.625
 20
23.875
 30
0.0
 11
-135.0
 21
23.875
 31
0.0
  0
LINE
  5
213
330
1F
100
AcDbEntity
  8
16
  6
Continuous
 62
     3
370
    25
100
AcDbLine
 10
-131.875
 20
7.625
 30
0.0
 11
-131.875
 21
12.25
 31
0.0
  0
LINE
  5
214
330
1F
100
AcDbEntity
  8
16
  6
Continuous
 62
     3
370
    25
100
AcDbLine
 10
-131.875
 20
13.0
 30
0.0
 11
-131.875
 21
18.5
 31
0.0
  0
LINE
  5
215
330
1F
100
AcDbEntity
  8
16
  6
Continuous
 62
     3
370
    25
100
AcDbLine
 10
-131.875
 20
19.25
 30
0.0
 11
-131.875
 21
23.875
 31
0.0
  0
LINE
  5
216
330
1F
100
AcDbEntity
  8
16
  6
Continuous
 62
     3
370
    25
100
AcDbLine
 10
-131.875
 20
7.625
 30
0.0
 11
-131.25
 21
7.625
 31
0.0
  0
LINE
  5
217
330
1F
100
AcDbEntity
  8
16
  6
Continuous
 62
     3
370
    25
100
AcDbLine
 10
-131.25
 20
7.625
 30
0.0
 11
-131.25
 21
12.25
 31
0.0
  0
LINE
  5
218
330
1F
100
AcDbEntity
  8
16
  6
Continuous
 62
     3
370
    25
100
AcDbLine
 10
-131.25
 20
13.0
 30
0.0
 11
-131.25
 21
18.5
 31
0.0
  0
LINE
  5
219
330
1F
100
AcDbEntity
  8
16
  6
Continuous
 62
     3
370
    25
100
AcDbLine
 10
-131.25
 20
19.25
 30
0.0
 11
-131.25
 21
23.875
 31
0.0
  0
LINE
  5
21A
330
1F
100
AcDbEntity
  8
16
  6
Continuous
 62
     3
370
    25
100
AcDbLine
 10
-131.875
 20
23.875
 30
0.0
 11
-131.25
 21
23.875
 31
0.0
  0
LINE
  5
21B
330
1F
100
AcDbEntity
  8
16
  6
Continuous
 62
     3
370
    25
100
AcDbLine
 10
-128.125
 20
7.625
 30
0.0
 11
-128.125
 21
12.25
 31
0.0
  0
LINE
  5
21C
330
1F
100
AcDbEntity
  8
16
  6
Continuous
 62
     3
370
    25
100
AcDbLine
 10
-128.125
 20
13.0
 30
0.0
 11
-128.125
 21
18.5
 31
0.0
  0
LINE
  5
21D
330
1F
100
AcDbEntity
  8
16
  6
Continuous
 62
     3
370
    25
100
AcDbLine
 10
-128.125
 20
19.25
 30
0.0
 11
-128.125
 21
23.875
 31
0.0
  0
LINE
  5
21E
330
1F
100
AcDbEntity
  8
16
  6
Continuous
 62
     3
370
    25
100
AcDbLine
 10
-128.125
 20
7.625
 30
0.0
 11
-127.5
 21
7.625
 31
0.0
  0
LINE
  5
21F
330
1F
100
AcDbEntity
  8
16
  6
Continuous
 62
     3
370
    25
100
AcDbLine
 10
-127.5
 20
7.625
 30
0.0
 11
-127.5
 21
12.25
 31
0.0
  0
LINE
  5
220
330
1F
100
AcDbEntity
  8
16
  6
Continuous
 62
     3
370
    25
100
AcDbLine
 10
-127.5
 20
13.0
 30
0.0
 11
-127.5
 21
18.5
 31
0.0
  0
LINE
  5
221
330
1F
100
AcDbEntity
  8
16
  6
Continuous
 62
     3
370
    25
100
AcDbLine
 10
-127.5
 20
19.25
 30
0.0
 11
-127.5
 21
23.875
 31
0.0
  0
LINE
  5
222
330
1F
100
AcDbEntity
  8
16
  6
Continuous
 62
     3
370
    25
100
AcDbLine
 10
-128.125
 20
23.875
 30
0.0
 11
-127.5
 21
23.875
 31
0.0
  0
LINE
  5
223
330
1F
100
AcDbEntity
  8
16
  6
Continuous
 62
     3
370
    25
100
AcDbLine
 10
-124.375
 20
7.625
 30
0.0
 11
-124.375
 21
12.25
 31
0.0
  0
LINE
  5
224
330
1F
100
AcDbEntity
  8
16
  6
Continuous
 62
     3
370
    25
100
AcDbLine
 10
-124.375
 20
13.0
 30
0.0
 11
-124.375
 21
18.5
 31
0.0
  0
LINE
  5
225
330
1F
100
AcDbEntity
  8
16
  6
Continuous
 62
     3
370
    25
100
AcDbLine
 10
-124.375
 20
19.25
 30
0.0
 11
-124.375
 21
23.875
 31
0.0
  0
LINE
  5
226
330
1F
100
AcDbEntity
  8
16
  6
Continuous
 62
     3
370
    25
100
AcDbLine
 10
-124.375
 20
7.625
 30
0.0
 11
-123.75
 21
7.625
 31
0.0
  0
LINE
  5
227
330
1F
100
AcDbEntity
  8
16
  6
Continuous
 62
     3
370
    25
100
AcDbLine
 10
-123.75
 20
7.625
 30
0.0
 11
-123.75
 21
12.25
 31
0.0
  0
LINE
  5
228
330
1F
100
AcDbEntity
  8
16
  6
Continuous
 62
     3
370
    25
100
AcDbLine
 10
-123.75
 20
13.0
 30
0.0
 11
-123.75
 21
18.5
 31
0.0
  0
LINE
  5
229
330
1F
100
AcDbEntity
  8
16
  6
Continuous
 62
     3
370
    25
100
AcDbLine
 10
-123.75
 20
19.25
 30
0.0
 11
-123.75
 21
23.875
 31
0.0
  0
LINE
  5
22A
330
1F
100
AcDbEntity
  8
16
  6
Continuous
 62
     3
370
    25
100
AcDbLine
 10
-124.375
 20
23.875
 30
0.0
 11
-123.75
 21
23.875
 31
0.0
  0
LINE
  5
22B
330
1F
100
AcDbEntity
  8
16
  6
Continuous
 62
     3
370
    25
100
AcDbLine
 10
-120.625
 20
7.625
 30
0.0
 11
-120.625
 21
12.25
 31
0.0
  0
LINE
  5
22C
330
1F
100
AcDbEntity
  8
16
  6
Continuous
 62
     3
370
    25
100
AcDbLine
 10
-120.625
 20
13.0
 30
0.0
 11
-120.625
 21
18.5
 31
0.0
  0
LINE
  5
22D
330
1F
100
AcDbEntity
  8
16
  6
Continuous
 62
     3
370
    25
100
AcDbLine
 10
-120.625
 20
19.25
 30
0.0
 11
-120.625
 21
23.875
 31
0.0
  0
LINE
  5
22E
330
1F
100
AcDbEntity
  8
16
  6
Continuous
 62
     3
370
    25
100
AcDbLine
 10
-120.625
 20
7.625
 30
0.0
 11
-120.0
 21
7.625
 31
0.0
  0
LINE
  5
22F
330
1F
100
AcDbEntity
  8
16
  6
Continuous
 62
     3
370
    25
100
AcDbLine
 10
-120.0
 20
7.625
 30
0.0
 11
-120.0
 21
12.25
 31
0.0
  0
LINE
  5
230
330
1F
100
AcDbEntity
  8
16
  6
Continuous
 62
     3
370
    25
100
AcDbLine
 10
-120.0
 20
13.0
 30
0.0
 11
-120.0
 21
18.5
 31
0.0
  0
LINE
  5
231
330
1F
100
AcDbEntity
  8
16
  6
Continuous
 62
     3
370
    25
100
AcDbLine
 10
-120.0
 20
19.25
 30
0.0
 11
-120.0
 21
23.875
 31
0.0
  0
LINE
  5
232
330
1F
100
AcDbEntity
  8
16
  6
Continuous
 62
     3
370
    25
100
AcDbLine
 10
-120.625
 20
23.875
 30
0.0
 11
-120.0
 21
23.875
 31
0.0
  0
LINE
  5
233
330
1F
100
AcDbEntity
  8
16
  6
Continuous
 62
     3
370
    25
100
AcDbLine
 10
-116.875
 20
7.625
 30
0.0
 11
-116.875
 21
12.25
 31
0.0
  0
LINE
  5
234
330
1F
100
AcDbEntity
  8
16
  6
Continuous
 62
     3
370
    25
100
AcDbLine
 10
-116.875
 20
13.0
 30
0.0
 11
-116.875
 21
18.5
 31
0.0
  0
LINE
  5
235
330
1F
100
AcDbEntity
  8
16
  6
Continuous
 62
     3
370
    25
100
AcDbLine
 10
-116.875
 20
19.25
 30
0.0
 11
-116.875
 21
23.875
 31
0.0
  0
LINE
  5
236
330
1F
100
AcDbEntity
  8
16
  6
Continuous
 62
     3
370
    25
100
AcDbLine
 10
-116.875
 20
7.625
 30
0.0
 11
-116.25
 21
7.625
 31
0.0
  0
LINE
  5
237
330
1F
100
AcDbEntity
  8
16
  6
Continuous
 62
     3
370
    25
100
AcDbLine
 10
-116.25
 20
7.625
 30
0.0
 11
-116.25
 21
12.25
 31
0.0
  0
LINE
  5
238
330
1F
100
AcDbEntity
  8
16
  6
Continuous
 62
     3
370
    25
100
AcDbLine
 10
-116.25
 20
13.0
 30
0.0
 11
-116.25
 21
18.5
 31
0.0
  0
LINE
  5
239
330
1F
100
AcDbEntity
  8
16
  6
Continuous
 62
     3
370
    25
100
AcDbLine
 10
-116.25
 20
19.25
 30
0.0
 11
-116.25
 21
23.875
 31
0.0
  0
LINE
  5
23A
330
1F
100
AcDbEntity
  8
16
  6
Continuous
 62
     3
370
    25
100
AcDbLine
 10
-116.875
 20
23.875
 30
0.0
 11
-116.25
 21
23.875
 31
0.0
  0
LINE
  5
23B
330
1F
100
AcDbEntity
  8
16
  6
Continuous
 62
     3
370
    25
100
AcDbLine
 10
-113.125
 20
7.625
 30
0.0
 11
-113.125
 21
12.25
 31
0.0
  0
LINE
  5
23C
330
1F
100
AcDbEntity
  8
16
  6
Continuous
 62
     3
370
    25
100
AcDbLine
 10
-113.125
 20
13.0
 30
0.0
 11
-113.125
 21
18.5
 31
0.0
  0
LINE
  5
23D
330
1F
100
AcDbEntity
  8
16
  6
Continuous
 62
     3
370
    25
100
AcDbLine
 10
-113.125
 20
19.25
 30
0.0
 11
-113.125
 21
23.875
 31
0.0
  0
LINE
  5
23E
330
1F
100
AcDbEntity
  8
16
  6
Continuous
 62
     3
370
    25
100
AcDbLine
 10
-113.125
 20
7.625
 30
0.0
 11
-112.5
 21
7.625
 31
0.0
  0
LINE
  5
23F
330
1F
100
AcDbEntity
  8
16
  6
Continuous
 62
     3
370
    25
100
AcDbLine
 10
-112.5
 20
7.625
 30
0.0
 11
-112.5
 21
12.25
 31
0.0
  0
LINE
  5
240
330
1F
100
AcDbEntity
  8
16
  6
Continuous
 62
     3
370
    25
100
AcDbLine
 10
-112.5
 20
13.0
 30
0.0
 11
-112.5
 21
18.5
 31
0.0
  0
LINE
  5
241
330
1F
100
AcDbEntity
  8
16
  6
Continuous
 62
     3
370
    25
100
AcDbLine
 10
-112.5
 20
19.25
 30
0.0
 11
-112.5
 21
23.875
 31
0.0
  0
LINE
  5
242
330
1F
100
AcDbEntity
  8
16
  6
Continuous
 62
     3
370
    25
100
AcDbLine
 10
-113.125
 20
23.875
 30
0.0
 11
-112.5
 21
23.875
 31
0.0
  0
LINE
  5
243
330
1F
100
AcDbEntity
  8
16
  6
Continuous
 62
     3
370
    25
100
AcDbLine
 10
-109.375
 20
7.625
 30
0.0
 11
-109.375
 21
12.25
 31
0.0
  0
LINE
  5
244
330
1F
100
AcDbEntity
  8
16
  6
Continuous
 62
     3
370
    25
100
AcDbLine
 10
-109.375
 20
13.0
 30
0.0
 11
-109.375
 21
18.5
 31
0.0
  0
LINE
  5
245
330
1F
100
AcDbEntity
  8
16
  6
Continuous
 62
     3
370
    25
100
AcDbLine
 10
-109.375
 20
19.25
 30
0.0
 11
-109.375
 21
23.875
 31
0.0
  0
LINE
  5
246
330
1F
100
AcDbEntity
  8
16
  6
Continuous
 62
     3
370
    25
100
AcDbLine
 10
-109.375
 20
7.625
 30
0.0
 11
-108.75
 21
7.625
 31
0.0
  0
LINE
  5
247
330
1F
100
AcDbEntity
  8
16
  6
Continuous
 62
     3
370
    25
100
AcDbLine
 10
-108.75
 20
7.625
 30
0.0
 11
-108.75
 21
12.25
 31
0.0
  0
LINE
  5
248
330
1F
100
AcDbEntity
  8
16
  6
Continuous
 62
     3
370
    25
100
AcDbLine
 10
-108.75
 20
13.0
 30
0.0
 11
-108.75
 21
18.5
 31
0.0
  0
LINE
  5
249
330
1F
100
AcDbEntity
  8
16
  6
Continuous
 62
     3
370
    25
100
AcDbLine
 10
-108.75
 20
19.25
 30
0.0
 11
-108.75
 21
23.875
 31
0.0
  0
LINE
  5
24A
330
1F
100
AcDbEntity
  8
16
  6
Continuous
 62
     3
370
    25
100
AcDbLine
 10
-109.375
 20
23.875
 30
0.0
 11
-108.75
 21
23.875
 31
0.0
  0
LINE
  5
24B
330
1F
100
AcDbEntity
  8
16
  6
Continuous
 62
     3
370
    25
100
AcDbLine
 10
-105.625
 20
7.625
 30
0.0
 11
-105.625
 21
12.25
 31
0.0
  0
LINE
  5
24C
330
1F
100
AcDbEntity
  8
16
  6
Continuous
 62
     3
370
    25
100
AcDbLine
 10
-105.625
 20
13.0
 30
0.0
 11
-105.625
 21
18.5
 31
0.0
  0
LINE
  5
24D
330
1F
100
AcDbEntity
  8
16
  6
Continuous
 62
     3
370
    25
100
AcDbLine
 10
-105.625
 20
19.25
 30
0.0
 11
-105.625
 21
23.875
 31
0.0
  0
LINE
  5
24E
330
1F
100
AcDbEntity
  8
16
  6
Continuous
 62
     3
370
    25
100
AcDbLine
 10
-105.625
 20
7.625
 30
0.0
 11
-105.0
 21
7.625
 31
0.0
  0
LINE
  5
24F
330
1F
100
AcDbEntity
  8
16
  6
Continuous
 62
     3
370
    25
100
AcDbLine
 10
-105.0
 20
7.625
 30
0.0
 11
-105.0
 21
12.25
 31
0.0
  0
LINE
  5
250
330
1F
100
AcDbEntity
  8
16
  6
Continuous
 62
     3
370
    25
100
AcDbLine
 10
-105.0
 20
13.0
 30
0.0
 11
-105.0
 21
18.5
 31
0.0
  0
LINE
  5
251
330
1F
100
AcDbEntity
  8
16
  6
Continuous
 62
     3
370
    25
100
AcDbLine
 10
-105.0
 20
19.25
 30
0.0
 11
-105.0
 21
23.875
 31
0.0
  0
LINE
  5
252
330
1F
100
AcDbEntity
  8
16
  6
Continuous
 62
     3
370
    25
100
AcDbLine
 10
-105.625
 20
23.875
 30
0.0
 11
-105.0
 21
23.875
 31
0.0
  0
LINE
  5
253
330
1F
100
AcDbEntity
  8
16
  6
Continuous
 62
     3
370
    25
100
AcDbLine
 10
-101.875
 20
7.625
 30
0.0
 11
-101.875
 21
12.25
 31
0.0
  0
LINE
  5
254
330
1F
100
AcDbEntity
  8
16
  6
Continuous
 62
     3
370
    25
100
AcDbLine
 10
-101.875
 20
13.0
 30
0.0
 11
-101.875
 21
18.5
 31
0.0
  0
LINE
  5
255
330
1F
100
AcDbEntity
  8
16
  6
Continuous
 62
     3
370
    25
100
AcDbLine
 10
-101.875
 20
19.25
 30
0.0
 11
-101.875
 21
23.875
 31
0.0
  0
LINE
  5
256
330
1F
100
AcDbEntity
  8
16
  6
Continuous
 62
     3
370
    25
100
AcDbLine
 10
-101.875
 20
7.625
 30
0.0
 11
-101.25
 21
7.625
 31
0.0
  0
LINE
  5
257
330
1F
100
AcDbEntity
  8
16
  6
Continuous
 62
     3
370
    25
100
AcDbLine
 10
-101.25
 20
7.625
 30
0.0
 11
-101.25
 21
12.25
 31
0.0
  0
LINE
  5
258
330
1F
100
AcDbEntity
  8
16
  6
Continuous
 62
     3
370
    25
100
AcDbLine
 10
-101.25
 20
13.0
 30
0.0
 11
-101.25
 21
18.5
 31
0.0
  0
LINE
  5
259
330
1F
100
AcDbEntity
  8
16
  6
Continuous
 62
     3
370
    25
100
AcDbLine
 10
-101.25
 20
19.25
 30
0.0
 11
-101.25
 21
23.875
 31
0.0
  0
LINE
  5
25A
330
1F
100
AcDbEntity
  8
16
  6
Continuous
 62
     3
370
    25
100
AcDbLine
 10
-101.875
 20
23.875
 30
0.0
 11
-101.25
 21
23.875
 31
0.0
  0
LINE
  5
25B
330
1F
100
AcDbEntity
  8
16
  6
Continuous
 62
     3
370
    25
100
AcDbLine
 10
-98.125
 20
7.625
 30
0.0
 11
-98.125
 21
12.25
 31
0.0
  0
LINE
  5
25C
330
1F
100
AcDbEntity
  8
16
  6
Continuous
 62
     3
370
    25
100
AcDbLine
 10
-98.125
 20
13.0
 30
0.0
 11
-98.125
 21
18.5
 31
0.0
  0
LINE
  5
25D
330
1F
100
AcDbEntity
  8
16
  6
Continuous
 62
     3
370
    25
100
AcDbLine
 10
-98.125
 20
19.25
 30
0.0
 11
-98.125
 21
23.875
 31
0.0
  0
LINE
  5
25E
330
1F
100
AcDbEntity
  8
16
  6
Continuous
 62
     3
370
    25
100
AcDbLine
 10
-98.125
 20
7.625
 30
0.0
 11
-97.5
 21
7.625
 31
0.0
  0
LINE
  5
25F
330
1F
100
AcDbEntity
  8
16
  6
Continuous
 62
     3
370
    25
100
AcDbLine
 10
-97.5
 20
7.625
 30
0.0
 11
-97.5
 21
12.25
 31
0.0
  0
LINE
  5
260
330
1F
100
AcDbEntity
  8
16
  6
Continuous
 62
     3
370
    25
100
AcDbLine
 10
-97.5
 20
13.0
 30
0.0
 11
-97.5
 21
18.5
 31
0.0
  0
LINE
  5
261
330
1F
100
AcDbEntity
  8
16
  6
Continuous
 62
     3
370
    25
100
AcDbLine
 10
-97.5
 20
19.25
 30
0.0
 11
-97.5
 21
23.875
 31
0.0
  0
LINE
  5
262
330
1F
100
AcDbEntity
  8
16
  6
Continuous
 62
     3
370
    25
100
AcDbLine
 10
-98.125
 20
23.875
 30
0.0
 11
-97.5
 21
23.875
 31
0.0
  0
LINE
  5
263
330
1F
100
AcDbEntity
  8
16
  6
Continuous
 62
     3
370
    25
100
AcDbLine
 10
-94.375
 20
7.625
 30
0.0
 11
-94.375
 21
12.25
 31
0.0
  0
LINE
  5
264
330
1F
100
AcDbEntity
  8
16
  6
Continuous
 62
     3
370
    25
100
AcDbLine
 10
-94.375
 20
13.0
 30
0.0
 11
-94.375
 21
18.5
 31
0.0
  0
LINE
  5
265
330
1F
100
AcDbEntity
  8
16
  6
Continuous
 62
     3
370
    25
100
AcDbLine
 10
-94.375
 20
19.25
 30
0.0
 11
-94.375
 21
23.875
 31
0.0
  0
LINE
  5
266
330
1F
100
AcDbEntity
  8
16
  6
Continuous
 62
     3
370
    25
100
AcDbLine
 10
-94.375
 20
7.625
 30
0.0
 11
-93.75
 21
7.625
 31
0.0
  0
LINE
  5
267
330
1F
100
AcDbEntity
  8
16
  6
Continuous
 62
     3
370
    25
100
AcDbLine
 10
-93.75
 20
7.625
 30
0.0
 11
-93.75
 21
12.25
 31
0.0
  0
LINE
  5
268
330
1F
100
AcDbEntity
  8
16
  6
Continuous
 62
     3
370
    25
100
AcDbLine
 10
-93.75
 20
13.0
 30
0.0
 11
-93.75
 21
18.5
 31
0.0
  0
LINE
  5
269
330
1F
100
AcDbEntity
  8
16
  6
Continuous
 62
     3
370
    25
100
AcDbLine
 10
-93.75
 20
19.25
 30
0.0
 11
-93.75
 21
23.875
 31
0.0
  0
LINE
  5
26A
330
1F
100
AcDbEntity
  8
16
  6
Continuous
 62
     3
370
    25
100
AcDbLine
 10
-94.375
 20
23.875
 30
0.0
 11
-93.75
 21
23.875
 31
0.0
  0
LINE
  5
26B
330
1F
100
AcDbEntity
  8
16
  6
Continuous
 62
     3
370
    25
100
AcDbLine
 10
-90.625
 20
7.625
 30
0.0
 11
-90.625
 21
12.25
 31
0.0
  0
LINE
  5
26C
330
1F
100
AcDbEntity
  8
16
  6
Continuous
 62
     3
370
    25
100
AcDbLine
 10
-90.625
 20
13.0
 30
0.0
 11
-90.625
 21
18.5
 31
0.0
  0
LINE
  5
26D
330
1F
100
AcDbEntity
  8
16
  6
Continuous
 62
     3
370
    25
100
AcDbLine
 10
-90.625
 20
19.25
 30
0.0
 11
-90.625
 21
23.875
 31
0.0
  0
LINE
  5
26E
330
1F
100
AcDbEntity
  8
16
  6
Continuous
 62
     3
370
    25
100
AcDbLine
 10
-90.625
 20
7.625
 30
0.0
 11
-90.0
 21
7.625
 31
0.0
  0
LINE
  5
26F
330
1F
100
AcDbEntity
  8
16
  6
Continuous
 62
     3
370
    25
100
AcDbLine
 10
-90.0
 20
7.625
 30
0.0
 11
-90.0
 21
12.25
 31
0.0
  0
LINE
  5
270
330
1F
100
AcDbEntity
  8
16
  6
Continuous
 62
     3
370
    25
100
AcDbLine
 10
-90.0
 20
13.0
 30
0.0
 11
-90.0
 21
18.5
 31
0.0
  0
LINE
  5
271
330
1F
100
AcDbEntity
  8
16
  6
Continuous
 62
     3
370
    25
100
AcDbLine
 10
-90.0
 20
19.25
 30
0.0
 11
-90.0
 21
23.875
 31
0.0
  0
LINE
  5
272
330
1F
100
AcDbEntity
  8
16
  6
Continuous
 62
     3
370
    25
100
AcDbLine
 10
-90.625
 20
23.875
 30
0.0
 11
-90.0
 21
23.875
 31
0.0
  0
LINE
  5
273
330
1F
100
AcDbEntity
  8
16
  6
Continuous
 62
     3
370
    25
100
AcDbLine
 10
-86.875
 20
7.625
 30
0.0
 11
-86.875
 21
12.25
 31
0.0
  0
LINE
  5
274
330
1F
100
AcDbEntity
  8
16
  6
Continuous
 62
     3
370
    25
100
AcDbLine
 10
-86.875
 20
13.0
 30
0.0
 11
-86.875
 21
18.5
 31
0.0
  0
LINE
  5
275
330
1F
100
AcDbEntity
  8
16
  6
Continuous
 62
     3
370
    25
100
AcDbLine
 10
-86.875
 20
19.25
 30
0.0
 11
-86.875
 21
23.875
 31
0.0
  0
LINE
  5
276
330
1F
100
AcDbEntity
  8
16
  6
Continuous
 62
     3
370
    25
100
AcDbLine
 10
-86.875
 20
7.625
 30
0.0
 11
-86.25
 21
7.625
 31
0.0
  0
LINE
  5
277
330
1F
100
AcDbEntity
  8
16
  6
Continuous
 62
     3
370
    25
100
AcDbLine
 10
-86.25
 20
7.625
 30
0.0
 11
-86.25
 21
12.25
 31
0.0
  0
LINE
  5
278
330
1F
100
AcDbEntity
  8
16
  6
Continuous
 62
     3
370
    25
100
AcDbLine
 10
-86.25
 20
13.0
 30
0.0
 11
-86.25
 21
18.5
 31
0.0
  0
LINE
  5
279
330
1F
100
AcDbEntity
  8
16
  6
Continuous
 62
     3
370
    25
100
AcDbLine
 10
-86.25
 20
19.25
 30
0.0
 11
-86.25
 21
23.875
 31
0.0
  0
LINE
  5
27A
330
1F
100
AcDbEntity
  8
16
  6
Continuous
 62
     3
370
    25
100
AcDbLine
 10
-86.875
 20
23.875
 30
0.0
 11
-86.25
 21
23.875
 31
0.0
  0
LINE
  5
27B
330
1F
100
AcDbEntity
  8
16
  6
Continuous
 62
     3
370
    25
100
AcDbLine
 10
-83.125
 20
7.625
 30
0.0
 11
-83.125
 21
12.25
 31
0.0
  0
LINE
  5
27C
330
1F
100
AcDbEntity
  8
16
  6
Continuous
 62
     3
370
    25
100
AcDbLine
 10
-83.125
 20
13.0
 30
0.0
 11
-83.125
 21
18.5
 31
0.0
  0
LINE
  5
27D
330
1F
100
AcDbEntity
  8
16
  6
Continuous
 62
     3
370
    25
100
AcDbLine
 10
-83.125
 20
19.25
 30
0.0
 11
-83.125
 21
23.875
 31
0.0
  0
LINE
  5
27E
330
1F
100
AcDbEntity
  8
16
  6
Continuous
 62
     3
370
    25
100
AcDbLine
 10
-83.125
 20
7.625
 30
0.0
 11
-82.5
 21
7.625
 31
0.0
  0
LINE
  5
27F
330
1F
100
AcDbEntity
  8
16
  6
Continuous
 62
     3
370
    25
100
AcDbLine
 10
-82.5
 20
7.625
 30
0.0
 11
-82.5
 21
12.25
 31
0.0
  0
LINE
  5
280
330
1F
100
AcDbEntity
  8
16
  6
Continuous
 62
     3
370
    25
100
AcDbLine
 10
-82.5
 20
13.0
 30
0.0
 11
-82.5
 21
18.5
 31
0.0
  0
LINE
  5
281
330
1F
100
AcDbEntity
  8
16
  6
Continuous
 62
     3
370
    25
100
AcDbLine
 10
-82.5
 20
19.25
 30
0.0
 11
-82.5
 21
23.875
 31
0.0
  0
LINE
  5
282
330
1F
100
AcDbEntity
  8
16
  6
Continuous
 62
     3
370
    25
100
AcDbLine
 10
-83.125
 20
23.875
 30
0.0
 11
-82.5
 21
23.875
 31
0.0
  0
LINE
  5
283
330
1F
100
AcDbEntity
  8
16
  6
Continuous
 62
     3
370
    25
100
AcDbLine
 10
-79.375
 20
7.625
 30
0.0
 11
-79.375
 21
12.25
 31
0.0
  0
LINE
  5
284
330
1F
100
AcDbEntity
  8
16
  6
Continuous
 62
     3
370
    25
100
AcDbLine
 10
-79.375
 20
13.0
 30
0.0
 11
-79.375
 21
18.5
 31
0.0
  0
LINE
  5
285
330
1F
100
AcDbEntity
  8
16
  6
Continuous
 62
     3
370
    25
100
AcDbLine
 10
-79.375
 20
19.25
 30
0.0
 11
-79.375
 21
23.875
 31
0.0
  0
LINE
  5
286
330
1F
100
AcDbEntity
  8
16
  6
Continuous
 62
     3
370
    25
100
AcDbLine
 10
-79.375
 20
7.625
 30
0.0
 11
-78.75
 21
7.625
 31
0.0
  0
LINE
  5
287
330
1F
100
AcDbEntity
  8
16
  6
Continuous
 62
     3
370
    25
100
AcDbLine
 10
-78.75
 20
7.625
 30
0.0
 11
-78.75
 21
12.25
 31
0.0
  0
LINE
  5
288
330
1F
100
AcDbEntity
  8
16
  6
Continuous
 62
     3
370
    25
100
AcDbLine
 10
-78.75
 20
13.0
 30
0.0
 11
-78.75
 21
18.5
 31
0.0
  0
LINE
  5
289
330
1F
100
AcDbEntity
  8
16
  6
Continuous
 62
     3
370
    25
100
AcDbLine
 10
-78.75
 20
19.25
 30
0.0
 11
-78.75
 21
23.875
 31
0.0
  0
LINE
  5
28A
330
1F
100
AcDbEntity
  8
16
  6
Continuous
 62
     3
370
    25
100
AcDbLine
 10
-79.375
 20
23.875
 30
0.0
 11
-78.75
 21
23.875
 31
0.0
  0
LINE
  5
28B
330
1F
100
AcDbEntity
  8
16
  6
Continuous
 62
     3
370
    25
100
AcDbLine
 10
-75.625
 20
7.625
 30
0.0
 11
-75.625
 21
12.25
 31
0.0
  0
LINE
  5
28C
330
1F
100
AcDbEntity
  8
16
  6
Continuous
 62
     3
370
    25
100
AcDbLine
 10
-75.625
 20
13.0
 30
0.0
 11
-75.625
 21
18.5
 31
0.0
  0
LINE
  5
28D
330
1F
100
AcDbEntity
  8
16
  6
Continuous
 62
     3
370
    25
100
AcDbLine
 10
-75.625
 20
19.25
 30
0.0
 11
-75.625
 21
23.875
 31
0.0
  0
LINE
  5
28E
330
1F
100
AcDbEntity
  8
16
  6
Continuous
 62
     3
370
    25
100
AcDbLine
 10
-75.625
 20
7.625
 30
0.0
 11
-75.0
 21
7.625
 31
0.0
  0
LINE
  5
28F
330
1F
100
AcDbEntity
  8
16
  6
Continuous
 62
     3
370
    25
100
AcDbLine
 10
-75.0
 20
7.625
 30
0.0
 11
-75.0
 21
12.25
 31
0.0
  0
LINE
  5
290
330
1F
100
AcDbEntity
  8
16
  6
Continuous
 62
     3
370
    25
100
AcDbLine
 10
-75.0
 20
13.0
 30
0.0
 11
-75.0
 21
18.5
 31
0.0
  0
LINE
  5
291
330
1F
100
AcDbEntity
  8
16
  6
Continuous
 62
     3
370
    25
100
AcDbLine
 10
-75.0
 20
19.25
 30
0.0
 11
-75.0
 21
23.875
 31
0.0
  0
LINE
  5
292
330
1F
100
AcDbEntity
  8
16
  6
Continuous
 62
     3
370
    25
100
AcDbLine
 10
-75.625
 20
23.875
 30
0.0
 11
-75.0
 21
23.875
 31
0.0
  0
LINE
  5
293
330
1F
100
AcDbEntity
  8
16
  6
Continuous
 62
     3
370
    25
100
AcDbLine
 10
-71.875
 20
7.625
 30
0.0
 11
-71.875
 21
12.25
 31
0.0
  0
LINE
  5
294
330
1F
100
AcDbEntity
  8
16
  6
Continuous
 62
     3
370
    25
100
AcDbLine
 10
-71.875
 20
13.0
 30
0.0
 11
-71.875
 21
18.5
 31
0.0
  0
LINE
  5
295
330
1F
100
AcDbEntity
  8
16
  6
Continuous
 62
     3
370
    25
100
AcDbLine
 10
-71.875
 20
19.25
 30
0.0
 11
-71.875
 21
23.875
 31
0.0
  0
LINE
  5
296
330
1F
100
AcDbEntity
  8
16
  6
Continuous
 62
     3
370
    25
100
AcDbLine
 10
-71.875
 20
7.625
 30
0.0
 11
-71.25
 21
7.625
 31
0.0
  0
LINE
  5
297
330
1F
100
AcDbEntity
  8
16
  6
Continuous
 62
     3
370
    25
100
AcDbLine
 10
-71.25
 20
7.625
 30
0.0
 11
-71.25
 21
12.25
 31
0.0
  0
LINE
  5
298
330
1F
100
AcDbEntity
  8
16
  6
Continuous
 62
     3
370
    25
100
AcDbLine
 10
-71.25
 20
13.0
 30
0.0
 11
-71.25
 21
18.5
 31
0.0
  0
LINE
  5
299
330
1F
100
AcDbEntity
  8
16
  6
Continuous
 62
     3
370
    25
100
AcDbLine
 10
-71.25
 20
19.25
 30
0.0
 11
-71.25
 21
23.875
 31
0.0
  0
LINE
  5
29A
330
1F
100
AcDbEntity
  8
16
  6
Continuous
 62
     3
370
    25
100
AcDbLine
 10
-71.875
 20
23.875
 30
0.0
 11
-71.25
 21
23.875
 31
0.0
  0
LINE
  5
29B
330
1F
100
AcDbEntity
  8
16
  6
Continuous
 62
     3
370
    25
100
AcDbLine
 10
-68.125
 20
7.625
 30
0.0
 11
-68.125
 21
12.25
 31
0.0
  0
LINE
  5
29C
330
1F
100
AcDbEntity
  8
16
  6
Continuous
 62
     3
370
    25
100
AcDbLine
 10
-68.125
 20
13.0
 30
0.0
 11
-68.125
 21
18.5
 31
0.0
  0
LINE
  5
29D
330
1F
100
AcDbEntity
  8
16
  6
Continuous
 62
     3
370
    25
100
AcDbLine
 10
-68.125
 20
19.25
 30
0.0
 11
-68.125
 21
23.875
 31
0.0
  0
LINE
  5
29E
330
1F
100
AcDbEntity
  8
16
  6
Continuous
 62
     3
370
    25
100
AcDbLine
 10
-68.125
 20
7.625
 30
0.0
 11
-67.5
 21
7.625
 31
0.0
  0
LINE
  5
29F
330
1F
100
AcDbEntity
  8
16
  6
Continuous
 62
     3
370
    25
100
AcDbLine
 10
-67.5
 20
7.625
 30
0.0
 11
-67.5
 21
12.25
 31
0.0
  0
LINE
  5
2A0
330
1F
100
AcDbEntity
  8
16
  6
Continuous
 62
     3
370
    25
100
AcDbLine
 10
-67.5
 20
13.0
 30
0.0
 11
-67.5
 21
18.5
 31
0.0
  0
LINE
  5
2A1
330
1F
100
AcDbEntity
  8
16
  6
Continuous
 62
     3
370
    25
100
AcDbLine
 10
-67.5
 20
19.25
 30
0.0
 11
-67.5
 21
23.875
 31
0.0
  0
LINE
  5
2A2
330
1F
100
AcDbEntity
  8
16
  6
Continuous
 62
     3
370
    25
100
AcDbLine
 10
-68.125
 20
23.875
 30
0.0
 11
-67.5
 21
23.875
 31
0.0
  0
LINE
  5
2A3
330
1F
100
AcDbEntity
  8
16
  6
Continuous
 62
     3
370
    25
100
AcDbLine
 10
-64.375
 20
7.625
 30
0.0
 11
-64.375
 21
12.25
 31
0.0
  0
LINE
  5
2A4
330
1F
100
AcDbEntity
  8
16
  6
Continuous
 62
     3
370
    25
100
AcDbLine
 10
-64.375
 20
13.0
 30
0.0
 11
-64.375
 21
18.5
 31
0.0
  0
LINE
  5
2A5
330
1F
100
AcDbEntity
  8
16
  6
Continuous
 62
     3
370
    25
100
AcDbLine
 10
-64.375
 20
19.25
 30
0.0
 11
-64.375
 21
23.875
 31
0.0
  0
LINE
  5
2A6
330
1F
100
AcDbEntity
  8
16
  6
Continuous
 62
     3
370
    25
100
AcDbLine
 10
-64.375
 20
7.625
 30
0.0
 11
-63.75
 21
7.625
 31
0.0
  0
LINE
  5
2A7
330
1F
100
AcDbEntity
  8
16
  6
Continuous
 62
     3
370
    25
100
AcDbLine
 10
-63.75
 20
7.625
 30
0.0
 11
-63.75
 21
12.25
 31
0.0
  0
LINE
  5
2A8
330
1F
100
AcDbEntity
  8
16
  6
Continuous
 62
     3
370
    25
100
AcDbLine
 10
-63.75
 20
13.0
 30
0.0
 11
-63.75
 21
18.5
 31
0.0
  0
LINE
  5
2A9
330
1F
100
AcDbEntity
  8
16
  6
Continuous
 62
     3
370
    25
100
AcDbLine
 10
-63.75
 20
19.25
 30
0.0
 11
-63.75
 21
23.875
 31
0.0
  0
LINE
  5
2AA
330
1F
100
AcDbEntity
  8
16
  6
Continuous
 62
     3
370
    25
100
AcDbLine
 10
-64.375
 20
23.875
 30
0.0
 11
-63.75
 21
23.875
 31
0.0
  0
LINE
  5
2AB
330
1F
100
AcDbEntity
  8
16
  6
Continuous
 62
     3
370
    25
100
AcDbLine
 10
-60.625
 20
7.625
 30
0.0
 11
-60.625
 21
12.25
 31
0.0
  0
LINE
  5
2AC
330
1F
100
AcDbEntity
  8
16
  6
Continuous
 62
     3
370
    25
100
AcDbLine
 10
-60.625
 20
13.0
 30
0.0
 11
-60.625
 21
18.5
 31
0.0
  0
LINE
  5
2AD
330
1F
100
AcDbEntity
  8
16
  6
Continuous
 62
     3
370
    25
100
AcDbLine
 10
-60.625
 20
19.25
 30
0.0
 11
-60.625
 21
23.875
 31
0.0
  0
LINE
  5
2AE
330
1F
100
AcDbEntity
  8
16
  6
Continuous
 62
     3
370
    25
100
AcDbLine
 10
-60.625
 20
7.625
 30
0.0
 11
-60.0
 21
7.625
 31
0.0
  0
LINE
  5
2AF
330
1F
100
AcDbEntity
  8
16
  6
Continuous
 62
     3
370
    25
100
AcDbLine
 10
-60.0
 20
7.625
 30
0.0
 11
-60.0
 21
12.25
 31
0.0
  0
LINE
  5
2B0
330
1F
100
AcDbEntity
  8
16
  6
Continuous
 62
     3
370
    25
100
AcDbLine
 10
-60.0
 20
13.0
 30
0.0
 11
-60.0
 21
18.5
 31
0.0
  0
LINE
  5
2B1
330
1F
100
AcDbEntity
  8
16
  6
Continuous
 62
     3
370
    25
100
AcDbLine
 10
-60.0
 20
19.25
 30
0.0
 11
-60.0
 21
23.875
 31
0.0
  0
LINE
  5
2B2
330
1F
100
AcDbEntity
  8
16
  6
Continuous
 62
     3
370
    25
100
AcDbLine
 10
-60.625
 20
23.875
 30
0.0
 11
-60.0
 21
23.875
 31
0.0
  0
LINE
  5
2B3
330
1F
100
AcDbEntity
  8
16
  6
Continuous
 62
     3
370
    25
100
AcDbLine
 10
-56.875
 20
7.625
 30
0.0
 11
-56.875
 21
12.25
 31
0.0
  0
LINE
  5
2B4
330
1F
100
AcDbEntity
  8
16
  6
Continuous
 62
     3
370
    25
100
AcDbLine
 10
-56.875
 20
13.0
 30
0.0
 11
-56.875
 21
18.5
 31
0.0
  0
LINE
  5
2B5
330
1F
100
AcDbEntity
  8
16
  6
Continuous
 62
     3
370
    25
100
AcDbLine
 10
-56.875
 20
19.25
 30
0.0
 11
-56.875
 21
23.875
 31
0.0
  0
LINE
  5
2B6
330
1F
100
AcDbEntity
  8
16
  6
Continuous
 62
     3
370
    25
100
AcDbLine
 10
-56.875
 20
7.625
 30
0.0
 11
-56.25
 21
7.625
 31
0.0
  0
LINE
  5
2B7
330
1F
100
AcDbEntity
  8
16
  6
Continuous
 62
     3
370
    25
100
AcDbLine
 10
-56.25
 20
7.625
 30
0.0
 11
-56.25
 21
12.25
 31
0.0
  0
LINE
  5
2B8
330
1F
100
AcDbEntity
  8
16
  6
Continuous
 62
     3
370
    25
100
AcDbLine
 10
-56.25
 20
13.0
 30
0.0
 11
-56.25
 21
18.5
 31
0.0
  0
LINE
  5
2B9
330
1F
100
AcDbEntity
  8
16
  6
Continuous
 62
     3
370
    25
100
AcDbLine
 10
-56.25
 20
19.25
 30
0.0
 11
-56.25
 21
23.875
 31
0.0
  0
LINE
  5
2BA
330
1F
100
AcDbEntity
  8
16
  6
Continuous
 62
     3
370
    25
100
AcDbLine
 10
-56.875
 20
23.875
 30
0.0
 11
-56.25
 21
23.875
 31
0.0
  0
LINE
  5
2BB
330
1F
100
AcDbEntity
  8
16
  6
Continuous
 62
     3
370
    25
100
AcDbLine
 10
-53.125
 20
7.625
 30
0.0
 11
-53.125
 21
12.25
 31
0.0
  0
LINE
  5
2BC
330
1F
100
AcDbEntity
  8
16
  6
Continuous
 62
     3
370
    25
100
AcDbLine
 10
-53.125
 20
13.0
 30
0.0
 11
-53.125
 21
18.5
 31
0.0
  0
LINE
  5
2BD
330
1F
100
AcDbEntity
  8
16
  6
Continuous
 62
     3
370
    25
100
AcDbLine
 10
-53.125
 20
19.25
 30
0.0
 11
-53.125
 21
23.875
 31
0.0
  0
LINE
  5
2BE
330
1F
100
AcDbEntity
  8
16
  6
Continuous
 62
     3
370
    25
100
AcDbLine
 10
-53.125
 20
7.625
 30
0.0
 11
-52.5
 21
7.625
 31
0.0
  0
LINE
  5
2BF
330
1F
100
AcDbEntity
  8
16
  6
Continuous
 62
     3
370
    25
100
AcDbLine
 10
-52.5
 20
7.625
 30
0.0
 11
-52.5
 21
12.25
 31
0.0
  0
LINE
  5
2C0
330
1F
100
AcDbEntity
  8
16
  6
Continuous
 62
     3
370
    25
100
AcDbLine
 10
-52.5
 20
13.0
 30
0.0
 11
-52.5
 21
18.5
 31
0.0
  0
LINE
  5
2C1
330
1F
100
AcDbEntity
  8
16
  6
Continuous
 62
     3
370
    25
100
AcDbLine
 10
-52.5
 20
19.25
 30
0.0
 11
-52.5
 21
23.875
 31
0.0
  0
LINE
  5
2C2
330
1F
100
AcDbEntity
  8
16
  6
Continuous
 62
     3
370
    25
100
AcDbLine
 10
-53.125
 20
23.875
 30
0.0
 11
-52.5
 21
23.875
 31
0.0
  0
LINE
  5
2C3
330
1F
100
AcDbEntity
  8
16
  6
Continuous
 62
     3
370
    25
100
AcDbLine
 10
-49.375
 20
7.625
 30
0.0
 11
-49.375
 21
12.25
 31
0.0
  0
LINE
  5
2C4
330
1F
100
AcDbEntity
  8
16
  6
Continuous
 62
     3
370
    25
100
AcDbLine
 10
-49.375
 20
13.0
 30
0.0
 11
-49.375
 21
18.5
 31
0.0
  0
LINE
  5
2C5
330
1F
100
AcDbEntity
  8
16
  6
Continuous
 62
     3
370
    25
100
AcDbLine
 10
-49.375
 20
19.25
 30
0.0
 11
-49.375
 21
23.875
 31
0.0
  0
LINE
  5
2C6
330
1F
100
AcDbEntity
  8
16
  6
Continuous
 62
     3
370
    25
100
AcDbLine
 10
-49.375
 20
7.625
 30
0.0
 11
-48.75
 21
7.625
 31
0.0
  0
LINE
  5
2C7
330
1F
100
AcDbEntity
  8
16
  6
Continuous
 62
     3
370
    25
100
AcDbLine
 10
-48.75
 20
7.625
 30
0.0
 11
-48.75
 21
12.25
 31
0.0
  0
LINE
  5
2C8
330
1F
100
AcDbEntity
  8
16
  6
Continuous
 62
     3
370
    25
100
AcDbLine
 10
-48.75
 20
13.0
 30
0.0
 11
-48.75
 21
18.5
 31
0.0
  0
LINE
  5
2C9
330
1F
100
AcDbEntity
  8
16
  6
Continuous
 62
     3
370
    25
100
AcDbLine
 10
-48.75
 20
19.25
 30
0.0
 11
-48.75
 21
23.875
 31
0.0
  0
LINE
  5
2CA
330
1F
100
AcDbEntity
  8
16
  6
Continuous
 62
     3
370
    25
100
AcDbLine
 10
-49.375
 20
23.875
 30
0.0
 11
-48.75
 21
23.875
 31
0.0
  0
LINE
  5
2CB
330
1F
100
AcDbEntity
  8
16
  6
Continuous
 62
     3
370
    25
100
AcDbLine
 10
-45.625
 20
7.625
 30
0.0
 11
-45.625
 21
12.25
 31
0.0
  0
LINE
  5
2CC
330
1F
100
AcDbEntity
  8
16
  6
Continuous
 62
     3
370
    25
100
AcDbLine
 10
-45.625
 20
13.0
 30
0.0
 11
-45.625
 21
18.5
 31
0.0
  0
LINE
  5
2CD
330
1F
100
AcDbEntity
  8
16
  6
Continuous
 62
     3
370
    25
100
AcDbLine
 10
-45.625
 20
19.25
 30
0.0
 11
-45.625
 21
23.875
 31
0.0
  0
LINE
  5
2CE
330
1F
100
AcDbEntity
  8
16
  6
Continuous
 62
     3
370
    25
100
AcDbLine
 10
-45.625
 20
7.625
 30
0.0
 11
-45.0
 21
7.625
 31
0.0
  0
LINE
  5
2CF
330
1F
100
AcDbEntity
  8
16
  6
Continuous
 62
     3
370
    25
100
AcDbLine
 10
-45.0
 20
7.625
 30
0.0
 11
-45.0
 21
12.25
 31
0.0
  0
LINE
  5
2D0
330
1F
100
AcDbEntity
  8
16
  6
Continuous
 62
     3
370
    25
100
AcDbLine
 10
-45.0
 20
13.0
 30
0.0
 11
-45.0
 21
18.5
 31
0.0
  0
LINE
  5
2D1
330
1F
100
AcDbEntity
  8
16
  6
Continuous
 62
     3
370
    25
100
AcDbLine
 10
-45.0
 20
19.25
 30
0.0
 11
-45.0
 21
23.875
 31
0.0
  0
LINE
  5
2D2
330
1F
100
AcDbEntity
  8
16
  6
Continuous
 62
     3
370
    25
100
AcDbLine
 10
-45.625
 20
23.875
 30
0.0
 11
-45.0
 21
23.875
 31
0.0
  0
LINE
  5
2D3
330
1F
100
AcDbEntity
  8
16
  6
Continuous
 62
     3
370
    25
100
AcDbLine
 10
-41.875
 20
7.625
 30
0.0
 11
-41.875
 21
12.25
 31
0.0
  0
LINE
  5
2D4
330
1F
100
AcDbEntity
  8
16
  6
Continuous
 62
     3
370
    25
100
AcDbLine
 10
-41.875
 20
13.0
 30
0.0
 11
-41.875
 21
18.5
 31
0.0
  0
LINE
  5
2D5
330
1F
100
AcDbEntity
  8
16
  6
Continuous
 62
     3
370
    25
100
AcDbLine
 10
-41.875
 20
19.25
 30
0.0
 11
-41.875
 21
23.875
 31
0.0
  0
LINE
  5
2D6
330
1F
100
AcDbEntity
  8
16
  6
Continuous
 62
     3
370
    25
100
AcDbLine
 10
-41.875
 20
7.625
 30
0.0
 11
-41.25
 21
7.625
 31
0.0
  0
LINE
  5
2D7
330
1F
100
AcDbEntity
  8
16
  6
Continuous
 62
     3
370
    25
100
AcDbLine
 10
-41.25
 20
7.625
 30
0.0
 11
-41.25
 21
12.25
 31
0.0
  0
LINE
  5
2D8
330
1F
100
AcDbEntity
  8
16
  6
Continuous
 62
     3
370
    25
100
AcDbLine
 10
-41.25
 20
13.0
 30
0.0
 11
-41.25
 21
18.5
 31
0.0
  0
LINE
  5
2D9
330
1F
100
AcDbEntity
  8
16
  6
Continuous
 62
     3
370
    25
100
AcDbLine
 10
-41.25
 20
19.25
 30
0.0
 11
-41.25
 21
23.875
 31
0.0
  0
LINE
  5
2DA
330
1F
100
AcDbEntity
  8
16
  6
Continuous
 62
     3
370
    25
100
AcDbLine
 10
-41.875
 20
23.875
 30
0.0
 11
-41.25
 21
23.875
 31
0.0
  0
LINE
  5
2DB
330
1F
100
AcDbEntity
  8
16
  6
Continuous
 62
     3
370
    25
100
AcDbLine
 10
-41.5625
 20
7.625
 30
0.0
 11
-41.5625
 21
9.724999904632568
 31
0.0
  0
LINE
  5
2DC
330
1F
100
AcDbEntity
  8
16
  6
Continuous
 62
     3
370
    25
100
AcDbLine
 10
-41.875
 20
7.625
 30
0.0
 11
-41.25
 21
7.974999994039535
 31
0.0
  0
LINE
  5
2DD
330
1F
100
AcDbEntity
  8
16
  6
Continuous
 62
     3
370
    25
100
AcDbLine
 10
-41.25
 20
7.974999994039535
 30
0.0
 11
-41.875
 21
8.324999988079071
 31
0.0
  0
LINE
  5
2DE
330
1F
100
AcDbEntity
  8
16
  6
Continuous
 62
     3
370
    25
100
AcDbLine
 10
-41.875
 20
8.324999988079071
 30
0.0
 11
-41.25
 21
8.674999982118607
 31
0.0
  0
LINE
  5
2DF
330
1F
100
AcDbEntity
  8
16
  6
Continuous
 62
     3
370
    25
100
AcDbLine
 10
-41.25
 20
8.674999982118607
 30
0.0
 11
-41.875
 21
9.024999976158142
 31
0.0
  0
LINE
  5
2E0
330
1F
100
AcDbEntity
  8
16
  6
Continuous
 62
     3
370
    25
100
AcDbLine
 10
-41.875
 20
9.024999976158142
 30
0.0
 11
-41.25
 21
9.374999970197678
 31
0.0
  0
LINE
  5
2E1
330
1F
100
AcDbEntity
  8
16
  6
Continuous
 62
     3
370
    25
100
AcDbLine
 10
-41.25
 20
9.374999970197678
 30
0.0
 11
-41.875
 21
9.724999964237213
 31
0.0
  0
LINE
  5
2E2
330
1F
100
AcDbEntity
  8
16
  6
Continuous
 62
     3
370
    25
100
AcDbLine
 10
-38.125
 20
7.625
 30
0.0
 11
-38.125
 21
12.25
 31
0.0
  0
LINE
  5
2E3
330
1F
100
AcDbEntity
  8
16
  6
Continuous
 62
     3
370
    25
100
AcDbLine
 10
-38.125
 20
13.0
 30
0.0
 11
-38.125
 21
18.5
 31
0.0
  0
LINE
  5
2E4
330
1F
100
AcDbEntity
  8
16
  6
Continuous
 62
     3
370
    25
100
AcDbLine
 10
-38.125
 20
19.25
 30
0.0
 11
-38.125
 21
23.875
 31
0.0
  0
LINE
  5
2E5
330
1F
100
AcDbEntity
  8
16
  6
Continuous
 62
     3
370
    25
100
AcDbLine
 10
-38.125
 20
7.625
 30
0.0
 11
-37.5
 21
7.625
 31
0.0
  0
LINE
  5
2E6
330
1F
100
AcDbEntity
  8
16
  6
Continuous
 62
     3
370
    25
100
AcDbLine
 10
-37.5
 20
7.625
 30
0.0
 11
-37.5
 21
12.25
 31
0.0
  0
LINE
  5
2E7
330
1F
100
AcDbEntity
  8
16
  6
Continuous
 62
     3
370
    25
100
AcDbLine
 10
-37.5
 20
13.0
 30
0.0
 11
-37.5
 21
18.5
 31
0.0
  0
LINE
  5
2E8
330
1F
100
AcDbEntity
  8
16
  6
Continuous
 62
     3
370
    25
100
AcDbLine
 10
-37.5
 20
19.25
 30
0.0
 11
-37.5
 21
23.875
 31
0.0
  0
LINE
  5
2E9
330
1F
100
AcDbEntity
  8
16
  6
Continuous
 62
     3
370
    25
100
AcDbLine
 10
-38.125
 20
23.875
 30
0.0
 11
-37.5
 21
23.875
 31
0.0
  0
LINE
  5
2EA
330
1F
100
AcDbEntity
  8
16
  6
Continuous
 62
     3
370
    25
100
AcDbLine
 10
-37.8125
 20
7.625
 30
0.0
 11
-37.8125
 21
11.82499980926514
 31
0.0
  0
LINE
  5
2EB
330
1F
100
AcDbEntity
  8
16
  6
Continuous
 62
     3
370
    25
100
AcDbLine
 10
-38.125
 20
7.625
 30
0.0
 11
-37.5
 21
7.974999994039535
 31
0.0
  0
LINE
  5
2EC
330
1F
100
AcDbEntity
  8
16
  6
Continuous
 62
     3
370
    25
100
AcDbLine
 10
-37.5
 20
7.974999994039535
 30
0.0
 11
-38.125
 21
8.324999988079071
 31
0.0
  0
LINE
  5
2ED
330
1F
100
AcDbEntity
  8
16
  6
Continuous
 62
     3
370
    25
100
AcDbLine
 10
-38.125
 20
8.324999988079071
 30
0.0
 11
-37.5
 21
8.674999982118607
 31
0.0
  0
LINE
  5
2EE
330
1F
100
AcDbEntity
  8
16
  6
Continuous
 62
     3
370
    25
100
AcDbLine
 10
-37.5
 20
8.674999982118607
 30
0.0
 11
-38.125
 21
9.024999976158142
 31
0.0
  0
LINE
  5
2EF
330
1F
100
AcDbEntity
  8
16
  6
Continuous
 62
     3
370
    25
100
AcDbLine
 10
-38.125
 20
9.024999976158142
 30
0.0
 11
-37.5
 21
9.374999970197678
 31
0.0
  0
LINE
  5
2F0
330
1F
100
AcDbEntity
  8
16
  6
Continuous
 62
     3
370
    25
100
AcDbLine
 10
-37.5
 20
9.374999970197678
 30
0.0
 11
-38.125
 21
9.724999964237213
 31
0.0
  0
LINE
  5
2F1
330
1F
100
AcDbEntity
  8
16
  6
Continuous
 62
     3
370
    25
100
AcDbLine
 10
-38.125
 20
9.724999964237213
 30
0.0
 11
-37.5
 21
10.07499995827675
 31
0.0
  0
LINE
  5
2F2
330
1F
100
AcDbEntity
  8
16
  6
Continuous
 62
     3
370
    25
100
AcDbLine
 10
-37.5
 20
10.07499995827675
 30
0.0
 11
-38.125
 21
10.42499995231628
 31
0.0
  0
LINE
  5
2F3
330
1F
100
AcDbEntity
  8
16
  6
Continuous
 62
     3
370
    25
100
AcDbLine
 10
-38.125
 20
10.42499995231628
 30
0.0
 11
-37.5
 21
10.77499994635582
 31
0.0
  0
LINE
  5
2F4
330
1F
100
AcDbEntity
  8
16
  6
Continuous
 62
     3
370
    25
100
AcDbLine
 10
-37.5
 20
10.77499994635582
 30
0.0
 11
-38.125
 21
11.12499994039536
 31
0.0
  0
LINE
  5
2F5
330
1F
100
AcDbEntity
  8
16
  6
Continuous
 62
     3
370
    25
100
AcDbLine
 10
-38.125
 20
11.12499994039536
 30
0.0
 11
-37.5
 21
11.47499993443489
 31
0.0
  0
LINE
  5
2F6
330
1F
100
AcDbEntity
  8
16
  6
Continuous
 62
     3
370
    25
100
AcDbLine
 10
-37.5
 20
11.47499993443489
 30
0.0
 11
-38.125
 21
11.82499992847443
 31
0.0
  0
LINE
  5
2F7
330
1F
100
AcDbEntity
  8
16
  6
Continuous
 62
     3
370
    25
100
AcDbLine
 10
-34.375
 20
7.625
 30
0.0
 11
-34.375
 21
12.25
 31
0.0
  0
LINE
  5
2F8
330
1F
100
AcDbEntity
  8
16
  6
Continuous
 62
     3
370
    25
100
AcDbLine
 10
-34.375
 20
13.0
 30
0.0
 11
-34.375
 21
18.5
 31
0.0
  0
LINE
  5
2F9
330
1F
100
AcDbEntity
  8
16
  6
Continuous
 62
     3
370
    25
100
AcDbLine
 10
-34.375
 20
19.25
 30
0.0
 11
-34.375
 21
23.875
 31
0.0
  0
LINE
  5
2FA
330
1F
100
AcDbEntity
  8
16
  6
Continuous
 62
     3
370
    25
100
AcDbLine
 10
-34.375
 20
7.625
 30
0.0
 11
-33.75
 21
7.625
 31
0.0
  0
LINE
  5
2FB
330
1F
100
AcDbEntity
  8
16
  6
Continuous
 62
     3
370
    25
100
AcDbLine
 10
-33.75
 20
7.625
 30
0.0
 11
-33.75
 21
12.25
 31
0.0
  0
LINE
  5
2FC
330
1F
100
AcDbEntity
  8
16
  6
Continuous
 62
     3
370
    25
100
AcDbLine
 10
-33.75
 20
13.0
 30
0.0
 11
-33.75
 21
18.5
 31
0.0
  0
LINE
  5
2FD
330
1F
100
AcDbEntity
  8
16
  6
Continuous
 62
     3
370
    25
100
AcDbLine
 10
-33.75
 20
19.25
 30
0.0
 11
-33.75
 21
23.875
 31
0.0
  0
LINE
  5
2FE
330
1F
100
AcDbEntity
  8
16
  6
Continuous
 62
     3
370
    25
100
AcDbLine
 10
-34.375
 20
23.875
 30
0.0
 11
-33.75
 21
23.875
 31
0.0
  0
LINE
  5
2FF
330
1F
100
AcDbEntity
  8
16
  6
Continuous
 62
     3
370
    25
100
AcDbLine
 10
-34.0625
 20
7.625
 30
0.0
 11
-34.0625
 21
12.25
 31
0.0
  0
LINE
  5
300
330
1F
100
AcDbEntity
  8
16
  6
Continuous
 62
     3
370
    25
100
AcDbLine
 10
-34.0625
 20
13.0
 30
0.0
 11
-34.0625
 21
13.92500019073486
 31
0.0
  0
LINE
  5
301
330
1F
100
AcDbEntity
  8
16
  6
Continuous
 62
     3
370
    25
100
AcDbLine
 10
-34.375
 20
7.625
 30
0.0
 11
-33.75
 21
7.974999994039535
 31
0.0
  0
LINE
  5
302
330
1F
100
AcDbEntity
  8
16
  6
Continuous
 62
     3
370
    25
100
AcDbLine
 10
-33.75
 20
7.974999994039535
 30
0.0
 11
-34.375
 21
8.324999988079071
 31
0.0
  0
LINE
  5
303
330
1F
100
AcDbEntity
  8
16
  6
Continuous
 62
     3
370
    25
100
AcDbLine
 10
-34.375
 20
8.324999988079071
 30
0.0
 11
-33.75
 21
8.674999982118607
 31
0.0
  0
LINE
  5
304
330
1F
100
AcDbEntity
  8
16
  6
Continuous
 62
     3
370
    25
100
AcDbLine
 10
-33.75
 20
8.674999982118607
 30
0.0
 11
-34.375
 21
9.024999976158142
 31
0.0
  0
LINE
  5
305
330
1F
100
AcDbEntity
  8
16
  6
Continuous
 62
     3
370
    25
100
AcDbLine
 10
-34.375
 20
9.024999976158142
 30
0.0
 11
-33.75
 21
9.374999970197678
 31
0.0
  0
LINE
  5
306
330
1F
100
AcDbEntity
  8
16
  6
Continuous
 62
     3
370
    25
100
AcDbLine
 10
-33.75
 20
9.374999970197678
 30
0.0
 11
-34.375
 21
9.724999964237213
 31
0.0
  0
LINE
  5
307
330
1F
100
AcDbEntity
  8
16
  6
Continuous
 62
     3
370
    25
100
AcDbLine
 10
-34.375
 20
9.724999964237213
 30
0.0
 11
-33.75
 21
10.07499995827675
 31
0.0
  0
LINE
  5
308
330
1F
100
AcDbEntity
  8
16
  6
Continuous
 62
     3
370
    25
100
AcDbLine
 10
-33.75
 20
10.07499995827675
 30
0.0
 11
-34.375
 21
10.42499995231628
 31
0.0
  0
LINE
  5
309
330
1F
100
AcDbEntity
  8
16
  6
Continuous
 62
     3
370
    25
100
AcDbLine
 10
-34.375
 20
10.42499995231628
 30
0.0
 11
-33.75
 21
10.77499994635582
 31
0.0
  0
LINE
  5
30A
330
1F
100
AcDbEntity
  8
16
  6
Continuous
 62
     3
370
    25
100
AcDbLine
 10
-33.75
 20
10.77499994635582
 30
0.0
 11
-34.375
 21
11.12499994039536
 31
0.0
  0
LINE
  5
30B
330
1F
100
AcDbEntity
  8
16
  6
Continuous
 62
     3
370
    25
100
AcDbLine
 10
-34.375
 20
11.12499994039536
 30
0.0
 11
-33.75
 21
11.47499993443489
 31
0.0
  0
LINE
  5
30C
330
1F
100
AcDbEntity
  8
16
  6
Continuous
 62
     3
370
    25
100
AcDbLine
 10
-33.75
 20
11.47499993443489
 30
0.0
 11
-34.375
 21
11.82499992847443
 31
0.0
  0
LINE
  5
30D
330
1F
100
AcDbEntity
  8
16
  6
Continuous
 62
     3
370
    25
100
AcDbLine
 10
-34.375
 20
11.82499992847443
 30
0.0
 11
-33.75
 21
12.17499992251396
 31
0.0
  0
LINE
  5
30E
330
1F
100
AcDbEntity
  8
16
  6
Continuous
 62
     3
370
    25
100
AcDbLine
 10
-33.75
 20
12.17499992251396
 30
0.0
 11
-33.88392871207729
 21
12.25
 31
0.0
  0
LINE
  5
30F
330
1F
100
AcDbEntity
  8
16
  6
Continuous
 62
     3
370
    25
100
AcDbLine
 10
-33.97321444917091
 20
13.0
 30
0.0
 11
-34.375
 21
13.22499990463257
 31
0.0
  0
LINE
  5
310
330
1F
100
AcDbEntity
  8
16
  6
Continuous
 62
     3
370
    25
100
AcDbLine
 10
-34.375
 20
13.22499990463257
 30
0.0
 11
-33.75
 21
13.5749998986721
 31
0.0
  0
LINE
  5
311
330
1F
100
AcDbEntity
  8
16
  6
Continuous
 62
     3
370
    25
100
AcDbLine
 10
-33.75
 20
13.5749998986721
 30
0.0
 11
-34.375
 21
13.92499989271164
 31
0.0
  0
LINE
  5
312
330
1F
100
AcDbEntity
  8
16
  6
Continuous
 62
     3
370
    25
100
AcDbLine
 10
-30.625
 20
7.625
 30
0.0
 11
-30.625
 21
12.25
 31
0.0
  0
LINE
  5
313
330
1F
100
AcDbEntity
  8
16
  6
Continuous
 62
     3
370
    25
100
AcDbLine
 10
-30.625
 20
13.0
 30
0.0
 11
-30.625
 21
18.5
 31
0.0
  0
LINE
  5
314
330
1F
100
AcDbEntity
  8
16
  6
Continuous
 62
     3
370
    25
100
AcDbLine
 10
-30.625
 20
19.25
 30
0.0
 11
-30.625
 21
23.875
 31
0.0
  0
LINE
  5
315
330
1F
100
AcDbEntity
  8
16
  6
Continuous
 62
     3
370
    25
100
AcDbLine
 10
-30.625
 20
7.625
 30
0.0
 11
-30.0
 21
7.625
 31
0.0
  0
LINE
  5
316
330
1F
100
AcDbEntity
  8
16
  6
Continuous
 62
     3
370
    25
100
AcDbLine
 10
-30.0
 20
7.625
 30
0.0
 11
-30.0
 21
23.875
 31
0.0
  0
LINE
  5
317
330
1F
100
AcDbEntity
  8
16
  6
Continuous
 62
     3
370
    25
100
AcDbLine
 10
-30.625
 20
23.875
 30
0.0
 11
-30.0
 21
23.875
 31
0.0
  0
LINE
  5
318
330
1F
100
AcDbEntity
  8
16
  6
Continuous
 62
     3
370
    25
100
AcDbLine
 10
-30.3125
 20
7.625
 30
0.0
 11
-30.3125
 21
12.25
 31
0.0
  0
LINE
  5
319
330
1F
100
AcDbEntity
  8
16
  6
Continuous
 62
     3
370
    25
100
AcDbLine
 10
-30.3125
 20
13.0
 30
0.0
 11
-30.3125
 21
16.02499961853027
 31
0.0
  0
LINE
  5
31A
330
1F
100
AcDbEntity
  8
16
  6
Continuous
 62
     3
370
    25
100
AcDbLine
 10
-30.625
 20
7.625
 30
0.0
 11
-30.0
 21
7.974999994039535
 31
0.0
  0
LINE
  5
31B
330
1F
100
AcDbEntity
  8
16
  6
Continuous
 62
     3
370
    25
100
AcDbLine
 10
-30.0
 20
7.974999994039535
 30
0.0
 11
-30.625
 21
8.324999988079071
 31
0.0
  0
LINE
  5
31C
330
1F
100
AcDbEntity
  8
16
  6
Continuous
 62
     3
370
    25
100
AcDbLine
 10
-30.625
 20
8.324999988079071
 30
0.0
 11
-30.0
 21
8.674999982118607
 31
0.0
  0
LINE
  5
31D
330
1F
100
AcDbEntity
  8
16
  6
Continuous
 62
     3
370
    25
100
AcDbLine
 10
-30.0
 20
8.674999982118607
 30
0.0
 11
-30.625
 21
9.024999976158142
 31
0.0
  0
LINE
  5
31E
330
1F
100
AcDbEntity
  8
16
  6
Continuous
 62
     3
370
    25
100
AcDbLine
 10
-30.625
 20
9.024999976158142
 30
0.0
 11
-30.0
 21
9.374999970197678
 31
0.0
  0
LINE
  5
31F
330
1F
100
AcDbEntity
  8
16
  6
Continuous
 62
     3
370
    25
100
AcDbLine
 10
-30.0
 20
9.374999970197678
 30
0.0
 11
-30.625
 21
9.724999964237213
 31
0.0
  0
LINE
  5
320
330
1F
100
AcDbEntity
  8
16
  6
Continuous
 62
     3
370
    25
100
AcDbLine
 10
-30.625
 20
9.724999964237213
 30
0.0
 11
-30.0
 21
10.07499995827675
 31
0.0
  0
LINE
  5
321
330
1F
100
AcDbEntity
  8
16
  6
Continuous
 62
     3
370
    25
100
AcDbLine
 10
-30.0
 20
10.07499995827675
 30
0.0
 11
-30.625
 21
10.42499995231628
 31
0.0
  0
LINE
  5
322
330
1F
100
AcDbEntity
  8
16
  6
Continuous
 62
     3
370
    25
100
AcDbLine
 10
-30.625
 20
10.42499995231628
 30
0.0
 11
-30.0
 21
10.77499994635582
 31
0.0
  0
LINE
  5
323
330
1F
100
AcDbEntity
  8
16
  6
Continuous
 62
     3
370
    25
100
AcDbLine
 10
-30.0
 20
10.77499994635582
 30
0.0
 11
-30.625
 21
11.12499994039536
 31
0.0
  0
LINE
  5
324
330
1F
100
AcDbEntity
  8
16
  6
Continuous
 62
     3
370
    25
100
AcDbLine
 10
-30.625
 20
11.12499994039536
 30
0.0
 11
-30.0
 21
11.47499993443489
 31
0.0
  0
LINE
  5
325
330
1F
100
AcDbEntity
  8
16
  6
Continuous
 62
     3
370
    25
100
AcDbLine
 10
-30.0
 20
11.47499993443489
 30
0.0
 11
-30.625
 21
11.82499992847443
 31
0.0
  0
LINE
  5
326
330
1F
100
AcDbEntity
  8
16
  6
Continuous
 62
     3
370
    25
100
AcDbLine
 10
-30.625
 20
11.82499992847443
 30
0.0
 11
-30.0
 21
12.17499992251396
 31
0.0
  0
LINE
  5
327
330
1F
100
AcDbEntity
  8
16
  6
Continuous
 62
     3
370
    25
100
AcDbLine
 10
-30.0
 20
12.17499992251396
 30
0.0
 11
-30.13392871207729
 21
12.25
 31
0.0
  0
LINE
  5
328
330
1F
100
AcDbEntity
  8
16
  6
Continuous
 62
     3
370
    25
100
AcDbLine
 10
-30.0
 20
12.87499991059303
 30
0.0
 11
-30.625
 21
13.22499990463257
 31
0.0
  0
LINE
  5
329
330
1F
100
AcDbEntity
  8
16
  6
Continuous
 62
     3
370
    25
100
AcDbLine
 10
-30.625
 20
13.22499990463257
 30
0.0
 11
-30.0
 21
13.5749998986721
 31
0.0
  0
LINE
  5
32A
330
1F
100
AcDbEntity
  8
16
  6
Continuous
 62
     3
370
    25
100
AcDbLine
 10
-30.0
 20
13.5749998986721
 30
0.0
 11
-30.625
 21
13.92499989271164
 31
0.0
  0
LINE
  5
32B
330
1F
100
AcDbEntity
  8
16
  6
Continuous
 62
     3
370
    25
100
AcDbLine
 10
-30.625
 20
13.92499989271164
 30
0.0
 11
-30.0
 21
14.27499988675117
 31
0.0
  0
LINE
  5
32C
330
1F
100
AcDbEntity
  8
16
  6
Continuous
 62
     3
370
    25
100
AcDbLine
 10
-30.0
 20
14.27499988675117
 30
0.0
 11
-30.625
 21
14.62499988079071
 31
0.0
  0
LINE
  5
32D
330
1F
100
AcDbEntity
  8
16
  6
Continuous
 62
     3
370
    25
100
AcDbLine
 10
-30.625
 20
14.62499988079071
 30
0.0
 11
-30.0
 21
14.97499987483025
 31
0.0
  0
LINE
  5
32E
330
1F
100
AcDbEntity
  8
16
  6
Continuous
 62
     3
370
    25
100
AcDbLine
 10
-30.0
 20
14.97499987483025
 30
0.0
 11
-30.625
 21
15.32499986886978
 31
0.0
  0
LINE
  5
32F
330
1F
100
AcDbEntity
  8
16
  6
Continuous
 62
     3
370
    25
100
AcDbLine
 10
-30.625
 20
15.32499986886978
 30
0.0
 11
-30.0
 21
15.67499986290932
 31
0.0
  0
LINE
  5
330
330
1F
100
AcDbEntity
  8
16
  6
Continuous
 62
     3
370
    25
100
AcDbLine
 10
-30.0
 20
15.67499986290932
 30
0.0
 11
-30.625
 21
16.02499985694885
 31
0.0
  0
LINE
  5
331
330
1F
100
AcDbEntity
  8
16
  6
Continuous
 62
     3
370
    25
100
AcDbLine
 10
-154.375
 20
-37.375
 30
0.0
 11
-154.375
 21
-38.125
 31
0.0
  0
LINE
  5
332
330
1F
100
AcDbEntity
  8
16
  6
Continuous
 62
     3
370
    25
100
AcDbLine
 10
-154.375
 20
-38.125
 30
0.0
 11
-154.25
 21
-38.375
 31
0.0
  0
LINE
  5
333
330
1F
100
AcDbEntity
  8
16
  6
Continuous
 62
     3
370
    25
100
AcDbLine
 10
-154.25
 20
-38.375
 30
0.0
 11
-154.25
 21
-39.5
 31
0.0
  0
LINE
  5
334
330
1F
100
AcDbEntity
  8
16
  6
Continuous
 62
     3
370
    25
100
AcDbLine
 10
-154.25
 20
-39.5
 30
0.0
 11
-154.375
 21
-39.75
 31
0.0
  0
LINE
  5
335
330
1F
100
AcDbEntity
  8
16
  6
Continuous
 62
     3
370
    25
100
AcDbLine
 10
-154.375
 20
-39.75
 30
0.0
 11
-154.375
 21
-40.5
 31
0.0
  0
LINE
  5
336
330
1F
100
AcDbEntity
  8
16
  6
Continuous
 62
     3
370
    25
100
AcDbLine
 10
-154.375
 20
-40.5
 30
0.0
 11
-153.75
 21
-40.5
 31
0.0
  0
LINE
  5
337
330
1F
100
AcDbEntity
  8
16
  6
Continuous
 62
     3
370
    25
100
AcDbLine
 10
-153.75
 20
-40.5
 30
0.0
 11
-153.75
 21
-39.75
 31
0.0
  0
LINE
  5
338
330
1F
100
AcDbEntity
  8
16
  6
Continuous
 62
     3
370
    25
100
AcDbLine
 10
-153.75
 20
-39.75
 30
0.0
 11
-153.875
 21
-39.5
 31
0.0
  0
LINE
  5
339
330
1F
100
AcDbEntity
  8
16
  6
Continuous
 62
     3
370
    25
100
AcDbLine
 10
-153.875
 20
-39.5
 30
0.0
 11
-153.875
 21
-38.375
 31
0.0
  0
LINE
  5
33A
330
1F
100
AcDbEntity
  8
16
  6
Continuous
 62
     3
370
    25
100
AcDbLine
 10
-153.875
 20
-38.375
 30
0.0
 11
-153.75
 21
-38.125
 31
0.0
  0
LINE
  5
33B
330
1F
100
AcDbEntity
  8
16
  6
Continuous
 62
     3
370
    25
100
AcDbLine
 10
-153.75
 20
-38.125
 30
0.0
 11
-153.75
 21
-37.375
 31
0.0
  0
LINE
  5
33C
330
1F
100
AcDbEntity
  8
16
  6
Continuous
 62
     3
370
    25
100
AcDbLine
 10
-153.75
 20
-37.375
 30
0.0
 11
-154.375
 21
-37.375
 31
0.0
  0
LINE
  5
33D
330
1F
100
AcDbEntity
  8
16
  6
Continuous
 62
     3
370
    25
100
AcDbLine
 10
-154.375
 20
-37.375
 30
0.0
 11
-154.375
 21
-37.28750000149012
 31
0.0
  0
LINE
  5
33E
330
1F
100
AcDbEntity
  8
16
  6
Continuous
 62
     3
370
    25
100
AcDbLine
 10
-154.375
 20
-37.28750000149012
 30
0.0
 11
-153.75
 21
-37.28750000149012
 31
0.0
  0
LINE
  5
33F
330
1F
100
AcDbEntity
  8
16
  6
Continuous
 62
     3
370
    25
100
AcDbLine
 10
-153.75
 20
-37.28750000149012
 30
0.0
 11
-153.75
 21
-37.375
 31
0.0
  0
LINE
  5
340
330
1F
100
AcDbEntity
  8
16
  6
Continuous
 62
     3
370
    25
100
AcDbLine
 10
-150.625
 20
-37.375
 30
0.0
 11
-150.625
 21
-38.125
 31
0.0
  0
LINE
  5
341
330
1F
100
AcDbEntity
  8
16
  6
Continuous
 62
     3
370
    25
100
AcDbLine
 10
-150.625
 20
-38.125
 30
0.0
 11
-150.5
 21
-38.375
 31
0.0
  0
LINE
  5
342
330
1F
100
AcDbEntity
  8
16
  6
Continuous
 62
     3
370
    25
100
AcDbLine
 10
-150.5
 20
-38.375
 30
0.0
 11
-150.5
 21
-39.5
 31
0.0
  0
LINE
  5
343
330
1F
100
AcDbEntity
  8
16
  6
Continuous
 62
     3
370
    25
100
AcDbLine
 10
-150.5
 20
-39.5
 30
0.0
 11
-150.625
 21
-39.75
 31
0.0
  0
LINE
  5
344
330
1F
100
AcDbEntity
  8
16
  6
Continuous
 62
     3
370
    25
100
AcDbLine
 10
-150.625
 20
-39.75
 30
0.0
 11
-150.625
 21
-40.5
 31
0.0
  0
LINE
  5
345
330
1F
100
AcDbEntity
  8
16
  6
Continuous
 62
     3
370
    25
100
AcDbLine
 10
-150.625
 20
-40.5
 30
0.0
 11
-150.0
 21
-40.5
 31
0.0
  0
LINE
  5
346
330
1F
100
AcDbEntity
  8
16
  6
Continuous
 62
     3
370
    25
100
AcDbLine
 10
-150.0
 20
-40.5
 30
0.0
 11
-150.0
 21
-39.75
 31
0.0
  0
LINE
  5
347
330
1F
100
AcDbEntity
  8
16
  6
Continuous
 62
     3
370
    25
100
AcDbLine
 10
-150.0
 20
-39.75
 30
0.0
 11
-150.125
 21
-39.5
 31
0.0
  0
LINE
  5
348
330
1F
100
AcDbEntity
  8
16
  6
Continuous
 62
     3
370
    25
100
AcDbLine
 10
-150.125
 20
-39.5
 30
0.0
 11
-150.125
 21
-38.375
 31
0.0
  0
LINE
  5
349
330
1F
100
AcDbEntity
  8
16
  6
Continuous
 62
     3
370
    25
100
AcDbLine
 10
-150.125
 20
-38.375
 30
0.0
 11
-150.0
 21
-38.125
 31
0.0
  0
LINE
  5
34A
330
1F
100
AcDbEntity
  8
16
  6
Continuous
 62
     3
370
    25
100
AcDbLine
 10
-150.0
 20
-38.125
 30
0.0
 11
-150.0
 21
-37.375
 31
0.0
  0
LINE
  5
34B
330
1F
100
AcDbEntity
  8
16
  6
Continuous
 62
     3
370
    25
100
AcDbLine
 10
-150.0
 20
-37.375
 30
0.0
 11
-150.625
 21
-37.375
 31
0.0
  0
LINE
  5
34C
330
1F
100
AcDbEntity
  8
16
  6
Continuous
 62
     3
370
    25
100
AcDbLine
 10
-150.625
 20
-37.375
 30
0.0
 11
-150.625
 21
-37.28750000149012
 31
0.0
  0
LINE
  5
34D
330
1F
100
AcDbEntity
  8
16
  6
Continuous
 62
     3
370
    25
100
AcDbLine
 10
-150.625
 20
-37.28750000149012
 30
0.0
 11
-150.0
 21
-37.28750000149012
 31
0.0
  0
LINE
  5
34E
330
1F
100
AcDbEntity
  8
16
  6
Continuous
 62
     3
370
    25
100
AcDbLine
 10
-150.0
 20
-37.28750000149012
 30
0.0
 11
-150.0
 21
-37.375
 31
0.0
  0
LINE
  5
34F
330
1F
100
AcDbEntity
  8
16
  6
Continuous
 62
     3
370
    25
100
AcDbLine
 10
-146.875
 20
-37.375
 30
0.0
 11
-146.875
 21
-38.125
 31
0.0
  0
LINE
  5
350
330
1F
100
AcDbEntity
  8
16
  6
Continuous
 62
     3
370
    25
100
AcDbLine
 10
-146.875
 20
-38.125
 30
0.0
 11
-146.75
 21
-38.375
 31
0.0
  0
LINE
  5
351
330
1F
100
AcDbEntity
  8
16
  6
Continuous
 62
     3
370
    25
100
AcDbLine
 10
-146.75
 20
-38.375
 30
0.0
 11
-146.75
 21
-39.5
 31
0.0
  0
LINE
  5
352
330
1F
100
AcDbEntity
  8
16
  6
Continuous
 62
     3
370
    25
100
AcDbLine
 10
-146.75
 20
-39.5
 30
0.0
 11
-146.875
 21
-39.75
 31
0.0
  0
LINE
  5
353
330
1F
100
AcDbEntity
  8
16
  6
Continuous
 62
     3
370
    25
100
AcDbLine
 10
-146.875
 20
-39.75
 30
0.0
 11
-146.875
 21
-40.5
 31
0.0
  0
LINE
  5
354
330
1F
100
AcDbEntity
  8
16
  6
Continuous
 62
     3
370
    25
100
AcDbLine
 10
-146.875
 20
-40.5
 30
0.0
 11
-146.25
 21
-40.5
 31
0.0
  0
LINE
  5
355
330
1F
100
AcDbEntity
  8
16
  6
Continuous
 62
     3
370
    25
100
AcDbLine
 10
-146.25
 20
-40.5
 30
0.0
 11
-146.25
 21
-39.75
 31
0.0
  0
LINE
  5
356
330
1F
100
AcDbEntity
  8
16
  6
Continuous
 62
     3
370
    25
100
AcDbLine
 10
-146.25
 20
-39.75
 30
0.0
 11
-146.375
 21
-39.5
 31
0.0
  0
LINE
  5
357
330
1F
100
AcDbEntity
  8
16
  6
Continuous
 62
     3
370
    25
100
AcDbLine
 10
-146.375
 20
-39.5
 30
0.0
 11
-146.375
 21
-38.375
 31
0.0
  0
LINE
  5
358
330
1F
100
AcDbEntity
  8
16
  6
Continuous
 62
     3
370
    25
100
AcDbLine
 10
-146.375
 20
-38.375
 30
0.0
 11
-146.25
 21
-38.125
 31
0.0
  0
LINE
  5
359
330
1F
100
AcDbEntity
  8
16
  6
Continuous
 62
     3
370
    25
100
AcDbLine
 10
-146.25
 20
-38.125
 30
0.0
 11
-146.25
 21
-37.375
 31
0.0
  0
LINE
  5
35A
330
1F
100
AcDbEntity
  8
16
  6
Continuous
 62
     3
370
    25
100
AcDbLine
 10
-146.25
 20
-37.375
 30
0.0
 11
-146.875
 21
-37.375
 31
0.0
  0
LINE
  5
35B
330
1F
100
AcDbEntity
  8
16
  6
Continuous
 62
     3
370
    25
100
AcDbLine
 10
-146.875
 20
-37.375
 30
0.0
 11
-146.875
 21
-37.28750000149012
 31
0.0
  0
LINE
  5
35C
330
1F
100
AcDbEntity
  8
16
  6
Continuous
 62
     3
370
    25
100
AcDbLine
 10
-146.875
 20
-37.28750000149012
 30
0.0
 11
-146.25
 21
-37.28750000149012
 31
0.0
  0
LINE
  5
35D
330
1F
100
AcDbEntity
  8
16
  6
Continuous
 62
     3
370
    25
100
AcDbLine
 10
-146.25
 20
-37.28750000149012
 30
0.0
 11
-146.25
 21
-37.375
 31
0.0
  0
LINE
  5
35E
330
1F
100
AcDbEntity
  8
16
  6
Continuous
 62
     3
370
    25
100
AcDbLine
 10
-143.125
 20
-37.375
 30
0.0
 11
-143.125
 21
-38.125
 31
0.0
  0
LINE
  5
35F
330
1F
100
AcDbEntity
  8
16
  6
Continuous
 62
     3
370
    25
100
AcDbLine
 10
-143.125
 20
-38.125
 30
0.0
 11
-143.0
 21
-38.375
 31
0.0
  0
LINE
  5
360
330
1F
100
AcDbEntity
  8
16
  6
Continuous
 62
     3
370
    25
100
AcDbLine
 10
-143.0
 20
-38.375
 30
0.0
 11
-143.0
 21
-39.5
 31
0.0
  0
LINE
  5
361
330
1F
100
AcDbEntity
  8
16
  6
Continuous
 62
     3
370
    25
100
AcDbLine
 10
-143.0
 20
-39.5
 30
0.0
 11
-143.125
 21
-39.75
 31
0.0
  0
LINE
  5
362
330
1F
100
AcDbEntity
  8
16
  6
Continuous
 62
     3
370
    25
100
AcDbLine
 10
-143.125
 20
-39.75
 30
0.0
 11
-143.125
 21
-40.5
 31
0.0
  0
LINE
  5
363
330
1F
100
AcDbEntity
  8
16
  6
Continuous
 62
     3
370
    25
100
AcDbLine
 10
-143.125
 20
-40.5
 30
0.0
 11
-142.5
 21
-40.5
 31
0.0
  0
LINE
  5
364
330
1F
100
AcDbEntity
  8
16
  6
Continuous
 62
     3
370
    25
100
AcDbLine
 10
-142.5
 20
-40.5
 30
0.0
 11
-142.5
 21
-39.75
 31
0.0
  0
LINE
  5
365
330
1F
100
AcDbEntity
  8
16
  6
Continuous
 62
     3
370
    25
100
AcDbLine
 10
-142.5
 20
-39.75
 30
0.0
 11
-142.625
 21
-39.5
 31
0.0
  0
LINE
  5
366
330
1F
100
AcDbEntity
  8
16
  6
Continuous
 62
     3
370
    25
100
AcDbLine
 10
-142.625
 20
-39.5
 30
0.0
 11
-142.625
 21
-38.375
 31
0.0
  0
LINE
  5
367
330
1F
100
AcDbEntity
  8
16
  6
Continuous
 62
     3
370
    25
100
AcDbLine
 10
-142.625
 20
-38.375
 30
0.0
 11
-142.5
 21
-38.125
 31
0.0
  0
LINE
  5
368
330
1F
100
AcDbEntity
  8
16
  6
Continuous
 62
     3
370
    25
100
AcDbLine
 10
-142.5
 20
-38.125
 30
0.0
 11
-142.5
 21
-37.375
 31
0.0
  0
LINE
  5
369
330
1F
100
AcDbEntity
  8
16
  6
Continuous
 62
     3
370
    25
100
AcDbLine
 10
-142.5
 20
-37.375
 30
0.0
 11
-143.125
 21
-37.375
 31
0.0
  0
LINE
  5
36A
330
1F
100
AcDbEntity
  8
16
  6
Continuous
 62
     3
370
    25
100
AcDbLine
 10
-143.125
 20
-37.375
 30
0.0
 11
-143.125
 21
-37.28750000149012
 31
0.0
  0
LINE
  5
36B
330
1F
100
AcDbEntity
  8
16
  6
Continuous
 62
     3
370
    25
100
AcDbLine
 10
-143.125
 20
-37.28750000149012
 30
0.0
 11
-142.5
 21
-37.28750000149012
 31
0.0
  0
LINE
  5
36C
330
1F
100
AcDbEntity
  8
16
  6
Continuous
 62
     3
370
    25
100
AcDbLine
 10
-142.5
 20
-37.28750000149012
 30
0.0
 11
-142.5
 21
-37.375
 31
0.0
  0
LINE
  5
36D
330
1F
100
AcDbEntity
  8
16
  6
Continuous
 62
     3
370
    25
100
AcDbLine
 10
-139.375
 20
-37.375
 30
0.0
 11
-139.375
 21
-38.125
 31
0.0
  0
LINE
  5
36E
330
1F
100
AcDbEntity
  8
16
  6
Continuous
 62
     3
370
    25
100
AcDbLine
 10
-139.375
 20
-38.125
 30
0.0
 11
-139.25
 21
-38.375
 31
0.0
  0
LINE
  5
36F
330
1F
100
AcDbEntity
  8
16
  6
Continuous
 62
     3
370
    25
100
AcDbLine
 10
-139.25
 20
-38.375
 30
0.0
 11
-139.25
 21
-39.5
 31
0.0
  0
LINE
  5
370
330
1F
100
AcDbEntity
  8
16
  6
Continuous
 62
     3
370
    25
100
AcDbLine
 10
-139.25
 20
-39.5
 30
0.0
 11
-139.375
 21
-39.75
 31
0.0
  0
LINE
  5
371
330
1F
100
AcDbEntity
  8
16
  6
Continuous
 62
     3
370
    25
100
AcDbLine
 10
-139.375
 20
-39.75
 30
0.0
 11
-139.375
 21
-40.5
 31
0.0
  0
LINE
  5
372
330
1F
100
AcDbEntity
  8
16
  6
Continuous
 62
     3
370
    25
100
AcDbLine
 10
-139.375
 20
-40.5
 30
0.0
 11
-138.75
 21
-40.5
 31
0.0
  0
LINE
  5
373
330
1F
100
AcDbEntity
  8
16
  6
Continuous
 62
     3
370
    25
100
AcDbLine
 10
-138.75
 20
-40.5
 30
0.0
 11
-138.75
 21
-39.75
 31
0.0
  0
LINE
  5
374
330
1F
100
AcDbEntity
  8
16
  6
Continuous
 62
     3
370
    25
100
AcDbLine
 10
-138.75
 20
-39.75
 30
0.0
 11
-138.875
 21
-39.5
 31
0.0
  0
LINE
  5
375
330
1F
100
AcDbEntity
  8
16
  6
Continuous
 62
     3
370
    25
100
AcDbLine
 10
-138.875
 20
-39.5
 30
0.0
 11
-138.875
 21
-38.375
 31
0.0
  0
LINE
  5
376
330
1F
100
AcDbEntity
  8
16
  6
Continuous
 62
     3
370
    25
100
AcDbLine
 10
-138.875
 20
-38.375
 30
0.0
 11
-138.75
 21
-38.125
 31
0.0
  0
LINE
  5
377
330
1F
100
AcDbEntity
  8
16
  6
Continuous
 62
     3
370
    25
100
AcDbLine
 10
-138.75
 20
-38.125
 30
0.0
 11
-138.75
 21
-37.375
 31
0.0
  0
LINE
  5
378
330
1F
100
AcDbEntity
  8
16
  6
Continuous
 62
     3
370
    25
100
AcDbLine
 10
-138.75
 20
-37.375
 30
0.0
 11
-139.375
 21
-37.375
 31
0.0
  0
LINE
  5
379
330
1F
100
AcDbEntity
  8
16
  6
Continuous
 62
     3
370
    25
100
AcDbLine
 10
-139.375
 20
-37.375
 30
0.0
 11
-139.375
 21
-37.28750000149012
 31
0.0
  0
LINE
  5
37A
330
1F
100
AcDbEntity
  8
16
  6
Continuous
 62
     3
370
    25
100
AcDbLine
 10
-139.375
 20
-37.28750000149012
 30
0.0
 11
-138.75
 21
-37.28750000149012
 31
0.0
  0
LINE
  5
37B
330
1F
100
AcDbEntity
  8
16
  6
Continuous
 62
     3
370
    25
100
AcDbLine
 10
-138.75
 20
-37.28750000149012
 30
0.0
 11
-138.75
 21
-37.375
 31
0.0
  0
LINE
  5
37C
330
1F
100
AcDbEntity
  8
16
  6
Continuous
 62
     3
370
    25
100
AcDbLine
 10
-135.625
 20
-37.375
 30
0.0
 11
-135.625
 21
-38.125
 31
0.0
  0
LINE
  5
37D
330
1F
100
AcDbEntity
  8
16
  6
Continuous
 62
     3
370
    25
100
AcDbLine
 10
-135.625
 20
-38.125
 30
0.0
 11
-135.5
 21
-38.375
 31
0.0
  0
LINE
  5
37E
330
1F
100
AcDbEntity
  8
16
  6
Continuous
 62
     3
370
    25
100
AcDbLine
 10
-135.5
 20
-38.375
 30
0.0
 11
-135.5
 21
-39.5
 31
0.0
  0
LINE
  5
37F
330
1F
100
AcDbEntity
  8
16
  6
Continuous
 62
     3
370
    25
100
AcDbLine
 10
-135.5
 20
-39.5
 30
0.0
 11
-135.625
 21
-39.75
 31
0.0
  0
LINE
  5
380
330
1F
100
AcDbEntity
  8
16
  6
Continuous
 62
     3
370
    25
100
AcDbLine
 10
-135.625
 20
-39.75
 30
0.0
 11
-135.625
 21
-40.5
 31
0.0
  0
LINE
  5
381
330
1F
100
AcDbEntity
  8
16
  6
Continuous
 62
     3
370
    25
100
AcDbLine
 10
-135.625
 20
-40.5
 30
0.0
 11
-135.0
 21
-40.5
 31
0.0
  0
LINE
  5
382
330
1F
100
AcDbEntity
  8
16
  6
Continuous
 62
     3
370
    25
100
AcDbLine
 10
-135.0
 20
-40.5
 30
0.0
 11
-135.0
 21
-39.75
 31
0.0
  0
LINE
  5
383
330
1F
100
AcDbEntity
  8
16
  6
Continuous
 62
     3
370
    25
100
AcDbLine
 10
-135.0
 20
-39.75
 30
0.0
 11
-135.125
 21
-39.5
 31
0.0
  0
LINE
  5
384
330
1F
100
AcDbEntity
  8
16
  6
Continuous
 62
     3
370
    25
100
AcDbLine
 10
-135.125
 20
-39.5
 30
0.0
 11
-135.125
 21
-38.375
 31
0.0
  0
LINE
  5
385
330
1F
100
AcDbEntity
  8
16
  6
Continuous
 62
     3
370
    25
100
AcDbLine
 10
-135.125
 20
-38.375
 30
0.0
 11
-135.0
 21
-38.125
 31
0.0
  0
LINE
  5
386
330
1F
100
AcDbEntity
  8
16
  6
Continuous
 62
     3
370
    25
100
AcDbLine
 10
-135.0
 20
-38.125
 30
0.0
 11
-135.0
 21
-37.375
 31
0.0
  0
LINE
  5
387
330
1F
100
AcDbEntity
  8
16
  6
Continuous
 62
     3
370
    25
100
AcDbLine
 10
-135.0
 20
-37.375
 30
0.0
 11
-135.625
 21
-37.375
 31
0.0
  0
LINE
  5
388
330
1F
100
AcDbEntity
  8
16
  6
Continuous
 62
     3
370
    25
100
AcDbLine
 10
-135.625
 20
-37.375
 30
0.0
 11
-135.625
 21
-37.28750000149012
 31
0.0
  0
LINE
  5
389
330
1F
100
AcDbEntity
  8
16
  6
Continuous
 62
     3
370
    25
100
AcDbLine
 10
-135.625
 20
-37.28750000149012
 30
0.0
 11
-135.0
 21
-37.28750000149012
 31
0.0
  0
LINE
  5
38A
330
1F
100
AcDbEntity
  8
16
  6
Continuous
 62
     3
370
    25
100
AcDbLine
 10
-135.0
 20
-37.28750000149012
 30
0.0
 11
-135.0
 21
-37.375
 31
0.0
  0
LINE
  5
38B
330
1F
100
AcDbEntity
  8
16
  6
Continuous
 62
     3
370
    25
100
AcDbLine
 10
-131.875
 20
-37.375
 30
0.0
 11
-131.875
 21
-38.125
 31
0.0
  0
LINE
  5
38C
330
1F
100
AcDbEntity
  8
16
  6
Continuous
 62
     3
370
    25
100
AcDbLine
 10
-131.875
 20
-38.125
 30
0.0
 11
-131.75
 21
-38.375
 31
0.0
  0
LINE
  5
38D
330
1F
100
AcDbEntity
  8
16
  6
Continuous
 62
     3
370
    25
100
AcDbLine
 10
-131.75
 20
-38.375
 30
0.0
 11
-131.75
 21
-39.5
 31
0.0
  0
LINE
  5
38E
330
1F
100
AcDbEntity
  8
16
  6
Continuous
 62
     3
370
    25
100
AcDbLine
 10
-131.75
 20
-39.5
 30
0.0
 11
-131.875
 21
-39.75
 31
0.0
  0
LINE
  5
38F
330
1F
100
AcDbEntity
  8
16
  6
Continuous
 62
     3
370
    25
100
AcDbLine
 10
-131.875
 20
-39.75
 30
0.0
 11
-131.875
 21
-40.5
 31
0.0
  0
LINE
  5
390
330
1F
100
AcDbEntity
  8
16
  6
Continuous
 62
     3
370
    25
100
AcDbLine
 10
-131.875
 20
-40.5
 30
0.0
 11
-131.25
 21
-40.5
 31
0.0
  0
LINE
  5
391
330
1F
100
AcDbEntity
  8
16
  6
Continuous
 62
     3
370
    25
100
AcDbLine
 10
-131.25
 20
-40.5
 30
0.0
 11
-131.25
 21
-39.75
 31
0.0
  0
LINE
  5
392
330
1F
100
AcDbEntity
  8
16
  6
Continuous
 62
     3
370
    25
100
AcDbLine
 10
-131.25
 20
-39.75
 30
0.0
 11
-131.375
 21
-39.5
 31
0.0
  0
LINE
  5
393
330
1F
100
AcDbEntity
  8
16
  6
Continuous
 62
     3
370
    25
100
AcDbLine
 10
-131.375
 20
-39.5
 30
0.0
 11
-131.375
 21
-38.375
 31
0.0
  0
LINE
  5
394
330
1F
100
AcDbEntity
  8
16
  6
Continuous
 62
     3
370
    25
100
AcDbLine
 10
-131.375
 20
-38.375
 30
0.0
 11
-131.25
 21
-38.125
 31
0.0
  0
LINE
  5
395
330
1F
100
AcDbEntity
  8
16
  6
Continuous
 62
     3
370
    25
100
AcDbLine
 10
-131.25
 20
-38.125
 30
0.0
 11
-131.25
 21
-37.375
 31
0.0
  0
LINE
  5
396
330
1F
100
AcDbEntity
  8
16
  6
Continuous
 62
     3
370
    25
100
AcDbLine
 10
-131.25
 20
-37.375
 30
0.0
 11
-131.875
 21
-37.375
 31
0.0
  0
LINE
  5
397
330
1F
100
AcDbEntity
  8
16
  6
Continuous
 62
     3
370
    25
100
AcDbLine
 10
-131.875
 20
-37.375
 30
0.0
 11
-131.875
 21
-37.28750000149012
 31
0.0
  0
LINE
  5
398
330
1F
100
AcDbEntity
  8
16
  6
Continuous
 62
     3
370
    25
100
AcDbLine
 10
-131.875
 20
-37.28750000149012
 30
0.0
 11
-131.25
 21
-37.28750000149012
 31
0.0
  0
LINE
  5
399
330
1F
100
AcDbEntity
  8
16
  6
Continuous
 62
     3
370
    25
100
AcDbLine
 10
-131.25
 20
-37.28750000149012
 30
0.0
 11
-131.25
 21
-37.375
 31
0.0
  0
LINE
  5
39A
330
1F
100
AcDbEntity
  8
16
  6
Continuous
 62
     3
370
    25
100
AcDbLine
 10
-128.125
 20
-37.375
 30
0.0
 11
-128.125
 21
-38.125
 31
0.0
  0
LINE
  5
39B
330
1F
100
AcDbEntity
  8
16
  6
Continuous
 62
     3
370
    25
100
AcDbLine
 10
-128.125
 20
-38.125
 30
0.0
 11
-128.0
 21
-38.375
 31
0.0
  0
LINE
  5
39C
330
1F
100
AcDbEntity
  8
16
  6
Continuous
 62
     3
370
    25
100
AcDbLine
 10
-128.0
 20
-38.375
 30
0.0
 11
-128.0
 21
-39.5
 31
0.0
  0
LINE
  5
39D
330
1F
100
AcDbEntity
  8
16
  6
Continuous
 62
     3
370
    25
100
AcDbLine
 10
-128.0
 20
-39.5
 30
0.0
 11
-128.125
 21
-39.75
 31
0.0
  0
LINE
  5
39E
330
1F
100
AcDbEntity
  8
16
  6
Continuous
 62
     3
370
    25
100
AcDbLine
 10
-128.125
 20
-39.75
 30
0.0
 11
-128.125
 21
-40.5
 31
0.0
  0
LINE
  5
39F
330
1F
100
AcDbEntity
  8
16
  6
Continuous
 62
     3
370
    25
100
AcDbLine
 10
-128.125
 20
-40.5
 30
0.0
 11
-127.5
 21
-40.5
 31
0.0
  0
LINE
  5
3A0
330
1F
100
AcDbEntity
  8
16
  6
Continuous
 62
     3
370
    25
100
AcDbLine
 10
-127.5
 20
-40.5
 30
0.0
 11
-127.5
 21
-39.75
 31
0.0
  0
LINE
  5
3A1
330
1F
100
AcDbEntity
  8
16
  6
Continuous
 62
     3
370
    25
100
AcDbLine
 10
-127.5
 20
-39.75
 30
0.0
 11
-127.625
 21
-39.5
 31
0.0
  0
LINE
  5
3A2
330
1F
100
AcDbEntity
  8
16
  6
Continuous
 62
     3
370
    25
100
AcDbLine
 10
-127.625
 20
-39.5
 30
0.0
 11
-127.625
 21
-38.375
 31
0.0
  0
LINE
  5
3A3
330
1F
100
AcDbEntity
  8
16
  6
Continuous
 62
     3
370
    25
100
AcDbLine
 10
-127.625
 20
-38.375
 30
0.0
 11
-127.5
 21
-38.125
 31
0.0
  0
LINE
  5
3A4
330
1F
100
AcDbEntity
  8
16
  6
Continuous
 62
     3
370
    25
100
AcDbLine
 10
-127.5
 20
-38.125
 30
0.0
 11
-127.5
 21
-37.375
 31
0.0
  0
LINE
  5
3A5
330
1F
100
AcDbEntity
  8
16
  6
Continuous
 62
     3
370
    25
100
AcDbLine
 10
-127.5
 20
-37.375
 30
0.0
 11
-128.125
 21
-37.375
 31
0.0
  0
LINE
  5
3A6
330
1F
100
AcDbEntity
  8
16
  6
Continuous
 62
     3
370
    25
100
AcDbLine
 10
-128.125
 20
-37.375
 30
0.0
 11
-128.125
 21
-37.28750000149012
 31
0.0
  0
LINE
  5
3A7
330
1F
100
AcDbEntity
  8
16
  6
Continuous
 62
     3
370
    25
100
AcDbLine
 10
-128.125
 20
-37.28750000149012
 30
0.0
 11
-127.5
 21
-37.28750000149012
 31
0.0
  0
LINE
  5
3A8
330
1F
100
AcDbEntity
  8
16
  6
Continuous
 62
     3
370
    25
100
AcDbLine
 10
-127.5
 20
-37.28750000149012
 30
0.0
 11
-127.5
 21
-37.375
 31
0.0
  0
LINE
  5
3A9
330
1F
100
AcDbEntity
  8
16
  6
Continuous
 62
     3
370
    25
100
AcDbLine
 10
-124.375
 20
-37.375
 30
0.0
 11
-124.375
 21
-38.125
 31
0.0
  0
LINE
  5
3AA
330
1F
100
AcDbEntity
  8
16
  6
Continuous
 62
     3
370
    25
100
AcDbLine
 10
-124.375
 20
-38.125
 30
0.0
 11
-124.25
 21
-38.375
 31
0.0
  0
LINE
  5
3AB
330
1F
100
AcDbEntity
  8
16
  6
Continuous
 62
     3
370
    25
100
AcDbLine
 10
-124.25
 20
-38.375
 30
0.0
 11
-124.25
 21
-39.5
 31
0.0
  0
LINE
  5
3AC
330
1F
100
AcDbEntity
  8
16
  6
Continuous
 62
     3
370
    25
100
AcDbLine
 10
-124.25
 20
-39.5
 30
0.0
 11
-124.375
 21
-39.75
 31
0.0
  0
LINE
  5
3AD
330
1F
100
AcDbEntity
  8
16
  6
Continuous
 62
     3
370
    25
100
AcDbLine
 10
-124.375
 20
-39.75
 30
0.0
 11
-124.375
 21
-40.5
 31
0.0
  0
LINE
  5
3AE
330
1F
100
AcDbEntity
  8
16
  6
Continuous
 62
     3
370
    25
100
AcDbLine
 10
-124.375
 20
-40.5
 30
0.0
 11
-123.75
 21
-40.5
 31
0.0
  0
LINE
  5
3AF
330
1F
100
AcDbEntity
  8
16
  6
Continuous
 62
     3
370
    25
100
AcDbLine
 10
-123.75
 20
-40.5
 30
0.0
 11
-123.75
 21
-39.75
 31
0.0
  0
LINE
  5
3B0
330
1F
100
AcDbEntity
  8
16
  6
Continuous
 62
     3
370
    25
100
AcDbLine
 10
-123.75
 20
-39.75
 30
0.0
 11
-123.875
 21
-39.5
 31
0.0
  0
LINE
  5
3B1
330
1F
100
AcDbEntity
  8
16
  6
Continuous
 62
     3
370
    25
100
AcDbLine
 10
-123.875
 20
-39.5
 30
0.0
 11
-123.875
 21
-38.375
 31
0.0
  0
LINE
  5
3B2
330
1F
100
AcDbEntity
  8
16
  6
Continuous
 62
     3
370
    25
100
AcDbLine
 10
-123.875
 20
-38.375
 30
0.0
 11
-123.75
 21
-38.125
 31
0.0
  0
LINE
  5
3B3
330
1F
100
AcDbEntity
  8
16
  6
Continuous
 62
     3
370
    25
100
AcDbLine
 10
-123.75
 20
-38.125
 30
0.0
 11
-123.75
 21
-37.375
 31
0.0
  0
LINE
  5
3B4
330
1F
100
AcDbEntity
  8
16
  6
Continuous
 62
     3
370
    25
100
AcDbLine
 10
-123.75
 20
-37.375
 30
0.0
 11
-124.375
 21
-37.375
 31
0.0
  0
LINE
  5
3B5
330
1F
100
AcDbEntity
  8
16
  6
Continuous
 62
     3
370
    25
100
AcDbLine
 10
-124.375
 20
-37.375
 30
0.0
 11
-124.375
 21
-37.28750000149012
 31
0.0
  0
LINE
  5
3B6
330
1F
100
AcDbEntity
  8
16
  6
Continuous
 62
     3
370
    25
100
AcDbLine
 10
-124.375
 20
-37.28750000149012
 30
0.0
 11
-123.75
 21
-37.28750000149012
 31
0.0
  0
LINE
  5
3B7
330
1F
100
AcDbEntity
  8
16
  6
Continuous
 62
     3
370
    25
100
AcDbLine
 10
-123.75
 20
-37.28750000149012
 30
0.0
 11
-123.75
 21
-37.375
 31
0.0
  0
LINE
  5
3B8
330
1F
100
AcDbEntity
  8
16
  6
Continuous
 62
     3
370
    25
100
AcDbLine
 10
-120.625
 20
-37.375
 30
0.0
 11
-120.625
 21
-38.125
 31
0.0
  0
LINE
  5
3B9
330
1F
100
AcDbEntity
  8
16
  6
Continuous
 62
     3
370
    25
100
AcDbLine
 10
-120.625
 20
-38.125
 30
0.0
 11
-120.5
 21
-38.375
 31
0.0
  0
LINE
  5
3BA
330
1F
100
AcDbEntity
  8
16
  6
Continuous
 62
     3
370
    25
100
AcDbLine
 10
-120.5
 20
-38.375
 30
0.0
 11
-120.5
 21
-39.5
 31
0.0
  0
LINE
  5
3BB
330
1F
100
AcDbEntity
  8
16
  6
Continuous
 62
     3
370
    25
100
AcDbLine
 10
-120.5
 20
-39.5
 30
0.0
 11
-120.625
 21
-39.75
 31
0.0
  0
LINE
  5
3BC
330
1F
100
AcDbEntity
  8
16
  6
Continuous
 62
     3
370
    25
100
AcDbLine
 10
-120.625
 20
-39.75
 30
0.0
 11
-120.625
 21
-40.5
 31
0.0
  0
LINE
  5
3BD
330
1F
100
AcDbEntity
  8
16
  6
Continuous
 62
     3
370
    25
100
AcDbLine
 10
-120.625
 20
-40.5
 30
0.0
 11
-120.0
 21
-40.5
 31
0.0
  0
LINE
  5
3BE
330
1F
100
AcDbEntity
  8
16
  6
Continuous
 62
     3
370
    25
100
AcDbLine
 10
-120.0
 20
-40.5
 30
0.0
 11
-120.0
 21
-39.75
 31
0.0
  0
LINE
  5
3BF
330
1F
100
AcDbEntity
  8
16
  6
Continuous
 62
     3
370
    25
100
AcDbLine
 10
-120.0
 20
-39.75
 30
0.0
 11
-120.125
 21
-39.5
 31
0.0
  0
LINE
  5
3C0
330
1F
100
AcDbEntity
  8
16
  6
Continuous
 62
     3
370
    25
100
AcDbLine
 10
-120.125
 20
-39.5
 30
0.0
 11
-120.125
 21
-38.375
 31
0.0
  0
LINE
  5
3C1
330
1F
100
AcDbEntity
  8
16
  6
Continuous
 62
     3
370
    25
100
AcDbLine
 10
-120.125
 20
-38.375
 30
0.0
 11
-120.0
 21
-38.125
 31
0.0
  0
LINE
  5
3C2
330
1F
100
AcDbEntity
  8
16
  6
Continuous
 62
     3
370
    25
100
AcDbLine
 10
-120.0
 20
-38.125
 30
0.0
 11
-120.0
 21
-37.375
 31
0.0
  0
LINE
  5
3C3
330
1F
100
AcDbEntity
  8
16
  6
Continuous
 62
     3
370
    25
100
AcDbLine
 10
-120.0
 20
-37.375
 30
0.0
 11
-120.625
 21
-37.375
 31
0.0
  0
LINE
  5
3C4
330
1F
100
AcDbEntity
  8
16
  6
Continuous
 62
     3
370
    25
100
AcDbLine
 10
-120.625
 20
-37.375
 30
0.0
 11
-120.625
 21
-37.28750000149012
 31
0.0
  0
LINE
  5
3C5
330
1F
100
AcDbEntity
  8
16
  6
Continuous
 62
     3
370
    25
100
AcDbLine
 10
-120.625
 20
-37.28750000149012
 30
0.0
 11
-120.0
 21
-37.28750000149012
 31
0.0
  0
LINE
  5
3C6
330
1F
100
AcDbEntity
  8
16
  6
Continuous
 62
     3
370
    25
100
AcDbLine
 10
-120.0
 20
-37.28750000149012
 30
0.0
 11
-120.0
 21
-37.375
 31
0.0
  0
LINE
  5
3C7
330
1F
100
AcDbEntity
  8
16
  6
Continuous
 62
     3
370
    25
100
AcDbLine
 10
-116.875
 20
-37.375
 30
0.0
 11
-116.875
 21
-38.125
 31
0.0
  0
LINE
  5
3C8
330
1F
100
AcDbEntity
  8
16
  6
Continuous
 62
     3
370
    25
100
AcDbLine
 10
-116.875
 20
-38.125
 30
0.0
 11
-116.75
 21
-38.375
 31
0.0
  0
LINE
  5
3C9
330
1F
100
AcDbEntity
  8
16
  6
Continuous
 62
     3
370
    25
100
AcDbLine
 10
-116.75
 20
-38.375
 30
0.0
 11
-116.75
 21
-39.5
 31
0.0
  0
LINE
  5
3CA
330
1F
100
AcDbEntity
  8
16
  6
Continuous
 62
     3
370
    25
100
AcDbLine
 10
-116.75
 20
-39.5
 30
0.0
 11
-116.875
 21
-39.75
 31
0.0
  0
LINE
  5
3CB
330
1F
100
AcDbEntity
  8
16
  6
Continuous
 62
     3
370
    25
100
AcDbLine
 10
-116.875
 20
-39.75
 30
0.0
 11
-116.875
 21
-40.5
 31
0.0
  0
LINE
  5
3CC
330
1F
100
AcDbEntity
  8
16
  6
Continuous
 62
     3
370
    25
100
AcDbLine
 10
-116.875
 20
-40.5
 30
0.0
 11
-116.25
 21
-40.5
 31
0.0
  0
LINE
  5
3CD
330
1F
100
AcDbEntity
  8
16
  6
Continuous
 62
     3
370
    25
100
AcDbLine
 10
-116.25
 20
-40.5
 30
0.0
 11
-116.25
 21
-39.75
 31
0.0
  0
LINE
  5
3CE
330
1F
100
AcDbEntity
  8
16
  6
Continuous
 62
     3
370
    25
100
AcDbLine
 10
-116.25
 20
-39.75
 30
0.0
 11
-116.375
 21
-39.5
 31
0.0
  0
LINE
  5
3CF
330
1F
100
AcDbEntity
  8
16
  6
Continuous
 62
     3
370
    25
100
AcDbLine
 10
-116.375
 20
-39.5
 30
0.0
 11
-116.375
 21
-38.375
 31
0.0
  0
LINE
  5
3D0
330
1F
100
AcDbEntity
  8
16
  6
Continuous
 62
     3
370
    25
100
AcDbLine
 10
-116.375
 20
-38.375
 30
0.0
 11
-116.25
 21
-38.125
 31
0.0
  0
LINE
  5
3D1
330
1F
100
AcDbEntity
  8
16
  6
Continuous
 62
     3
370
    25
100
AcDbLine
 10
-116.25
 20
-38.125
 30
0.0
 11
-116.25
 21
-37.375
 31
0.0
  0
LINE
  5
3D2
330
1F
100
AcDbEntity
  8
16
  6
Continuous
 62
     3
370
    25
100
AcDbLine
 10
-116.25
 20
-37.375
 30
0.0
 11
-116.875
 21
-37.375
 31
0.0
  0
LINE
  5
3D3
330
1F
100
AcDbEntity
  8
16
  6
Continuous
 62
     3
370
    25
100
AcDbLine
 10
-116.875
 20
-37.375
 30
0.0
 11
-116.875
 21
-37.28750000149012
 31
0.0
  0
LINE
  5
3D4
330
1F
100
AcDbEntity
  8
16
  6
Continuous
 62
     3
370
    25
100
AcDbLine
 10
-116.875
 20
-37.28750000149012
 30
0.0
 11
-116.25
 21
-37.28750000149012
 31
0.0
  0
LINE
  5
3D5
330
1F
100
AcDbEntity
  8
16
  6
Continuous
 62
     3
370
    25
100
AcDbLine
 10
-116.25
 20
-37.28750000149012
 30
0.0
 11
-116.25
 21
-37.375
 31
0.0
  0
LINE
  5
3D6
330
1F
100
AcDbEntity
  8
16
  6
Continuous
 62
     3
370
    25
100
AcDbLine
 10
-113.125
 20
-37.375
 30
0.0
 11
-113.125
 21
-38.125
 31
0.0
  0
LINE
  5
3D7
330
1F
100
AcDbEntity
  8
16
  6
Continuous
 62
     3
370
    25
100
AcDbLine
 10
-113.125
 20
-38.125
 30
0.0
 11
-113.0
 21
-38.375
 31
0.0
  0
LINE
  5
3D8
330
1F
100
AcDbEntity
  8
16
  6
Continuous
 62
     3
370
    25
100
AcDbLine
 10
-113.0
 20
-38.375
 30
0.0
 11
-113.0
 21
-39.5
 31
0.0
  0
LINE
  5
3D9
330
1F
100
AcDbEntity
  8
16
  6
Continuous
 62
     3
370
    25
100
AcDbLine
 10
-113.0
 20
-39.5
 30
0.0
 11
-113.125
 21
-39.75
 31
0.0
  0
LINE
  5
3DA
330
1F
100
AcDbEntity
  8
16
  6
Continuous
 62
     3
370
    25
100
AcDbLine
 10
-113.125
 20
-39.75
 30
0.0
 11
-113.125
 21
-40.5
 31
0.0
  0
LINE
  5
3DB
330
1F
100
AcDbEntity
  8
16
  6
Continuous
 62
     3
370
    25
100
AcDbLine
 10
-113.125
 20
-40.5
 30
0.0
 11
-112.5
 21
-40.5
 31
0.0
  0
LINE
  5
3DC
330
1F
100
AcDbEntity
  8
16
  6
Continuous
 62
     3
370
    25
100
AcDbLine
 10
-112.5
 20
-40.5
 30
0.0
 11
-112.5
 21
-39.75
 31
0.0
  0
LINE
  5
3DD
330
1F
100
AcDbEntity
  8
16
  6
Continuous
 62
     3
370
    25
100
AcDbLine
 10
-112.5
 20
-39.75
 30
0.0
 11
-112.625
 21
-39.5
 31
0.0
  0
LINE
  5
3DE
330
1F
100
AcDbEntity
  8
16
  6
Continuous
 62
     3
370
    25
100
AcDbLine
 10
-112.625
 20
-39.5
 30
0.0
 11
-112.625
 21
-38.375
 31
0.0
  0
LINE
  5
3DF
330
1F
100
AcDbEntity
  8
16
  6
Continuous
 62
     3
370
    25
100
AcDbLine
 10
-112.625
 20
-38.375
 30
0.0
 11
-112.5
 21
-38.125
 31
0.0
  0
LINE
  5
3E0
330
1F
100
AcDbEntity
  8
16
  6
Continuous
 62
     3
370
    25
100
AcDbLine
 10
-112.5
 20
-38.125
 30
0.0
 11
-112.5
 21
-37.375
 31
0.0
  0
LINE
  5
3E1
330
1F
100
AcDbEntity
  8
16
  6
Continuous
 62
     3
370
    25
100
AcDbLine
 10
-112.5
 20
-37.375
 30
0.0
 11
-113.125
 21
-37.375
 31
0.0
  0
LINE
  5
3E2
330
1F
100
AcDbEntity
  8
16
  6
Continuous
 62
     3
370
    25
100
AcDbLine
 10
-113.125
 20
-37.375
 30
0.0
 11
-113.125
 21
-37.28750000149012
 31
0.0
  0
LINE
  5
3E3
330
1F
100
AcDbEntity
  8
16
  6
Continuous
 62
     3
370
    25
100
AcDbLine
 10
-113.125
 20
-37.28750000149012
 30
0.0
 11
-112.5
 21
-37.28750000149012
 31
0.0
  0
LINE
  5
3E4
330
1F
100
AcDbEntity
  8
16
  6
Continuous
 62
     3
370
    25
100
AcDbLine
 10
-112.5
 20
-37.28750000149012
 30
0.0
 11
-112.5
 21
-37.375
 31
0.0
  0
LINE
  5
3E5
330
1F
100
AcDbEntity
  8
16
  6
Continuous
 62
     3
370
    25
100
AcDbLine
 10
-109.375
 20
-37.375
 30
0.0
 11
-109.375
 21
-38.125
 31
0.0
  0
LINE
  5
3E6
330
1F
100
AcDbEntity
  8
16
  6
Continuous
 62
     3
370
    25
100
AcDbLine
 10
-109.375
 20
-38.125
 30
0.0
 11
-109.25
 21
-38.375
 31
0.0
  0
LINE
  5
3E7
330
1F
100
AcDbEntity
  8
16
  6
Continuous
 62
     3
370
    25
100
AcDbLine
 10
-109.25
 20
-38.375
 30
0.0
 11
-109.25
 21
-39.5
 31
0.0
  0
LINE
  5
3E8
330
1F
100
AcDbEntity
  8
16
  6
Continuous
 62
     3
370
    25
100
AcDbLine
 10
-109.25
 20
-39.5
 30
0.0
 11
-109.375
 21
-39.75
 31
0.0
  0
LINE
  5
3E9
330
1F
100
AcDbEntity
  8
16
  6
Continuous
 62
     3
370
    25
100
AcDbLine
 10
-109.375
 20
-39.75
 30
0.0
 11
-109.375
 21
-40.5
 31
0.0
  0
LINE
  5
3EA
330
1F
100
AcDbEntity
  8
16
  6
Continuous
 62
     3
370
    25
100
AcDbLine
 10
-109.375
 20
-40.5
 30
0.0
 11
-108.75
 21
-40.5
 31
0.0
  0
LINE
  5
3EB
330
1F
100
AcDbEntity
  8
16
  6
Continuous
 62
     3
370
    25
100
AcDbLine
 10
-108.75
 20
-40.5
 30
0.0
 11
-108.75
 21
-39.75
 31
0.0
  0
LINE
  5
3EC
330
1F
100
AcDbEntity
  8
16
  6
Continuous
 62
     3
370
    25
100
AcDbLine
 10
-108.75
 20
-39.75
 30
0.0
 11
-108.875
 21
-39.5
 31
0.0
  0
LINE
  5
3ED
330
1F
100
AcDbEntity
  8
16
  6
Continuous
 62
     3
370
    25
100
AcDbLine
 10
-108.875
 20
-39.5
 30
0.0
 11
-108.875
 21
-38.375
 31
0.0
  0
LINE
  5
3EE
330
1F
100
AcDbEntity
  8
16
  6
Continuous
 62
     3
370
    25
100
AcDbLine
 10
-108.875
 20
-38.375
 30
0.0
 11
-108.75
 21
-38.125
 31
0.0
  0
LINE
  5
3EF
330
1F
100
AcDbEntity
  8
16
  6
Continuous
 62
     3
370
    25
100
AcDbLine
 10
-108.75
 20
-38.125
 30
0.0
 11
-108.75
 21
-37.375
 31
0.0
  0
LINE
  5
3F0
330
1F
100
AcDbEntity
  8
16
  6
Continuous
 62
     3
370
    25
100
AcDbLine
 10
-108.75
 20
-37.375
 30
0.0
 11
-109.375
 21
-37.375
 31
0.0
  0
LINE
  5
3F1
330
1F
100
AcDbEntity
  8
16
  6
Continuous
 62
     3
370
    25
100
AcDbLine
 10
-109.375
 20
-37.375
 30
0.0
 11
-109.375
 21
-37.28750000149012
 31
0.0
  0
LINE
  5
3F2
330
1F
100
AcDbEntity
  8
16
  6
Continuous
 62
     3
370
    25
100
AcDbLine
 10
-109.375
 20
-37.28750000149012
 30
0.0
 11
-108.75
 21
-37.28750000149012
 31
0.0
  0
LINE
  5
3F3
330
1F
100
AcDbEntity
  8
16
  6
Continuous
 62
     3
370
    25
100
AcDbLine
 10
-108.75
 20
-37.28750000149012
 30
0.0
 11
-108.75
 21
-37.375
 31
0.0
  0
LINE
  5
3F4
330
1F
100
AcDbEntity
  8
16
  6
Continuous
 62
     3
370
    25
100
AcDbLine
 10
-105.625
 20
-37.375
 30
0.0
 11
-105.625
 21
-38.125
 31
0.0
  0
LINE
  5
3F5
330
1F
100
AcDbEntity
  8
16
  6
Continuous
 62
     3
370
    25
100
AcDbLine
 10
-105.625
 20
-38.125
 30
0.0
 11
-105.5
 21
-38.375
 31
0.0
  0
LINE
  5
3F6
330
1F
100
AcDbEntity
  8
16
  6
Continuous
 62
     3
370
    25
100
AcDbLine
 10
-105.5
 20
-38.375
 30
0.0
 11
-105.5
 21
-39.5
 31
0.0
  0
LINE
  5
3F7
330
1F
100
AcDbEntity
  8
16
  6
Continuous
 62
     3
370
    25
100
AcDbLine
 10
-105.5
 20
-39.5
 30
0.0
 11
-105.625
 21
-39.75
 31
0.0
  0
LINE
  5
3F8
330
1F
100
AcDbEntity
  8
16
  6
Continuous
 62
     3
370
    25
100
AcDbLine
 10
-105.625
 20
-39.75
 30
0.0
 11
-105.625
 21
-40.5
 31
0.0
  0
LINE
  5
3F9
330
1F
100
AcDbEntity
  8
16
  6
Continuous
 62
     3
370
    25
100
AcDbLine
 10
-105.625
 20
-40.5
 30
0.0
 11
-105.0
 21
-40.5
 31
0.0
  0
LINE
  5
3FA
330
1F
100
AcDbEntity
  8
16
  6
Continuous
 62
     3
370
    25
100
AcDbLine
 10
-105.0
 20
-40.5
 30
0.0
 11
-105.0
 21
-39.75
 31
0.0
  0
LINE
  5
3FB
330
1F
100
AcDbEntity
  8
16
  6
Continuous
 62
     3
370
    25
100
AcDbLine
 10
-105.0
 20
-39.75
 30
0.0
 11
-105.125
 21
-39.5
 31
0.0
  0
LINE
  5
3FC
330
1F
100
AcDbEntity
  8
16
  6
Continuous
 62
     3
370
    25
100
AcDbLine
 10
-105.125
 20
-39.5
 30
0.0
 11
-105.125
 21
-38.375
 31
0.0
  0
LINE
  5
3FD
330
1F
100
AcDbEntity
  8
16
  6
Continuous
 62
     3
370
    25
100
AcDbLine
 10
-105.125
 20
-38.375
 30
0.0
 11
-105.0
 21
-38.125
 31
0.0
  0
LINE
  5
3FE
330
1F
100
AcDbEntity
  8
16
  6
Continuous
 62
     3
370
    25
100
AcDbLine
 10
-105.0
 20
-38.125
 30
0.0
 11
-105.0
 21
-37.375
 31
0.0
  0
LINE
  5
3FF
330
1F
100
AcDbEntity
  8
16
  6
Continuous
 62
     3
370
    25
100
AcDbLine
 10
-105.0
 20
-37.375
 30
0.0
 11
-105.625
 21
-37.375
 31
0.0
  0
LINE
  5
400
330
1F
100
AcDbEntity
  8
16
  6
Continuous
 62
     3
370
    25
100
AcDbLine
 10
-105.625
 20
-37.375
 30
0.0
 11
-105.625
 21
-37.28750000149012
 31
0.0
  0
LINE
  5
401
330
1F
100
AcDbEntity
  8
16
  6
Continuous
 62
     3
370
    25
100
AcDbLine
 10
-105.625
 20
-37.28750000149012
 30
0.0
 11
-105.0
 21
-37.28750000149012
 31
0.0
  0
LINE
  5
402
330
1F
100
AcDbEntity
  8
16
  6
Continuous
 62
     3
370
    25
100
AcDbLine
 10
-105.0
 20
-37.28750000149012
 30
0.0
 11
-105.0
 21
-37.375
 31
0.0
  0
LINE
  5
403
330
1F
100
AcDbEntity
  8
16
  6
Continuous
 62
     3
370
    25
100
AcDbLine
 10
-101.875
 20
-37.375
 30
0.0
 11
-101.875
 21
-38.125
 31
0.0
  0
LINE
  5
404
330
1F
100
AcDbEntity
  8
16
  6
Continuous
 62
     3
370
    25
100
AcDbLine
 10
-101.875
 20
-38.125
 30
0.0
 11
-101.75
 21
-38.375
 31
0.0
  0
LINE
  5
405
330
1F
100
AcDbEntity
  8
16
  6
Continuous
 62
     3
370
    25
100
AcDbLine
 10
-101.75
 20
-38.375
 30
0.0
 11
-101.75
 21
-39.5
 31
0.0
  0
LINE
  5
406
330
1F
100
AcDbEntity
  8
16
  6
Continuous
 62
     3
370
    25
100
AcDbLine
 10
-101.75
 20
-39.5
 30
0.0
 11
-101.875
 21
-39.75
 31
0.0
  0
LINE
  5
407
330
1F
100
AcDbEntity
  8
16
  6
Continuous
 62
     3
370
    25
100
AcDbLine
 10
-101.875
 20
-39.75
 30
0.0
 11
-101.875
 21
-40.5
 31
0.0
  0
LINE
  5
408
330
1F
100
AcDbEntity
  8
16
  6
Continuous
 62
     3
370
    25
100
AcDbLine
 10
-101.875
 20
-40.5
 30
0.0
 11
-101.25
 21
-40.5
 31
0.0
  0
LINE
  5
409
330
1F
100
AcDbEntity
  8
16
  6
Continuous
 62
     3
370
    25
100
AcDbLine
 10
-101.25
 20
-40.5
 30
0.0
 11
-101.25
 21
-39.75
 31
0.0
  0
LINE
  5
40A
330
1F
100
AcDbEntity
  8
16
  6
Continuous
 62
     3
370
    25
100
AcDbLine
 10
-101.25
 20
-39.75
 30
0.0
 11
-101.375
 21
-39.5
 31
0.0
  0
LINE
  5
40B
330
1F
100
AcDbEntity
  8
16
  6
Continuous
 62
     3
370
    25
100
AcDbLine
 10
-101.375
 20
-39.5
 30
0.0
 11
-101.375
 21
-38.375
 31
0.0
  0
LINE
  5
40C
330
1F
100
AcDbEntity
  8
16
  6
Continuous
 62
     3
370
    25
100
AcDbLine
 10
-101.375
 20
-38.375
 30
0.0
 11
-101.25
 21
-38.125
 31
0.0
  0
LINE
  5
40D
330
1F
100
AcDbEntity
  8
16
  6
Continuous
 62
     3
370
    25
100
AcDbLine
 10
-101.25
 20
-38.125
 30
0.0
 11
-101.25
 21
-37.375
 31
0.0
  0
LINE
  5
40E
330
1F
100
AcDbEntity
  8
16
  6
Continuous
 62
     3
370
    25
100
AcDbLine
 10
-101.25
 20
-37.375
 30
0.0
 11
-101.875
 21
-37.375
 31
0.0
  0
LINE
  5
40F
330
1F
100
AcDbEntity
  8
16
  6
Continuous
 62
     3
370
    25
100
AcDbLine
 10
-101.875
 20
-37.375
 30
0.0
 11
-101.875
 21
-37.28750000149012
 31
0.0
  0
LINE
  5
410
330
1F
100
AcDbEntity
  8
16
  6
Continuous
 62
     3
370
    25
100
AcDbLine
 10
-101.875
 20
-37.28750000149012
 30
0.0
 11
-101.25
 21
-37.28750000149012
 31
0.0
  0
LINE
  5
411
330
1F
100
AcDbEntity
  8
16
  6
Continuous
 62
     3
370
    25
100
AcDbLine
 10
-101.25
 20
-37.28750000149012
 30
0.0
 11
-101.25
 21
-37.375
 31
0.0
  0
LINE
  5
412
330
1F
100
AcDbEntity
  8
16
  6
Continuous
 62
     3
370
    25
100
AcDbLine
 10
-98.125
 20
-37.375
 30
0.0
 11
-98.125
 21
-38.125
 31
0.0
  0
LINE
  5
413
330
1F
100
AcDbEntity
  8
16
  6
Continuous
 62
     3
370
    25
100
AcDbLine
 10
-98.125
 20
-38.125
 30
0.0
 11
-98.0
 21
-38.375
 31
0.0
  0
LINE
  5
414
330
1F
100
AcDbEntity
  8
16
  6
Continuous
 62
     3
370
    25
100
AcDbLine
 10
-98.0
 20
-38.375
 30
0.0
 11
-98.0
 21
-39.5
 31
0.0
  0
LINE
  5
415
330
1F
100
AcDbEntity
  8
16
  6
Continuous
 62
     3
370
    25
100
AcDbLine
 10
-98.0
 20
-39.5
 30
0.0
 11
-98.125
 21
-39.75
 31
0.0
  0
LINE
  5
416
330
1F
100
AcDbEntity
  8
16
  6
Continuous
 62
     3
370
    25
100
AcDbLine
 10
-98.125
 20
-39.75
 30
0.0
 11
-98.125
 21
-40.5
 31
0.0
  0
LINE
  5
417
330
1F
100
AcDbEntity
  8
16
  6
Continuous
 62
     3
370
    25
100
AcDbLine
 10
-98.125
 20
-40.5
 30
0.0
 11
-97.5
 21
-40.5
 31
0.0
  0
LINE
  5
418
330
1F
100
AcDbEntity
  8
16
  6
Continuous
 62
     3
370
    25
100
AcDbLine
 10
-97.5
 20
-40.5
 30
0.0
 11
-97.5
 21
-39.75
 31
0.0
  0
LINE
  5
419
330
1F
100
AcDbEntity
  8
16
  6
Continuous
 62
     3
370
    25
100
AcDbLine
 10
-97.5
 20
-39.75
 30
0.0
 11
-97.625
 21
-39.5
 31
0.0
  0
LINE
  5
41A
330
1F
100
AcDbEntity
  8
16
  6
Continuous
 62
     3
370
    25
100
AcDbLine
 10
-97.625
 20
-39.5
 30
0.0
 11
-97.625
 21
-38.375
 31
0.0
  0
LINE
  5
41B
330
1F
100
AcDbEntity
  8
16
  6
Continuous
 62
     3
370
    25
100
AcDbLine
 10
-97.625
 20
-38.375
 30
0.0
 11
-97.5
 21
-38.125
 31
0.0
  0
LINE
  5
41C
330
1F
100
AcDbEntity
  8
16
  6
Continuous
 62
     3
370
    25
100
AcDbLine
 10
-97.5
 20
-38.125
 30
0.0
 11
-97.5
 21
-37.375
 31
0.0
  0
LINE
  5
41D
330
1F
100
AcDbEntity
  8
16
  6
Continuous
 62
     3
370
    25
100
AcDbLine
 10
-97.5
 20
-37.375
 30
0.0
 11
-98.125
 21
-37.375
 31
0.0
  0
LINE
  5
41E
330
1F
100
AcDbEntity
  8
16
  6
Continuous
 62
     3
370
    25
100
AcDbLine
 10
-98.125
 20
-37.375
 30
0.0
 11
-98.125
 21
-37.28750000149012
 31
0.0
  0
LINE
  5
41F
330
1F
100
AcDbEntity
  8
16
  6
Continuous
 62
     3
370
    25
100
AcDbLine
 10
-98.125
 20
-37.28750000149012
 30
0.0
 11
-97.5
 21
-37.28750000149012
 31
0.0
  0
LINE
  5
420
330
1F
100
AcDbEntity
  8
16
  6
Continuous
 62
     3
370
    25
100
AcDbLine
 10
-97.5
 20
-37.28750000149012
 30
0.0
 11
-97.5
 21
-37.375
 31
0.0
  0
LINE
  5
421
330
1F
100
AcDbEntity
  8
16
  6
Continuous
 62
     3
370
    25
100
AcDbLine
 10
-94.375
 20
-37.375
 30
0.0
 11
-94.375
 21
-38.125
 31
0.0
  0
LINE
  5
422
330
1F
100
AcDbEntity
  8
16
  6
Continuous
 62
     3
370
    25
100
AcDbLine
 10
-94.375
 20
-38.125
 30
0.0
 11
-94.25
 21
-38.375
 31
0.0
  0
LINE
  5
423
330
1F
100
AcDbEntity
  8
16
  6
Continuous
 62
     3
370
    25
100
AcDbLine
 10
-94.25
 20
-38.375
 30
0.0
 11
-94.25
 21
-39.5
 31
0.0
  0
LINE
  5
424
330
1F
100
AcDbEntity
  8
16
  6
Continuous
 62
     3
370
    25
100
AcDbLine
 10
-94.25
 20
-39.5
 30
0.0
 11
-94.375
 21
-39.75
 31
0.0
  0
LINE
  5
425
330
1F
100
AcDbEntity
  8
16
  6
Continuous
 62
     3
370
    25
100
AcDbLine
 10
-94.375
 20
-39.75
 30
0.0
 11
-94.375
 21
-40.5
 31
0.0
  0
LINE
  5
426
330
1F
100
AcDbEntity
  8
16
  6
Continuous
 62
     3
370
    25
100
AcDbLine
 10
-94.375
 20
-40.5
 30
0.0
 11
-93.75
 21
-40.5
 31
0.0
  0
LINE
  5
427
330
1F
100
AcDbEntity
  8
16
  6
Continuous
 62
     3
370
    25
100
AcDbLine
 10
-93.75
 20
-40.5
 30
0.0
 11
-93.75
 21
-39.75
 31
0.0
  0
LINE
  5
428
330
1F
100
AcDbEntity
  8
16
  6
Continuous
 62
     3
370
    25
100
AcDbLine
 10
-93.75
 20
-39.75
 30
0.0
 11
-93.875
 21
-39.5
 31
0.0
  0
LINE
  5
429
330
1F
100
AcDbEntity
  8
16
  6
Continuous
 62
     3
370
    25
100
AcDbLine
 10
-93.875
 20
-39.5
 30
0.0
 11
-93.875
 21
-38.375
 31
0.0
  0
LINE
  5
42A
330
1F
100
AcDbEntity
  8
16
  6
Continuous
 62
     3
370
    25
100
AcDbLine
 10
-93.875
 20
-38.375
 30
0.0
 11
-93.75
 21
-38.125
 31
0.0
  0
LINE
  5
42B
330
1F
100
AcDbEntity
  8
16
  6
Continuous
 62
     3
370
    25
100
AcDbLine
 10
-93.75
 20
-38.125
 30
0.0
 11
-93.75
 21
-37.375
 31
0.0
  0
LINE
  5
42C
330
1F
100
AcDbEntity
  8
16
  6
Continuous
 62
     3
370
    25
100
AcDbLine
 10
-93.75
 20
-37.375
 30
0.0
 11
-94.375
 21
-37.375
 31
0.0
  0
LINE
  5
42D
330
1F
100
AcDbEntity
  8
16
  6
Continuous
 62
     3
370
    25
100
AcDbLine
 10
-94.375
 20
-37.375
 30
0.0
 11
-94.375
 21
-37.28750000149012
 31
0.0
  0
LINE
  5
42E
330
1F
100
AcDbEntity
  8
16
  6
Continuous
 62
     3
370
    25
100
AcDbLine
 10
-94.375
 20
-37.28750000149012
 30
0.0
 11
-93.75
 21
-37.28750000149012
 31
0.0
  0
LINE
  5
42F
330
1F
100
AcDbEntity
  8
16
  6
Continuous
 62
     3
370
    25
100
AcDbLine
 10
-93.75
 20
-37.28750000149012
 30
0.0
 11
-93.75
 21
-37.375
 31
0.0
  0
LINE
  5
430
330
1F
100
AcDbEntity
  8
16
  6
Continuous
 62
     3
370
    25
100
AcDbLine
 10
-90.625
 20
-37.375
 30
0.0
 11
-90.625
 21
-38.125
 31
0.0
  0
LINE
  5
431
330
1F
100
AcDbEntity
  8
16
  6
Continuous
 62
     3
370
    25
100
AcDbLine
 10
-90.625
 20
-38.125
 30
0.0
 11
-90.5
 21
-38.375
 31
0.0
  0
LINE
  5
432
330
1F
100
AcDbEntity
  8
16
  6
Continuous
 62
     3
370
    25
100
AcDbLine
 10
-90.5
 20
-38.375
 30
0.0
 11
-90.5
 21
-39.5
 31
0.0
  0
LINE
  5
433
330
1F
100
AcDbEntity
  8
16
  6
Continuous
 62
     3
370
    25
100
AcDbLine
 10
-90.5
 20
-39.5
 30
0.0
 11
-90.625
 21
-39.75
 31
0.0
  0
LINE
  5
434
330
1F
100
AcDbEntity
  8
16
  6
Continuous
 62
     3
370
    25
100
AcDbLine
 10
-90.625
 20
-39.75
 30
0.0
 11
-90.625
 21
-40.5
 31
0.0
  0
LINE
  5
435
330
1F
100
AcDbEntity
  8
16
  6
Continuous
 62
     3
370
    25
100
AcDbLine
 10
-90.625
 20
-40.5
 30
0.0
 11
-90.0
 21
-40.5
 31
0.0
  0
LINE
  5
436
330
1F
100
AcDbEntity
  8
16
  6
Continuous
 62
     3
370
    25
100
AcDbLine
 10
-90.0
 20
-40.5
 30
0.0
 11
-90.0
 21
-39.75
 31
0.0
  0
LINE
  5
437
330
1F
100
AcDbEntity
  8
16
  6
Continuous
 62
     3
370
    25
100
AcDbLine
 10
-90.0
 20
-39.75
 30
0.0
 11
-90.125
 21
-39.5
 31
0.0
  0
LINE
  5
438
330
1F
100
AcDbEntity
  8
16
  6
Continuous
 62
     3
370
    25
100
AcDbLine
 10
-90.125
 20
-39.5
 30
0.0
 11
-90.125
 21
-38.375
 31
0.0
  0
LINE
  5
439
330
1F
100
AcDbEntity
  8
16
  6
Continuous
 62
     3
370
    25
100
AcDbLine
 10
-90.125
 20
-38.375
 30
0.0
 11
-90.0
 21
-38.125
 31
0.0
  0
LINE
  5
43A
330
1F
100
AcDbEntity
  8
16
  6
Continuous
 62
     3
370
    25
100
AcDbLine
 10
-90.0
 20
-38.125
 30
0.0
 11
-90.0
 21
-37.375
 31
0.0
  0
LINE
  5
43B
330
1F
100
AcDbEntity
  8
16
  6
Continuous
 62
     3
370
    25
100
AcDbLine
 10
-90.0
 20
-37.375
 30
0.0
 11
-90.625
 21
-37.375
 31
0.0
  0
LINE
  5
43C
330
1F
100
AcDbEntity
  8
16
  6
Continuous
 62
     3
370
    25
100
AcDbLine
 10
-90.625
 20
-37.375
 30
0.0
 11
-90.625
 21
-37.28750000149012
 31
0.0
  0
LINE
  5
43D
330
1F
100
AcDbEntity
  8
16
  6
Continuous
 62
     3
370
    25
100
AcDbLine
 10
-90.625
 20
-37.28750000149012
 30
0.0
 11
-90.0
 21
-37.28750000149012
 31
0.0
  0
LINE
  5
43E
330
1F
100
AcDbEntity
  8
16
  6
Continuous
 62
     3
370
    25
100
AcDbLine
 10
-90.0
 20
-37.28750000149012
 30
0.0
 11
-90.0
 21
-37.375
 31
0.0
  0
LINE
  5
43F
330
1F
100
AcDbEntity
  8
16
  6
Continuous
 62
     3
370
    25
100
AcDbLine
 10
-86.875
 20
-37.375
 30
0.0
 11
-86.875
 21
-38.125
 31
0.0
  0
LINE
  5
440
330
1F
100
AcDbEntity
  8
16
  6
Continuous
 62
     3
370
    25
100
AcDbLine
 10
-86.875
 20
-38.125
 30
0.0
 11
-86.75
 21
-38.375
 31
0.0
  0
LINE
  5
441
330
1F
100
AcDbEntity
  8
16
  6
Continuous
 62
     3
370
    25
100
AcDbLine
 10
-86.75
 20
-38.375
 30
0.0
 11
-86.75
 21
-39.5
 31
0.0
  0
LINE
  5
442
330
1F
100
AcDbEntity
  8
16
  6
Continuous
 62
     3
370
    25
100
AcDbLine
 10
-86.75
 20
-39.5
 30
0.0
 11
-86.875
 21
-39.75
 31
0.0
  0
LINE
  5
443
330
1F
100
AcDbEntity
  8
16
  6
Continuous
 62
     3
370
    25
100
AcDbLine
 10
-86.875
 20
-39.75
 30
0.0
 11
-86.875
 21
-40.5
 31
0.0
  0
LINE
  5
444
330
1F
100
AcDbEntity
  8
16
  6
Continuous
 62
     3
370
    25
100
AcDbLine
 10
-86.875
 20
-40.5
 30
0.0
 11
-86.25
 21
-40.5
 31
0.0
  0
LINE
  5
445
330
1F
100
AcDbEntity
  8
16
  6
Continuous
 62
     3
370
    25
100
AcDbLine
 10
-86.25
 20
-40.5
 30
0.0
 11
-86.25
 21
-39.75
 31
0.0
  0
LINE
  5
446
330
1F
100
AcDbEntity
  8
16
  6
Continuous
 62
     3
370
    25
100
AcDbLine
 10
-86.25
 20
-39.75
 30
0.0
 11
-86.375
 21
-39.5
 31
0.0
  0
LINE
  5
447
330
1F
100
AcDbEntity
  8
16
  6
Continuous
 62
     3
370
    25
100
AcDbLine
 10
-86.375
 20
-39.5
 30
0.0
 11
-86.375
 21
-38.375
 31
0.0
  0
LINE
  5
448
330
1F
100
AcDbEntity
  8
16
  6
Continuous
 62
     3
370
    25
100
AcDbLine
 10
-86.375
 20
-38.375
 30
0.0
 11
-86.25
 21
-38.125
 31
0.0
  0
LINE
  5
449
330
1F
100
AcDbEntity
  8
16
  6
Continuous
 62
     3
370
    25
100
AcDbLine
 10
-86.25
 20
-38.125
 30
0.0
 11
-86.25
 21
-37.375
 31
0.0
  0
LINE
  5
44A
330
1F
100
AcDbEntity
  8
16
  6
Continuous
 62
     3
370
    25
100
AcDbLine
 10
-86.25
 20
-37.375
 30
0.0
 11
-86.875
 21
-37.375
 31
0.0
  0
LINE
  5
44B
330
1F
100
AcDbEntity
  8
16
  6
Continuous
 62
     3
370
    25
100
AcDbLine
 10
-86.875
 20
-37.375
 30
0.0
 11
-86.875
 21
-37.28750000149012
 31
0.0
  0
LINE
  5
44C
330
1F
100
AcDbEntity
  8
16
  6
Continuous
 62
     3
370
    25
100
AcDbLine
 10
-86.875
 20
-37.28750000149012
 30
0.0
 11
-86.25
 21
-37.28750000149012
 31
0.0
  0
LINE
  5
44D
330
1F
100
AcDbEntity
  8
16
  6
Continuous
 62
     3
370
    25
100
AcDbLine
 10
-86.25
 20
-37.28750000149012
 30
0.0
 11
-86.25
 21
-37.375
 31
0.0
  0
LINE
  5
44E
330
1F
100
AcDbEntity
  8
16
  6
Continuous
 62
     3
370
    25
100
AcDbLine
 10
-83.125
 20
-37.375
 30
0.0
 11
-83.125
 21
-38.125
 31
0.0
  0
LINE
  5
44F
330
1F
100
AcDbEntity
  8
16
  6
Continuous
 62
     3
370
    25
100
AcDbLine
 10
-83.125
 20
-38.125
 30
0.0
 11
-83.0
 21
-38.375
 31
0.0
  0
LINE
  5
450
330
1F
100
AcDbEntity
  8
16
  6
Continuous
 62
     3
370
    25
100
AcDbLine
 10
-83.0
 20
-38.375
 30
0.0
 11
-83.0
 21
-39.5
 31
0.0
  0
LINE
  5
451
330
1F
100
AcDbEntity
  8
16
  6
Continuous
 62
     3
370
    25
100
AcDbLine
 10
-83.0
 20
-39.5
 30
0.0
 11
-83.125
 21
-39.75
 31
0.0
  0
LINE
  5
452
330
1F
100
AcDbEntity
  8
16
  6
Continuous
 62
     3
370
    25
100
AcDbLine
 10
-83.125
 20
-39.75
 30
0.0
 11
-83.125
 21
-40.5
 31
0.0
  0
LINE
  5
453
330
1F
100
AcDbEntity
  8
16
  6
Continuous
 62
     3
370
    25
100
AcDbLine
 10
-83.125
 20
-40.5
 30
0.0
 11
-82.5
 21
-40.5
 31
0.0
  0
LINE
  5
454
330
1F
100
AcDbEntity
  8
16
  6
Continuous
 62
     3
370
    25
100
AcDbLine
 10
-82.5
 20
-40.5
 30
0.0
 11
-82.5
 21
-39.75
 31
0.0
  0
LINE
  5
455
330
1F
100
AcDbEntity
  8
16
  6
Continuous
 62
     3
370
    25
100
AcDbLine
 10
-82.5
 20
-39.75
 30
0.0
 11
-82.625
 21
-39.5
 31
0.0
  0
LINE
  5
456
330
1F
100
AcDbEntity
  8
16
  6
Continuous
 62
     3
370
    25
100
AcDbLine
 10
-82.625
 20
-39.5
 30
0.0
 11
-82.625
 21
-38.375
 31
0.0
  0
LINE
  5
457
330
1F
100
AcDbEntity
  8
16
  6
Continuous
 62
     3
370
    25
100
AcDbLine
 10
-82.625
 20
-38.375
 30
0.0
 11
-82.5
 21
-38.125
 31
0.0
  0
LINE
  5
458
330
1F
100
AcDbEntity
  8
16
  6
Continuous
 62
     3
370
    25
100
AcDbLine
 10
-82.5
 20
-38.125
 30
0.0
 11
-82.5
 21
-37.375
 31
0.0
  0
LINE
  5
459
330
1F
100
AcDbEntity
  8
16
  6
Continuous
 62
     3
370
    25
100
AcDbLine
 10
-82.5
 20
-37.375
 30
0.0
 11
-83.125
 21
-37.375
 31
0.0
  0
LINE
  5
45A
330
1F
100
AcDbEntity
  8
16
  6
Continuous
 62
     3
370
    25
100
AcDbLine
 10
-83.125
 20
-37.375
 30
0.0
 11
-83.125
 21
-37.28750000149012
 31
0.0
  0
LINE
  5
45B
330
1F
100
AcDbEntity
  8
16
  6
Continuous
 62
     3
370
    25
100
AcDbLine
 10
-83.125
 20
-37.28750000149012
 30
0.0
 11
-82.5
 21
-37.28750000149012
 31
0.0
  0
LINE
  5
45C
330
1F
100
AcDbEntity
  8
16
  6
Continuous
 62
     3
370
    25
100
AcDbLine
 10
-82.5
 20
-37.28750000149012
 30
0.0
 11
-82.5
 21
-37.375
 31
0.0
  0
LINE
  5
45D
330
1F
100
AcDbEntity
  8
16
  6
Continuous
 62
     3
370
    25
100
AcDbLine
 10
-79.375
 20
-37.375
 30
0.0
 11
-79.375
 21
-38.125
 31
0.0
  0
LINE
  5
45E
330
1F
100
AcDbEntity
  8
16
  6
Continuous
 62
     3
370
    25
100
AcDbLine
 10
-79.375
 20
-38.125
 30
0.0
 11
-79.25
 21
-38.375
 31
0.0
  0
LINE
  5
45F
330
1F
100
AcDbEntity
  8
16
  6
Continuous
 62
     3
370
    25
100
AcDbLine
 10
-79.25
 20
-38.375
 30
0.0
 11
-79.25
 21
-39.5
 31
0.0
  0
LINE
  5
460
330
1F
100
AcDbEntity
  8
16
  6
Continuous
 62
     3
370
    25
100
AcDbLine
 10
-79.25
 20
-39.5
 30
0.0
 11
-79.375
 21
-39.75
 31
0.0
  0
LINE
  5
461
330
1F
100
AcDbEntity
  8
16
  6
Continuous
 62
     3
370
    25
100
AcDbLine
 10
-79.375
 20
-39.75
 30
0.0
 11
-79.375
 21
-40.5
 31
0.0
  0
LINE
  5
462
330
1F
100
AcDbEntity
  8
16
  6
Continuous
 62
     3
370
    25
100
AcDbLine
 10
-79.375
 20
-40.5
 30
0.0
 11
-78.75
 21
-40.5
 31
0.0
  0
LINE
  5
463
330
1F
100
AcDbEntity
  8
16
  6
Continuous
 62
     3
370
    25
100
AcDbLine
 10
-78.75
 20
-40.5
 30
0.0
 11
-78.75
 21
-39.75
 31
0.0
  0
LINE
  5
464
330
1F
100
AcDbEntity
  8
16
  6
Continuous
 62
     3
370
    25
100
AcDbLine
 10
-78.75
 20
-39.75
 30
0.0
 11
-78.875
 21
-39.5
 31
0.0
  0
LINE
  5
465
330
1F
100
AcDbEntity
  8
16
  6
Continuous
 62
     3
370
    25
100
AcDbLine
 10
-78.875
 20
-39.5
 30
0.0
 11
-78.875
 21
-38.375
 31
0.0
  0
LINE
  5
466
330
1F
100
AcDbEntity
  8
16
  6
Continuous
 62
     3
370
    25
100
AcDbLine
 10
-78.875
 20
-38.375
 30
0.0
 11
-78.75
 21
-38.125
 31
0.0
  0
LINE
  5
467
330
1F
100
AcDbEntity
  8
16
  6
Continuous
 62
     3
370
    25
100
AcDbLine
 10
-78.75
 20
-38.125
 30
0.0
 11
-78.75
 21
-37.375
 31
0.0
  0
LINE
  5
468
330
1F
100
AcDbEntity
  8
16
  6
Continuous
 62
     3
370
    25
100
AcDbLine
 10
-78.75
 20
-37.375
 30
0.0
 11
-79.375
 21
-37.375
 31
0.0
  0
LINE
  5
469
330
1F
100
AcDbEntity
  8
16
  6
Continuous
 62
     3
370
    25
100
AcDbLine
 10
-79.375
 20
-37.375
 30
0.0
 11
-79.375
 21
-37.28750000149012
 31
0.0
  0
LINE
  5
46A
330
1F
100
AcDbEntity
  8
16
  6
Continuous
 62
     3
370
    25
100
AcDbLine
 10
-79.375
 20
-37.28750000149012
 30
0.0
 11
-78.75
 21
-37.28750000149012
 31
0.0
  0
LINE
  5
46B
330
1F
100
AcDbEntity
  8
16
  6
Continuous
 62
     3
370
    25
100
AcDbLine
 10
-78.75
 20
-37.28750000149012
 30
0.0
 11
-78.75
 21
-37.375
 31
0.0
  0
LINE
  5
46C
330
1F
100
AcDbEntity
  8
16
  6
Continuous
 62
     3
370
    25
100
AcDbLine
 10
-75.625
 20
-37.375
 30
0.0
 11
-75.625
 21
-38.125
 31
0.0
  0
LINE
  5
46D
330
1F
100
AcDbEntity
  8
16
  6
Continuous
 62
     3
370
    25
100
AcDbLine
 10
-75.625
 20
-38.125
 30
0.0
 11
-75.5
 21
-38.375
 31
0.0
  0
LINE
  5
46E
330
1F
100
AcDbEntity
  8
16
  6
Continuous
 62
     3
370
    25
100
AcDbLine
 10
-75.5
 20
-38.375
 30
0.0
 11
-75.5
 21
-39.5
 31
0.0
  0
LINE
  5
46F
330
1F
100
AcDbEntity
  8
16
  6
Continuous
 62
     3
370
    25
100
AcDbLine
 10
-75.5
 20
-39.5
 30
0.0
 11
-75.625
 21
-39.75
 31
0.0
  0
LINE
  5
470
330
1F
100
AcDbEntity
  8
16
  6
Continuous
 62
     3
370
    25
100
AcDbLine
 10
-75.625
 20
-39.75
 30
0.0
 11
-75.625
 21
-40.5
 31
0.0
  0
LINE
  5
471
330
1F
100
AcDbEntity
  8
16
  6
Continuous
 62
     3
370
    25
100
AcDbLine
 10
-75.625
 20
-40.5
 30
0.0
 11
-75.0
 21
-40.5
 31
0.0
  0
LINE
  5
472
330
1F
100
AcDbEntity
  8
16
  6
Continuous
 62
     3
370
    25
100
AcDbLine
 10
-75.0
 20
-40.5
 30
0.0
 11
-75.0
 21
-39.75
 31
0.0
  0
LINE
  5
473
330
1F
100
AcDbEntity
  8
16
  6
Continuous
 62
     3
370
    25
100
AcDbLine
 10
-75.0
 20
-39.75
 30
0.0
 11
-75.125
 21
-39.5
 31
0.0
  0
LINE
  5
474
330
1F
100
AcDbEntity
  8
16
  6
Continuous
 62
     3
370
    25
100
AcDbLine
 10
-75.125
 20
-39.5
 30
0.0
 11
-75.125
 21
-38.375
 31
0.0
  0
LINE
  5
475
330
1F
100
AcDbEntity
  8
16
  6
Continuous
 62
     3
370
    25
100
AcDbLine
 10
-75.125
 20
-38.375
 30
0.0
 11
-75.0
 21
-38.125
 31
0.0
  0
LINE
  5
476
330
1F
100
AcDbEntity
  8
16
  6
Continuous
 62
     3
370
    25
100
AcDbLine
 10
-75.0
 20
-38.125
 30
0.0
 11
-75.0
 21
-37.375
 31
0.0
  0
LINE
  5
477
330
1F
100
AcDbEntity
  8
16
  6
Continuous
 62
     3
370
    25
100
AcDbLine
 10
-75.0
 20
-37.375
 30
0.0
 11
-75.625
 21
-37.375
 31
0.0
  0
LINE
  5
478
330
1F
100
AcDbEntity
  8
16
  6
Continuous
 62
     3
370
    25
100
AcDbLine
 10
-75.625
 20
-37.375
 30
0.0
 11
-75.625
 21
-37.28750000149012
 31
0.0
  0
LINE
  5
479
330
1F
100
AcDbEntity
  8
16
  6
Continuous
 62
     3
370
    25
100
AcDbLine
 10
-75.625
 20
-37.28750000149012
 30
0.0
 11
-75.0
 21
-37.28750000149012
 31
0.0
  0
LINE
  5
47A
330
1F
100
AcDbEntity
  8
16
  6
Continuous
 62
     3
370
    25
100
AcDbLine
 10
-75.0
 20
-37.28750000149012
 30
0.0
 11
-75.0
 21
-37.375
 31
0.0
  0
LINE
  5
47B
330
1F
100
AcDbEntity
  8
16
  6
Continuous
 62
     3
370
    25
100
AcDbLine
 10
-71.875
 20
-37.375
 30
0.0
 11
-71.875
 21
-38.125
 31
0.0
  0
LINE
  5
47C
330
1F
100
AcDbEntity
  8
16
  6
Continuous
 62
     3
370
    25
100
AcDbLine
 10
-71.875
 20
-38.125
 30
0.0
 11
-71.75
 21
-38.375
 31
0.0
  0
LINE
  5
47D
330
1F
100
AcDbEntity
  8
16
  6
Continuous
 62
     3
370
    25
100
AcDbLine
 10
-71.75
 20
-38.375
 30
0.0
 11
-71.75
 21
-39.5
 31
0.0
  0
LINE
  5
47E
330
1F
100
AcDbEntity
  8
16
  6
Continuous
 62
     3
370
    25
100
AcDbLine
 10
-71.75
 20
-39.5
 30
0.0
 11
-71.875
 21
-39.75
 31
0.0
  0
LINE
  5
47F
330
1F
100
AcDbEntity
  8
16
  6
Continuous
 62
     3
370
    25
100
AcDbLine
 10
-71.875
 20
-39.75
 30
0.0
 11
-71.875
 21
-40.5
 31
0.0
  0
LINE
  5
480
330
1F
100
AcDbEntity
  8
16
  6
Continuous
 62
     3
370
    25
100
AcDbLine
 10
-71.875
 20
-40.5
 30
0.0
 11
-71.25
 21
-40.5
 31
0.0
  0
LINE
  5
481
330
1F
100
AcDbEntity
  8
16
  6
Continuous
 62
     3
370
    25
100
AcDbLine
 10
-71.25
 20
-40.5
 30
0.0
 11
-71.25
 21
-39.75
 31
0.0
  0
LINE
  5
482
330
1F
100
AcDbEntity
  8
16
  6
Continuous
 62
     3
370
    25
100
AcDbLine
 10
-71.25
 20
-39.75
 30
0.0
 11
-71.375
 21
-39.5
 31
0.0
  0
LINE
  5
483
330
1F
100
AcDbEntity
  8
16
  6
Continuous
 62
     3
370
    25
100
AcDbLine
 10
-71.375
 20
-39.5
 30
0.0
 11
-71.375
 21
-38.375
 31
0.0
  0
LINE
  5
484
330
1F
100
AcDbEntity
  8
16
  6
Continuous
 62
     3
370
    25
100
AcDbLine
 10
-71.375
 20
-38.375
 30
0.0
 11
-71.25
 21
-38.125
 31
0.0
  0
LINE
  5
485
330
1F
100
AcDbEntity
  8
16
  6
Continuous
 62
     3
370
    25
100
AcDbLine
 10
-71.25
 20
-38.125
 30
0.0
 11
-71.25
 21
-37.375
 31
0.0
  0
LINE
  5
486
330
1F
100
AcDbEntity
  8
16
  6
Continuous
 62
     3
370
    25
100
AcDbLine
 10
-71.25
 20
-37.375
 30
0.0
 11
-71.875
 21
-37.375
 31
0.0
  0
LINE
  5
487
330
1F
100
AcDbEntity
  8
16
  6
Continuous
 62
     3
370
    25
100
AcDbLine
 10
-71.875
 20
-37.375
 30
0.0
 11
-71.875
 21
-37.28750000149012
 31
0.0
  0
LINE
  5
488
330
1F
100
AcDbEntity
  8
16
  6
Continuous
 62
     3
370
    25
100
AcDbLine
 10
-71.875
 20
-37.28750000149012
 30
0.0
 11
-71.25
 21
-37.28750000149012
 31
0.0
  0
LINE
  5
489
330
1F
100
AcDbEntity
  8
16
  6
Continuous
 62
     3
370
    25
100
AcDbLine
 10
-71.25
 20
-37.28750000149012
 30
0.0
 11
-71.25
 21
-37.375
 31
0.0
  0
LINE
  5
48A
330
1F
100
AcDbEntity
  8
16
  6
Continuous
 62
     3
370
    25
100
AcDbLine
 10
-68.125
 20
-37.375
 30
0.0
 11
-68.125
 21
-38.125
 31
0.0
  0
LINE
  5
48B
330
1F
100
AcDbEntity
  8
16
  6
Continuous
 62
     3
370
    25
100
AcDbLine
 10
-68.125
 20
-38.125
 30
0.0
 11
-68.0
 21
-38.375
 31
0.0
  0
LINE
  5
48C
330
1F
100
AcDbEntity
  8
16
  6
Continuous
 62
     3
370
    25
100
AcDbLine
 10
-68.0
 20
-38.375
 30
0.0
 11
-68.0
 21
-39.5
 31
0.0
  0
LINE
  5
48D
330
1F
100
AcDbEntity
  8
16
  6
Continuous
 62
     3
370
    25
100
AcDbLine
 10
-68.0
 20
-39.5
 30
0.0
 11
-68.125
 21
-39.75
 31
0.0
  0
LINE
  5
48E
330
1F
100
AcDbEntity
  8
16
  6
Continuous
 62
     3
370
    25
100
AcDbLine
 10
-68.125
 20
-39.75
 30
0.0
 11
-68.125
 21
-40.5
 31
0.0
  0
LINE
  5
48F
330
1F
100
AcDbEntity
  8
16
  6
Continuous
 62
     3
370
    25
100
AcDbLine
 10
-68.125
 20
-40.5
 30
0.0
 11
-67.5
 21
-40.5
 31
0.0
  0
LINE
  5
490
330
1F
100
AcDbEntity
  8
16
  6
Continuous
 62
     3
370
    25
100
AcDbLine
 10
-67.5
 20
-40.5
 30
0.0
 11
-67.5
 21
-39.75
 31
0.0
  0
LINE
  5
491
330
1F
100
AcDbEntity
  8
16
  6
Continuous
 62
     3
370
    25
100
AcDbLine
 10
-67.5
 20
-39.75
 30
0.0
 11
-67.625
 21
-39.5
 31
0.0
  0
LINE
  5
492
330
1F
100
AcDbEntity
  8
16
  6
Continuous
 62
     3
370
    25
100
AcDbLine
 10
-67.625
 20
-39.5
 30
0.0
 11
-67.625
 21
-38.375
 31
0.0
  0
LINE
  5
493
330
1F
100
AcDbEntity
  8
16
  6
Continuous
 62
     3
370
    25
100
AcDbLine
 10
-67.625
 20
-38.375
 30
0.0
 11
-67.5
 21
-38.125
 31
0.0
  0
LINE
  5
494
330
1F
100
AcDbEntity
  8
16
  6
Continuous
 62
     3
370
    25
100
AcDbLine
 10
-67.5
 20
-38.125
 30
0.0
 11
-67.5
 21
-37.375
 31
0.0
  0
LINE
  5
495
330
1F
100
AcDbEntity
  8
16
  6
Continuous
 62
     3
370
    25
100
AcDbLine
 10
-67.5
 20
-37.375
 30
0.0
 11
-68.125
 21
-37.375
 31
0.0
  0
LINE
  5
496
330
1F
100
AcDbEntity
  8
16
  6
Continuous
 62
     3
370
    25
100
AcDbLine
 10
-68.125
 20
-37.375
 30
0.0
 11
-68.125
 21
-37.28750000149012
 31
0.0
  0
LINE
  5
497
330
1F
100
AcDbEntity
  8
16
  6
Continuous
 62
     3
370
    25
100
AcDbLine
 10
-68.125
 20
-37.28750000149012
 30
0.0
 11
-67.5
 21
-37.28750000149012
 31
0.0
  0
LINE
  5
498
330
1F
100
AcDbEntity
  8
16
  6
Continuous
 62
     3
370
    25
100
AcDbLine
 10
-67.5
 20
-37.28750000149012
 30
0.0
 11
-67.5
 21
-37.375
 31
0.0
  0
LINE
  5
499
330
1F
100
AcDbEntity
  8
16
  6
Continuous
 62
     3
370
    25
100
AcDbLine
 10
-64.375
 20
-37.375
 30
0.0
 11
-64.375
 21
-38.125
 31
0.0
  0
LINE
  5
49A
330
1F
100
AcDbEntity
  8
16
  6
Continuous
 62
     3
370
    25
100
AcDbLine
 10
-64.375
 20
-38.125
 30
0.0
 11
-64.25
 21
-38.375
 31
0.0
  0
LINE
  5
49B
330
1F
100
AcDbEntity
  8
16
  6
Continuous
 62
     3
370
    25
100
AcDbLine
 10
-64.25
 20
-38.375
 30
0.0
 11
-64.25
 21
-39.5
 31
0.0
  0
LINE
  5
49C
330
1F
100
AcDbEntity
  8
16
  6
Continuous
 62
     3
370
    25
100
AcDbLine
 10
-64.25
 20
-39.5
 30
0.0
 11
-64.375
 21
-39.75
 31
0.0
  0
LINE
  5
49D
330
1F
100
AcDbEntity
  8
16
  6
Continuous
 62
     3
370
    25
100
AcDbLine
 10
-64.375
 20
-39.75
 30
0.0
 11
-64.375
 21
-40.5
 31
0.0
  0
LINE
  5
49E
330
1F
100
AcDbEntity
  8
16
  6
Continuous
 62
     3
370
    25
100
AcDbLine
 10
-64.375
 20
-40.5
 30
0.0
 11
-63.75
 21
-40.5
 31
0.0
  0
LINE
  5
49F
330
1F
100
AcDbEntity
  8
16
  6
Continuous
 62
     3
370
    25
100
AcDbLine
 10
-63.75
 20
-40.5
 30
0.0
 11
-63.75
 21
-39.75
 31
0.0
  0
LINE
  5
4A0
330
1F
100
AcDbEntity
  8
16
  6
Continuous
 62
     3
370
    25
100
AcDbLine
 10
-63.75
 20
-39.75
 30
0.0
 11
-63.875
 21
-39.5
 31
0.0
  0
LINE
  5
4A1
330
1F
100
AcDbEntity
  8
16
  6
Continuous
 62
     3
370
    25
100
AcDbLine
 10
-63.875
 20
-39.5
 30
0.0
 11
-63.875
 21
-38.375
 31
0.0
  0
LINE
  5
4A2
330
1F
100
AcDbEntity
  8
16
  6
Continuous
 62
     3
370
    25
100
AcDbLine
 10
-63.875
 20
-38.375
 30
0.0
 11
-63.75
 21
-38.125
 31
0.0
  0
LINE
  5
4A3
330
1F
100
AcDbEntity
  8
16
  6
Continuous
 62
     3
370
    25
100
AcDbLine
 10
-63.75
 20
-38.125
 30
0.0
 11
-63.75
 21
-37.375
 31
0.0
  0
LINE
  5
4A4
330
1F
100
AcDbEntity
  8
16
  6
Continuous
 62
     3
370
    25
100
AcDbLine
 10
-63.75
 20
-37.375
 30
0.0
 11
-64.375
 21
-37.375
 31
0.0
  0
LINE
  5
4A5
330
1F
100
AcDbEntity
  8
16
  6
Continuous
 62
     3
370
    25
100
AcDbLine
 10
-64.375
 20
-37.375
 30
0.0
 11
-64.375
 21
-37.28750000149012
 31
0.0
  0
LINE
  5
4A6
330
1F
100
AcDbEntity
  8
16
  6
Continuous
 62
     3
370
    25
100
AcDbLine
 10
-64.375
 20
-37.28750000149012
 30
0.0
 11
-63.75
 21
-37.28750000149012
 31
0.0
  0
LINE
  5
4A7
330
1F
100
AcDbEntity
  8
16
  6
Continuous
 62
     3
370
    25
100
AcDbLine
 10
-63.75
 20
-37.28750000149012
 30
0.0
 11
-63.75
 21
-37.375
 31
0.0
  0
LINE
  5
4A8
330
1F
100
AcDbEntity
  8
16
  6
Continuous
 62
     3
370
    25
100
AcDbLine
 10
-60.625
 20
-37.375
 30
0.0
 11
-60.625
 21
-38.125
 31
0.0
  0
LINE
  5
4A9
330
1F
100
AcDbEntity
  8
16
  6
Continuous
 62
     3
370
    25
100
AcDbLine
 10
-60.625
 20
-38.125
 30
0.0
 11
-60.5
 21
-38.375
 31
0.0
  0
LINE
  5
4AA
330
1F
100
AcDbEntity
  8
16
  6
Continuous
 62
     3
370
    25
100
AcDbLine
 10
-60.5
 20
-38.375
 30
0.0
 11
-60.5
 21
-39.5
 31
0.0
  0
LINE
  5
4AB
330
1F
100
AcDbEntity
  8
16
  6
Continuous
 62
     3
370
    25
100
AcDbLine
 10
-60.5
 20
-39.5
 30
0.0
 11
-60.625
 21
-39.75
 31
0.0
  0
LINE
  5
4AC
330
1F
100
AcDbEntity
  8
16
  6
Continuous
 62
     3
370
    25
100
AcDbLine
 10
-60.625
 20
-39.75
 30
0.0
 11
-60.625
 21
-40.5
 31
0.0
  0
LINE
  5
4AD
330
1F
100
AcDbEntity
  8
16
  6
Continuous
 62
     3
370
    25
100
AcDbLine
 10
-60.625
 20
-40.5
 30
0.0
 11
-60.0
 21
-40.5
 31
0.0
  0
LINE
  5
4AE
330
1F
100
AcDbEntity
  8
16
  6
Continuous
 62
     3
370
    25
100
AcDbLine
 10
-60.0
 20
-40.5
 30
0.0
 11
-60.0
 21
-39.75
 31
0.0
  0
LINE
  5
4AF
330
1F
100
AcDbEntity
  8
16
  6
Continuous
 62
     3
370
    25
100
AcDbLine
 10
-60.0
 20
-39.75
 30
0.0
 11
-60.125
 21
-39.5
 31
0.0
  0
LINE
  5
4B0
330
1F
100
AcDbEntity
  8
16
  6
Continuous
 62
     3
370
    25
100
AcDbLine
 10
-60.125
 20
-39.5
 30
0.0
 11
-60.125
 21
-38.375
 31
0.0
  0
LINE
  5
4B1
330
1F
100
AcDbEntity
  8
16
  6
Continuous
 62
     3
370
    25
100
AcDbLine
 10
-60.125
 20
-38.375
 30
0.0
 11
-60.0
 21
-38.125
 31
0.0
  0
LINE
  5
4B2
330
1F
100
AcDbEntity
  8
16
  6
Continuous
 62
     3
370
    25
100
AcDbLine
 10
-60.0
 20
-38.125
 30
0.0
 11
-60.0
 21
-37.375
 31
0.0
  0
LINE
  5
4B3
330
1F
100
AcDbEntity
  8
16
  6
Continuous
 62
     3
370
    25
100
AcDbLine
 10
-60.0
 20
-37.375
 30
0.0
 11
-60.625
 21
-37.375
 31
0.0
  0
LINE
  5
4B4
330
1F
100
AcDbEntity
  8
16
  6
Continuous
 62
     3
370
    25
100
AcDbLine
 10
-60.625
 20
-37.375
 30
0.0
 11
-60.625
 21
-37.28750000149012
 31
0.0
  0
LINE
  5
4B5
330
1F
100
AcDbEntity
  8
16
  6
Continuous
 62
     3
370
    25
100
AcDbLine
 10
-60.625
 20
-37.28750000149012
 30
0.0
 11
-60.0
 21
-37.28750000149012
 31
0.0
  0
LINE
  5
4B6
330
1F
100
AcDbEntity
  8
16
  6
Continuous
 62
     3
370
    25
100
AcDbLine
 10
-60.0
 20
-37.28750000149012
 30
0.0
 11
-60.0
 21
-37.375
 31
0.0
  0
LINE
  5
4B7
330
1F
100
AcDbEntity
  8
16
  6
Continuous
 62
     3
370
    25
100
AcDbLine
 10
-56.875
 20
-37.375
 30
0.0
 11
-56.875
 21
-38.125
 31
0.0
  0
LINE
  5
4B8
330
1F
100
AcDbEntity
  8
16
  6
Continuous
 62
     3
370
    25
100
AcDbLine
 10
-56.875
 20
-38.125
 30
0.0
 11
-56.75
 21
-38.375
 31
0.0
  0
LINE
  5
4B9
330
1F
100
AcDbEntity
  8
16
  6
Continuous
 62
     3
370
    25
100
AcDbLine
 10
-56.75
 20
-38.375
 30
0.0
 11
-56.75
 21
-39.5
 31
0.0
  0
LINE
  5
4BA
330
1F
100
AcDbEntity
  8
16
  6
Continuous
 62
     3
370
    25
100
AcDbLine
 10
-56.75
 20
-39.5
 30
0.0
 11
-56.875
 21
-39.75
 31
0.0
  0
LINE
  5
4BB
330
1F
100
AcDbEntity
  8
16
  6
Continuous
 62
     3
370
    25
100
AcDbLine
 10
-56.875
 20
-39.75
 30
0.0
 11
-56.875
 21
-40.5
 31
0.0
  0
LINE
  5
4BC
330
1F
100
AcDbEntity
  8
16
  6
Continuous
 62
     3
370
    25
100
AcDbLine
 10
-56.875
 20
-40.5
 30
0.0
 11
-56.25
 21
-40.5
 31
0.0
  0
LINE
  5
4BD
330
1F
100
AcDbEntity
  8
16
  6
Continuous
 62
     3
370
    25
100
AcDbLine
 10
-56.25
 20
-40.5
 30
0.0
 11
-56.25
 21
-39.75
 31
0.0
  0
LINE
  5
4BE
330
1F
100
AcDbEntity
  8
16
  6
Continuous
 62
     3
370
    25
100
AcDbLine
 10
-56.25
 20
-39.75
 30
0.0
 11
-56.375
 21
-39.5
 31
0.0
  0
LINE
  5
4BF
330
1F
100
AcDbEntity
  8
16
  6
Continuous
 62
     3
370
    25
100
AcDbLine
 10
-56.375
 20
-39.5
 30
0.0
 11
-56.375
 21
-38.375
 31
0.0
  0
LINE
  5
4C0
330
1F
100
AcDbEntity
  8
16
  6
Continuous
 62
     3
370
    25
100
AcDbLine
 10
-56.375
 20
-38.375
 30
0.0
 11
-56.25
 21
-38.125
 31
0.0
  0
LINE
  5
4C1
330
1F
100
AcDbEntity
  8
16
  6
Continuous
 62
     3
370
    25
100
AcDbLine
 10
-56.25
 20
-38.125
 30
0.0
 11
-56.25
 21
-37.375
 31
0.0
  0
LINE
  5
4C2
330
1F
100
AcDbEntity
  8
16
  6
Continuous
 62
     3
370
    25
100
AcDbLine
 10
-56.25
 20
-37.375
 30
0.0
 11
-56.875
 21
-37.375
 31
0.0
  0
LINE
  5
4C3
330
1F
100
AcDbEntity
  8
16
  6
Continuous
 62
     3
370
    25
100
AcDbLine
 10
-56.875
 20
-37.375
 30
0.0
 11
-56.875
 21
-37.28750000149012
 31
0.0
  0
LINE
  5
4C4
330
1F
100
AcDbEntity
  8
16
  6
Continuous
 62
     3
370
    25
100
AcDbLine
 10
-56.875
 20
-37.28750000149012
 30
0.0
 11
-56.25
 21
-37.28750000149012
 31
0.0
  0
LINE
  5
4C5
330
1F
100
AcDbEntity
  8
16
  6
Continuous
 62
     3
370
    25
100
AcDbLine
 10
-56.25
 20
-37.28750000149012
 30
0.0
 11
-56.25
 21
-37.375
 31
0.0
  0
LINE
  5
4C6
330
1F
100
AcDbEntity
  8
16
  6
Continuous
 62
     3
370
    25
100
AcDbLine
 10
-53.125
 20
-37.375
 30
0.0
 11
-53.125
 21
-38.125
 31
0.0
  0
LINE
  5
4C7
330
1F
100
AcDbEntity
  8
16
  6
Continuous
 62
     3
370
    25
100
AcDbLine
 10
-53.125
 20
-38.125
 30
0.0
 11
-53.0
 21
-38.375
 31
0.0
  0
LINE
  5
4C8
330
1F
100
AcDbEntity
  8
16
  6
Continuous
 62
     3
370
    25
100
AcDbLine
 10
-53.0
 20
-38.375
 30
0.0
 11
-53.0
 21
-39.5
 31
0.0
  0
LINE
  5
4C9
330
1F
100
AcDbEntity
  8
16
  6
Continuous
 62
     3
370
    25
100
AcDbLine
 10
-53.0
 20
-39.5
 30
0.0
 11
-53.125
 21
-39.75
 31
0.0
  0
LINE
  5
4CA
330
1F
100
AcDbEntity
  8
16
  6
Continuous
 62
     3
370
    25
100
AcDbLine
 10
-53.125
 20
-39.75
 30
0.0
 11
-53.125
 21
-40.5
 31
0.0
  0
LINE
  5
4CB
330
1F
100
AcDbEntity
  8
16
  6
Continuous
 62
     3
370
    25
100
AcDbLine
 10
-53.125
 20
-40.5
 30
0.0
 11
-52.5
 21
-40.5
 31
0.0
  0
LINE
  5
4CC
330
1F
100
AcDbEntity
  8
16
  6
Continuous
 62
     3
370
    25
100
AcDbLine
 10
-52.5
 20
-40.5
 30
0.0
 11
-52.5
 21
-39.75
 31
0.0
  0
LINE
  5
4CD
330
1F
100
AcDbEntity
  8
16
  6
Continuous
 62
     3
370
    25
100
AcDbLine
 10
-52.5
 20
-39.75
 30
0.0
 11
-52.625
 21
-39.5
 31
0.0
  0
LINE
  5
4CE
330
1F
100
AcDbEntity
  8
16
  6
Continuous
 62
     3
370
    25
100
AcDbLine
 10
-52.625
 20
-39.5
 30
0.0
 11
-52.625
 21
-38.375
 31
0.0
  0
LINE
  5
4CF
330
1F
100
AcDbEntity
  8
16
  6
Continuous
 62
     3
370
    25
100
AcDbLine
 10
-52.625
 20
-38.375
 30
0.0
 11
-52.5
 21
-38.125
 31
0.0
  0
LINE
  5
4D0
330
1F
100
AcDbEntity
  8
16
  6
Continuous
 62
     3
370
    25
100
AcDbLine
 10
-52.5
 20
-38.125
 30
0.0
 11
-52.5
 21
-37.375
 31
0.0
  0
LINE
  5
4D1
330
1F
100
AcDbEntity
  8
16
  6
Continuous
 62
     3
370
    25
100
AcDbLine
 10
-52.5
 20
-37.375
 30
0.0
 11
-53.125
 21
-37.375
 31
0.0
  0
LINE
  5
4D2
330
1F
100
AcDbEntity
  8
16
  6
Continuous
 62
     3
370
    25
100
AcDbLine
 10
-53.125
 20
-37.375
 30
0.0
 11
-53.125
 21
-37.28750000149012
 31
0.0
  0
LINE
  5
4D3
330
1F
100
AcDbEntity
  8
16
  6
Continuous
 62
     3
370
    25
100
AcDbLine
 10
-53.125
 20
-37.28750000149012
 30
0.0
 11
-52.5
 21
-37.28750000149012
 31
0.0
  0
LINE
  5
4D4
330
1F
100
AcDbEntity
  8
16
  6
Continuous
 62
     3
370
    25
100
AcDbLine
 10
-52.5
 20
-37.28750000149012
 30
0.0
 11
-52.5
 21
-37.375
 31
0.0
  0
LINE
  5
4D5
330
1F
100
AcDbEntity
  8
16
  6
Continuous
 62
     3
370
    25
100
AcDbLine
 10
-49.375
 20
-37.375
 30
0.0
 11
-49.375
 21
-38.125
 31
0.0
  0
LINE
  5
4D6
330
1F
100
AcDbEntity
  8
16
  6
Continuous
 62
     3
370
    25
100
AcDbLine
 10
-49.375
 20
-38.125
 30
0.0
 11
-49.25
 21
-38.375
 31
0.0
  0
LINE
  5
4D7
330
1F
100
AcDbEntity
  8
16
  6
Continuous
 62
     3
370
    25
100
AcDbLine
 10
-49.25
 20
-38.375
 30
0.0
 11
-49.25
 21
-39.5
 31
0.0
  0
LINE
  5
4D8
330
1F
100
AcDbEntity
  8
16
  6
Continuous
 62
     3
370
    25
100
AcDbLine
 10
-49.25
 20
-39.5
 30
0.0
 11
-49.375
 21
-39.75
 31
0.0
  0
LINE
  5
4D9
330
1F
100
AcDbEntity
  8
16
  6
Continuous
 62
     3
370
    25
100
AcDbLine
 10
-49.375
 20
-39.75
 30
0.0
 11
-49.375
 21
-40.5
 31
0.0
  0
LINE
  5
4DA
330
1F
100
AcDbEntity
  8
16
  6
Continuous
 62
     3
370
    25
100
AcDbLine
 10
-49.375
 20
-40.5
 30
0.0
 11
-48.75
 21
-40.5
 31
0.0
  0
LINE
  5
4DB
330
1F
100
AcDbEntity
  8
16
  6
Continuous
 62
     3
370
    25
100
AcDbLine
 10
-48.75
 20
-40.5
 30
0.0
 11
-48.75
 21
-39.75
 31
0.0
  0
LINE
  5
4DC
330
1F
100
AcDbEntity
  8
16
  6
Continuous
 62
     3
370
    25
100
AcDbLine
 10
-48.75
 20
-39.75
 30
0.0
 11
-48.875
 21
-39.5
 31
0.0
  0
LINE
  5
4DD
330
1F
100
AcDbEntity
  8
16
  6
Continuous
 62
     3
370
    25
100
AcDbLine
 10
-48.875
 20
-39.5
 30
0.0
 11
-48.875
 21
-38.375
 31
0.0
  0
LINE
  5
4DE
330
1F
100
AcDbEntity
  8
16
  6
Continuous
 62
     3
370
    25
100
AcDbLine
 10
-48.875
 20
-38.375
 30
0.0
 11
-48.75
 21
-38.125
 31
0.0
  0
LINE
  5
4DF
330
1F
100
AcDbEntity
  8
16
  6
Continuous
 62
     3
370
    25
100
AcDbLine
 10
-48.75
 20
-38.125
 30
0.0
 11
-48.75
 21
-37.375
 31
0.0
  0
LINE
  5
4E0
330
1F
100
AcDbEntity
  8
16
  6
Continuous
 62
     3
370
    25
100
AcDbLine
 10
-48.75
 20
-37.375
 30
0.0
 11
-49.375
 21
-37.375
 31
0.0
  0
LINE
  5
4E1
330
1F
100
AcDbEntity
  8
16
  6
Continuous
 62
     3
370
    25
100
AcDbLine
 10
-49.375
 20
-37.375
 30
0.0
 11
-49.375
 21
-37.28750000149012
 31
0.0
  0
LINE
  5
4E2
330
1F
100
AcDbEntity
  8
16
  6
Continuous
 62
     3
370
    25
100
AcDbLine
 10
-49.375
 20
-37.28750000149012
 30
0.0
 11
-48.75
 21
-37.28750000149012
 31
0.0
  0
LINE
  5
4E3
330
1F
100
AcDbEntity
  8
16
  6
Continuous
 62
     3
370
    25
100
AcDbLine
 10
-48.75
 20
-37.28750000149012
 30
0.0
 11
-48.75
 21
-37.375
 31
0.0
  0
LINE
  5
4E4
330
1F
100
AcDbEntity
  8
16
  6
Continuous
 62
     3
370
    25
100
AcDbLine
 10
-45.625
 20
-37.375
 30
0.0
 11
-45.625
 21
-38.125
 31
0.0
  0
LINE
  5
4E5
330
1F
100
AcDbEntity
  8
16
  6
Continuous
 62
     3
370
    25
100
AcDbLine
 10
-45.625
 20
-38.125
 30
0.0
 11
-45.5
 21
-38.375
 31
0.0
  0
LINE
  5
4E6
330
1F
100
AcDbEntity
  8
16
  6
Continuous
 62
     3
370
    25
100
AcDbLine
 10
-45.5
 20
-38.375
 30
0.0
 11
-45.5
 21
-39.5
 31
0.0
  0
LINE
  5
4E7
330
1F
100
AcDbEntity
  8
16
  6
Continuous
 62
     3
370
    25
100
AcDbLine
 10
-45.5
 20
-39.5
 30
0.0
 11
-45.625
 21
-39.75
 31
0.0
  0
LINE
  5
4E8
330
1F
100
AcDbEntity
  8
16
  6
Continuous
 62
     3
370
    25
100
AcDbLine
 10
-45.625
 20
-39.75
 30
0.0
 11
-45.625
 21
-40.5
 31
0.0
  0
LINE
  5
4E9
330
1F
100
AcDbEntity
  8
16
  6
Continuous
 62
     3
370
    25
100
AcDbLine
 10
-45.625
 20
-40.5
 30
0.0
 11
-45.0
 21
-40.5
 31
0.0
  0
LINE
  5
4EA
330
1F
100
AcDbEntity
  8
16
  6
Continuous
 62
     3
370
    25
100
AcDbLine
 10
-45.0
 20
-40.5
 30
0.0
 11
-45.0
 21
-39.75
 31
0.0
  0
LINE
  5
4EB
330
1F
100
AcDbEntity
  8
16
  6
Continuous
 62
     3
370
    25
100
AcDbLine
 10
-45.0
 20
-39.75
 30
0.0
 11
-45.125
 21
-39.5
 31
0.0
  0
LINE
  5
4EC
330
1F
100
AcDbEntity
  8
16
  6
Continuous
 62
     3
370
    25
100
AcDbLine
 10
-45.125
 20
-39.5
 30
0.0
 11
-45.125
 21
-38.375
 31
0.0
  0
LINE
  5
4ED
330
1F
100
AcDbEntity
  8
16
  6
Continuous
 62
     3
370
    25
100
AcDbLine
 10
-45.125
 20
-38.375
 30
0.0
 11
-45.0
 21
-38.125
 31
0.0
  0
LINE
  5
4EE
330
1F
100
AcDbEntity
  8
16
  6
Continuous
 62
     3
370
    25
100
AcDbLine
 10
-45.0
 20
-38.125
 30
0.0
 11
-45.0
 21
-37.375
 31
0.0
  0
LINE
  5
4EF
330
1F
100
AcDbEntity
  8
16
  6
Continuous
 62
     3
370
    25
100
AcDbLine
 10
-45.0
 20
-37.375
 30
0.0
 11
-45.625
 21
-37.375
 31
0.0
  0
LINE
  5
4F0
330
1F
100
AcDbEntity
  8
16
  6
Continuous
 62
     3
370
    25
100
AcDbLine
 10
-45.625
 20
-37.375
 30
0.0
 11
-45.625
 21
-37.28750000149012
 31
0.0
  0
LINE
  5
4F1
330
1F
100
AcDbEntity
  8
16
  6
Continuous
 62
     3
370
    25
100
AcDbLine
 10
-45.625
 20
-37.28750000149012
 30
0.0
 11
-45.0
 21
-37.28750000149012
 31
0.0
  0
LINE
  5
4F2
330
1F
100
AcDbEntity
  8
16
  6
Continuous
 62
     3
370
    25
100
AcDbLine
 10
-45.0
 20
-37.28750000149012
 30
0.0
 11
-45.0
 21
-37.375
 31
0.0
  0
LINE
  5
4F3
330
1F
100
AcDbEntity
  8
16
  6
Continuous
 62
     3
370
    25
100
AcDbLine
 10
-41.875
 20
-37.375
 30
0.0
 11
-41.875
 21
-38.125
 31
0.0
  0
LINE
  5
4F4
330
1F
100
AcDbEntity
  8
16
  6
Continuous
 62
     3
370
    25
100
AcDbLine
 10
-41.875
 20
-38.125
 30
0.0
 11
-41.75
 21
-38.375
 31
0.0
  0
LINE
  5
4F5
330
1F
100
AcDbEntity
  8
16
  6
Continuous
 62
     3
370
    25
100
AcDbLine
 10
-41.75
 20
-38.375
 30
0.0
 11
-41.75
 21
-39.5
 31
0.0
  0
LINE
  5
4F6
330
1F
100
AcDbEntity
  8
16
  6
Continuous
 62
     3
370
    25
100
AcDbLine
 10
-41.75
 20
-39.5
 30
0.0
 11
-41.875
 21
-39.75
 31
0.0
  0
LINE
  5
4F7
330
1F
100
AcDbEntity
  8
16
  6
Continuous
 62
     3
370
    25
100
AcDbLine
 10
-41.875
 20
-39.75
 30
0.0
 11
-41.875
 21
-40.5
 31
0.0
  0
LINE
  5
4F8
330
1F
100
AcDbEntity
  8
16
  6
Continuous
 62
     3
370
    25
100
AcDbLine
 10
-41.875
 20
-40.5
 30
0.0
 11
-41.25
 21
-40.5
 31
0.0
  0
LINE
  5
4F9
330
1F
100
AcDbEntity
  8
16
  6
Continuous
 62
     3
370
    25
100
AcDbLine
 10
-41.25
 20
-40.5
 30
0.0
 11
-41.25
 21
-39.75
 31
0.0
  0
LINE
  5
4FA
330
1F
100
AcDbEntity
  8
16
  6
Continuous
 62
     3
370
    25
100
AcDbLine
 10
-41.25
 20
-39.75
 30
0.0
 11
-41.375
 21
-39.5
 31
0.0
  0
LINE
  5
4FB
330
1F
100
AcDbEntity
  8
16
  6
Continuous
 62
     3
370
    25
100
AcDbLine
 10
-41.375
 20
-39.5
 30
0.0
 11
-41.375
 21
-38.375
 31
0.0
  0
LINE
  5
4FC
330
1F
100
AcDbEntity
  8
16
  6
Continuous
 62
     3
370
    25
100
AcDbLine
 10
-41.375
 20
-38.375
 30
0.0
 11
-41.25
 21
-38.125
 31
0.0
  0
LINE
  5
4FD
330
1F
100
AcDbEntity
  8
16
  6
Continuous
 62
     3
370
    25
100
AcDbLine
 10
-41.25
 20
-38.125
 30
0.0
 11
-41.25
 21
-37.375
 31
0.0
  0
LINE
  5
4FE
330
1F
100
AcDbEntity
  8
16
  6
Continuous
 62
     3
370
    25
100
AcDbLine
 10
-41.25
 20
-37.375
 30
0.0
 11
-41.875
 21
-37.375
 31
0.0
  0
LINE
  5
4FF
330
1F
100
AcDbEntity
  8
16
  6
Continuous
 62
     3
370
    25
100
AcDbLine
 10
-41.875
 20
-37.375
 30
0.0
 11
-41.875
 21
-37.28750000149012
 31
0.0
  0
LINE
  5
500
330
1F
100
AcDbEntity
  8
16
  6
Continuous
 62
     3
370
    25
100
AcDbLine
 10
-41.875
 20
-37.28750000149012
 30
0.0
 11
-41.25
 21
-37.28750000149012
 31
0.0
  0
LINE
  5
501
330
1F
100
AcDbEntity
  8
16
  6
Continuous
 62
     3
370
    25
100
AcDbLine
 10
-41.25
 20
-37.28750000149012
 30
0.0
 11
-41.25
 21
-37.375
 31
0.0
  0
LINE
  5
502
330
1F
100
AcDbEntity
  8
16
  6
Continuous
 62
     3
370
    25
100
AcDbLine
 10
-38.125
 20
-37.375
 30
0.0
 11
-38.125
 21
-38.125
 31
0.0
  0
LINE
  5
503
330
1F
100
AcDbEntity
  8
16
  6
Continuous
 62
     3
370
    25
100
AcDbLine
 10
-38.125
 20
-38.125
 30
0.0
 11
-38.0
 21
-38.375
 31
0.0
  0
LINE
  5
504
330
1F
100
AcDbEntity
  8
16
  6
Continuous
 62
     3
370
    25
100
AcDbLine
 10
-38.0
 20
-38.375
 30
0.0
 11
-38.0
 21
-39.5
 31
0.0
  0
LINE
  5
505
330
1F
100
AcDbEntity
  8
16
  6
Continuous
 62
     3
370
    25
100
AcDbLine
 10
-38.0
 20
-39.5
 30
0.0
 11
-38.125
 21
-39.75
 31
0.0
  0
LINE
  5
506
330
1F
100
AcDbEntity
  8
16
  6
Continuous
 62
     3
370
    25
100
AcDbLine
 10
-38.125
 20
-39.75
 30
0.0
 11
-38.125
 21
-40.5
 31
0.0
  0
LINE
  5
507
330
1F
100
AcDbEntity
  8
16
  6
Continuous
 62
     3
370
    25
100
AcDbLine
 10
-38.125
 20
-40.5
 30
0.0
 11
-37.5
 21
-40.5
 31
0.0
  0
LINE
  5
508
330
1F
100
AcDbEntity
  8
16
  6
Continuous
 62
     3
370
    25
100
AcDbLine
 10
-37.5
 20
-40.5
 30
0.0
 11
-37.5
 21
-39.75
 31
0.0
  0
LINE
  5
509
330
1F
100
AcDbEntity
  8
16
  6
Continuous
 62
     3
370
    25
100
AcDbLine
 10
-37.5
 20
-39.75
 30
0.0
 11
-37.625
 21
-39.5
 31
0.0
  0
LINE
  5
50A
330
1F
100
AcDbEntity
  8
16
  6
Continuous
 62
     3
370
    25
100
AcDbLine
 10
-37.625
 20
-39.5
 30
0.0
 11
-37.625
 21
-38.375
 31
0.0
  0
LINE
  5
50B
330
1F
100
AcDbEntity
  8
16
  6
Continuous
 62
     3
370
    25
100
AcDbLine
 10
-37.625
 20
-38.375
 30
0.0
 11
-37.5
 21
-38.125
 31
0.0
  0
LINE
  5
50C
330
1F
100
AcDbEntity
  8
16
  6
Continuous
 62
     3
370
    25
100
AcDbLine
 10
-37.5
 20
-38.125
 30
0.0
 11
-37.5
 21
-37.375
 31
0.0
  0
LINE
  5
50D
330
1F
100
AcDbEntity
  8
16
  6
Continuous
 62
     3
370
    25
100
AcDbLine
 10
-37.5
 20
-37.375
 30
0.0
 11
-38.125
 21
-37.375
 31
0.0
  0
LINE
  5
50E
330
1F
100
AcDbEntity
  8
16
  6
Continuous
 62
     3
370
    25
100
AcDbLine
 10
-38.125
 20
-37.375
 30
0.0
 11
-38.125
 21
-37.28750000149012
 31
0.0
  0
LINE
  5
50F
330
1F
100
AcDbEntity
  8
16
  6
Continuous
 62
     3
370
    25
100
AcDbLine
 10
-38.125
 20
-37.28750000149012
 30
0.0
 11
-37.5
 21
-37.28750000149012
 31
0.0
  0
LINE
  5
510
330
1F
100
AcDbEntity
  8
16
  6
Continuous
 62
     3
370
    25
100
AcDbLine
 10
-37.5
 20
-37.28750000149012
 30
0.0
 11
-37.5
 21
-37.375
 31
0.0
  0
LINE
  5
511
330
1F
100
AcDbEntity
  8
16
  6
Continuous
 62
     3
370
    25
100
AcDbLine
 10
-34.375
 20
-37.375
 30
0.0
 11
-34.375
 21
-38.125
 31
0.0
  0
LINE
  5
512
330
1F
100
AcDbEntity
  8
16
  6
Continuous
 62
     3
370
    25
100
AcDbLine
 10
-34.375
 20
-38.125
 30
0.0
 11
-34.25
 21
-38.375
 31
0.0
  0
LINE
  5
513
330
1F
100
AcDbEntity
  8
16
  6
Continuous
 62
     3
370
    25
100
AcDbLine
 10
-34.25
 20
-38.375
 30
0.0
 11
-34.25
 21
-39.5
 31
0.0
  0
LINE
  5
514
330
1F
100
AcDbEntity
  8
16
  6
Continuous
 62
     3
370
    25
100
AcDbLine
 10
-34.25
 20
-39.5
 30
0.0
 11
-34.375
 21
-39.75
 31
0.0
  0
LINE
  5
515
330
1F
100
AcDbEntity
  8
16
  6
Continuous
 62
     3
370
    25
100
AcDbLine
 10
-34.375
 20
-39.75
 30
0.0
 11
-34.375
 21
-40.5
 31
0.0
  0
LINE
  5
516
330
1F
100
AcDbEntity
  8
16
  6
Continuous
 62
     3
370
    25
100
AcDbLine
 10
-34.375
 20
-40.5
 30
0.0
 11
-33.75
 21
-40.5
 31
0.0
  0
LINE
  5
517
330
1F
100
AcDbEntity
  8
16
  6
Continuous
 62
     3
370
    25
100
AcDbLine
 10
-33.75
 20
-40.5
 30
0.0
 11
-33.75
 21
-39.75
 31
0.0
  0
LINE
  5
518
330
1F
100
AcDbEntity
  8
16
  6
Continuous
 62
     3
370
    25
100
AcDbLine
 10
-33.75
 20
-39.75
 30
0.0
 11
-33.875
 21
-39.5
 31
0.0
  0
LINE
  5
519
330
1F
100
AcDbEntity
  8
16
  6
Continuous
 62
     3
370
    25
100
AcDbLine
 10
-33.875
 20
-39.5
 30
0.0
 11
-33.875
 21
-38.375
 31
0.0
  0
LINE
  5
51A
330
1F
100
AcDbEntity
  8
16
  6
Continuous
 62
     3
370
    25
100
AcDbLine
 10
-33.875
 20
-38.375
 30
0.0
 11
-33.75
 21
-38.125
 31
0.0
  0
LINE
  5
51B
330
1F
100
AcDbEntity
  8
16
  6
Continuous
 62
     3
370
    25
100
AcDbLine
 10
-33.75
 20
-38.125
 30
0.0
 11
-33.75
 21
-37.375
 31
0.0
  0
LINE
  5
51C
330
1F
100
AcDbEntity
  8
16
  6
Continuous
 62
     3
370
    25
100
AcDbLine
 10
-33.75
 20
-37.375
 30
0.0
 11
-34.375
 21
-37.375
 31
0.0
  0
LINE
  5
51D
330
1F
100
AcDbEntity
  8
16
  6
Continuous
 62
     3
370
    25
100
AcDbLine
 10
-34.375
 20
-37.375
 30
0.0
 11
-34.375
 21
-37.28750000149012
 31
0.0
  0
LINE
  5
51E
330
1F
100
AcDbEntity
  8
16
  6
Continuous
 62
     3
370
    25
100
AcDbLine
 10
-34.375
 20
-37.28750000149012
 30
0.0
 11
-33.75
 21
-37.28750000149012
 31
0.0
  0
LINE
  5
51F
330
1F
100
AcDbEntity
  8
16
  6
Continuous
 62
     3
370
    25
100
AcDbLine
 10
-33.75
 20
-37.28750000149012
 30
0.0
 11
-33.75
 21
-37.375
 31
0.0
  0
LINE
  5
520
330
1F
100
AcDbEntity
  8
16
  6
Continuous
 62
     3
370
    25
100
AcDbLine
 10
-30.625
 20
-37.375
 30
0.0
 11
-30.625
 21
-38.125
 31
0.0
  0
LINE
  5
521
330
1F
100
AcDbEntity
  8
16
  6
Continuous
 62
     3
370
    25
100
AcDbLine
 10
-30.625
 20
-38.125
 30
0.0
 11
-30.5
 21
-38.375
 31
0.0
  0
LINE
  5
522
330
1F
100
AcDbEntity
  8
16
  6
Continuous
 62
     3
370
    25
100
AcDbLine
 10
-30.5
 20
-38.375
 30
0.0
 11
-30.5
 21
-39.5
 31
0.0
  0
LINE
  5
523
330
1F
100
AcDbEntity
  8
16
  6
Continuous
 62
     3
370
    25
100
AcDbLine
 10
-30.5
 20
-39.5
 30
0.0
 11
-30.625
 21
-39.75
 31
0.0
  0
LINE
  5
524
330
1F
100
AcDbEntity
  8
16
  6
Continuous
 62
     3
370
    25
100
AcDbLine
 10
-30.625
 20
-39.75
 30
0.0
 11
-30.625
 21
-40.5
 31
0.0
  0
LINE
  5
525
330
1F
100
AcDbEntity
  8
16
  6
Continuous
 62
     3
370
    25
100
AcDbLine
 10
-30.625
 20
-40.5
 30
0.0
 11
-30.0
 21
-40.5
 31
0.0
  0
LINE
  5
526
330
1F
100
AcDbEntity
  8
16
  6
Continuous
 62
     3
370
    25
100
AcDbLine
 10
-30.0
 20
-40.5
 30
0.0
 11
-30.0
 21
-39.75
 31
0.0
  0
LINE
  5
527
330
1F
100
AcDbEntity
  8
16
  6
Continuous
 62
     3
370
    25
100
AcDbLine
 10
-30.0
 20
-39.75
 30
0.0
 11
-30.125
 21
-39.5
 31
0.0
  0
LINE
  5
528
330
1F
100
AcDbEntity
  8
16
  6
Continuous
 62
     3
370
    25
100
AcDbLine
 10
-30.125
 20
-39.5
 30
0.0
 11
-30.125
 21
-38.375
 31
0.0
  0
LINE
  5
529
330
1F
100
AcDbEntity
  8
16
  6
Continuous
 62
     3
370
    25
100
AcDbLine
 10
-30.125
 20
-38.375
 30
0.0
 11
-30.0
 21
-38.125
 31
0.0
  0
LINE
  5
52A
330
1F
100
AcDbEntity
  8
16
  6
Continuous
 62
     3
370
    25
100
AcDbLine
 10
-30.0
 20
-38.125
 30
0.0
 11
-30.0
 21
-37.375
 31
0.0
  0
LINE
  5
52B
330
1F
100
AcDbEntity
  8
16
  6
Continuous
 62
     3
370
    25
100
AcDbLine
 10
-30.0
 20
-37.375
 30
0.0
 11
-30.625
 21
-37.375
 31
0.0
  0
LINE
  5
52C
330
1F
100
AcDbEntity
  8
16
  6
Continuous
 62
     3
370
    25
100
AcDbLine
 10
-30.625
 20
-37.375
 30
0.0
 11
-30.625
 21
-37.28750000149012
 31
0.0
  0
LINE
  5
52D
330
1F
100
AcDbEntity
  8
16
  6
Continuous
 62
     3
370
    25
100
AcDbLine
 10
-30.625
 20
-37.28750000149012
 30
0.0
 11
-30.0
 21
-37.28750000149012
 31
0.0
  0
LINE
  5
52E
330
1F
100
AcDbEntity
  8
16
  6
Continuous
 62
     3
370
    25
100
AcDbLine
 10
-30.0
 20
-37.28750000149012
 30
0.0
 11
-30.0
 21
-37.375
 31
0.0
  0
LINE
  5
52F
330
1F
100
AcDbEntity
  8
16
  6
Continuous
 62
     3
370
    25
100
AcDbLine
 10
-154.375
 20
-37.375
 30
0.0
 11
-154.375
 21
-42.375
 31
0.0
  0
LINE
  5
530
330
1F
100
AcDbEntity
  8
16
  6
Continuous
 62
     3
370
    25
100
AcDbLine
 10
-154.375
 20
-42.375
 30
0.0
 11
-30.0
 21
-42.375
 31
0.0
  0
LINE
  5
531
330
1F
100
AcDbEntity
  8
16
  6
Continuous
 62
     3
370
    25
100
AcDbLine
 10
-30.0
 20
-42.375
 30
0.0
 11
-30.0
 21
-37.375
 31
0.0
  0
LINE
  5
532
330
1F
100
AcDbEntity
  8
16
  6
Continuous
 62
     3
370
    25
100
AcDbLine
 10
-153.75
 20
-37.375
 30
0.0
 11
-150.625
 21
-37.375
 31
0.0
  0
LINE
  5
533
330
1F
100
AcDbEntity
  8
16
  6
Continuous
 62
     3
370
    25
100
AcDbLine
 10
-153.75
 20
-38.125
 30
0.0
 11
-150.625
 21
-37.375
 31
0.0
  0
LINE
  5
534
330
1F
100
AcDbEntity
  8
16
  6
Continuous
 62
     3
370
    25
100
AcDbLine
 10
-153.75
 20
-38.125
 30
0.0
 11
-150.625
 21
-38.125
 31
0.0
  0
LINE
  5
535
330
1F
100
AcDbEntity
  8
16
  6
Continuous
 62
     3
370
    25
100
AcDbLine
 10
-150.0
 20
-37.375
 30
0.0
 11
-146.875
 21
-37.375
 31
0.0
  0
LINE
  5
536
330
1F
100
AcDbEntity
  8
16
  6
Continuous
 62
     3
370
    25
100
AcDbLine
 10
-150.0
 20
-38.125
 30
0.0
 11
-146.875
 21
-37.375
 31
0.0
  0
LINE
  5
537
330
1F
100
AcDbEntity
  8
16
  6
Continuous
 62
     3
370
    25
100
AcDbLine
 10
-150.0
 20
-38.125
 30
0.0
 11
-146.875
 21
-38.125
 31
0.0
  0
LINE
  5
538
330
1F
100
AcDbEntity
  8
16
  6
Continuous
 62
     3
370
    25
100
AcDbLine
 10
-146.25
 20
-37.375
 30
0.0
 11
-143.125
 21
-37.375
 31
0.0
  0
LINE
  5
539
330
1F
100
AcDbEntity
  8
16
  6
Continuous
 62
     3
370
    25
100
AcDbLine
 10
-146.25
 20
-38.125
 30
0.0
 11
-143.125
 21
-37.375
 31
0.0
  0
LINE
  5
53A
330
1F
100
AcDbEntity
  8
16
  6
Continuous
 62
     3
370
    25
100
AcDbLine
 10
-146.25
 20
-38.125
 30
0.0
 11
-143.125
 21
-38.125
 31
0.0
  0
LINE
  5
53B
330
1F
100
AcDbEntity
  8
16
  6
Continuous
 62
     3
370
    25
100
AcDbLine
 10
-142.5
 20
-37.375
 30
0.0
 11
-139.375
 21
-37.375
 31
0.0
  0
LINE
  5
53C
330
1F
100
AcDbEntity
  8
16
  6
Continuous
 62
     3
370
    25
100
AcDbLine
 10
-142.5
 20
-38.125
 30
0.0
 11
-139.375
 21
-37.375
 31
0.0
  0
LINE
  5
53D
330
1F
100
AcDbEntity
  8
16
  6
Continuous
 62
     3
370
    25
100
AcDbLine
 10
-142.5
 20
-38.125
 30
0.0
 11
-139.375
 21
-38.125
 31
0.0
  0
LINE
  5
53E
330
1F
100
AcDbEntity
  8
16
  6
Continuous
 62
     3
370
    25
100
AcDbLine
 10
-138.75
 20
-37.375
 30
0.0
 11
-135.625
 21
-37.375
 31
0.0
  0
LINE
  5
53F
330
1F
100
AcDbEntity
  8
16
  6
Continuous
 62
     3
370
    25
100
AcDbLine
 10
-138.75
 20
-38.125
 30
0.0
 11
-135.625
 21
-37.375
 31
0.0
  0
LINE
  5
540
330
1F
100
AcDbEntity
  8
16
  6
Continuous
 62
     3
370
    25
100
AcDbLine
 10
-138.75
 20
-38.125
 30
0.0
 11
-135.625
 21
-38.125
 31
0.0
  0
LINE
  5
541
330
1F
100
AcDbEntity
  8
16
  6
Continuous
 62
     3
370
    25
100
AcDbLine
 10
-135.0
 20
-37.375
 30
0.0
 11
-131.875
 21
-37.375
 31
0.0
  0
LINE
  5
542
330
1F
100
AcDbEntity
  8
16
  6
Continuous
 62
     3
370
    25
100
AcDbLine
 10
-135.0
 20
-38.125
 30
0.0
 11
-131.875
 21
-37.375
 31
0.0
  0
LINE
  5
543
330
1F
100
AcDbEntity
  8
16
  6
Continuous
 62
     3
370
    25
100
AcDbLine
 10
-135.0
 20
-38.125
 30
0.0
 11
-131.875
 21
-38.125
 31
0.0
  0
LINE
  5
544
330
1F
100
AcDbEntity
  8
16
  6
Continuous
 62
     3
370
    25
100
AcDbLine
 10
-131.25
 20
-37.375
 30
0.0
 11
-128.125
 21
-37.375
 31
0.0
  0
LINE
  5
545
330
1F
100
AcDbEntity
  8
16
  6
Continuous
 62
     3
370
    25
100
AcDbLine
 10
-131.25
 20
-38.125
 30
0.0
 11
-128.125
 21
-37.375
 31
0.0
  0
LINE
  5
546
330
1F
100
AcDbEntity
  8
16
  6
Continuous
 62
     3
370
    25
100
AcDbLine
 10
-131.25
 20
-38.125
 30
0.0
 11
-128.125
 21
-38.125
 31
0.0
  0
LINE
  5
547
330
1F
100
AcDbEntity
  8
16
  6
Continuous
 62
     3
370
    25
100
AcDbLine
 10
-127.5
 20
-37.375
 30
0.0
 11
-124.375
 21
-37.375
 31
0.0
  0
LINE
  5
548
330
1F
100
AcDbEntity
  8
16
  6
Continuous
 62
     3
370
    25
100
AcDbLine
 10
-127.5
 20
-38.125
 30
0.0
 11
-124.375
 21
-37.375
 31
0.0
  0
LINE
  5
549
330
1F
100
AcDbEntity
  8
16
  6
Continuous
 62
     3
370
    25
100
AcDbLine
 10
-127.5
 20
-38.125
 30
0.0
 11
-124.375
 21
-38.125
 31
0.0
  0
LINE
  5
54A
330
1F
100
AcDbEntity
  8
16
  6
Continuous
 62
     3
370
    25
100
AcDbLine
 10
-123.75
 20
-37.375
 30
0.0
 11
-120.625
 21
-37.375
 31
0.0
  0
LINE
  5
54B
330
1F
100
AcDbEntity
  8
16
  6
Continuous
 62
     3
370
    25
100
AcDbLine
 10
-123.75
 20
-38.125
 30
0.0
 11
-120.625
 21
-37.375
 31
0.0
  0
LINE
  5
54C
330
1F
100
AcDbEntity
  8
16
  6
Continuous
 62
     3
370
    25
100
AcDbLine
 10
-123.75
 20
-38.125
 30
0.0
 11
-120.625
 21
-38.125
 31
0.0
  0
LINE
  5
54D
330
1F
100
AcDbEntity
  8
16
  6
Continuous
 62
     3
370
    25
100
AcDbLine
 10
-120.0
 20
-37.375
 30
0.0
 11
-116.875
 21
-37.375
 31
0.0
  0
LINE
  5
54E
330
1F
100
AcDbEntity
  8
16
  6
Continuous
 62
     3
370
    25
100
AcDbLine
 10
-120.0
 20
-38.125
 30
0.0
 11
-116.875
 21
-37.375
 31
0.0
  0
LINE
  5
54F
330
1F
100
AcDbEntity
  8
16
  6
Continuous
 62
     3
370
    25
100
AcDbLine
 10
-120.0
 20
-38.125
 30
0.0
 11
-116.875
 21
-38.125
 31
0.0
  0
LINE
  5
550
330
1F
100
AcDbEntity
  8
16
  6
Continuous
 62
     3
370
    25
100
AcDbLine
 10
-116.25
 20
-37.375
 30
0.0
 11
-113.125
 21
-37.375
 31
0.0
  0
LINE
  5
551
330
1F
100
AcDbEntity
  8
16
  6
Continuous
 62
     3
370
    25
100
AcDbLine
 10
-116.25
 20
-38.125
 30
0.0
 11
-113.125
 21
-37.375
 31
0.0
  0
LINE
  5
552
330
1F
100
AcDbEntity
  8
16
  6
Continuous
 62
     3
370
    25
100
AcDbLine
 10
-116.25
 20
-38.125
 30
0.0
 11
-113.125
 21
-38.125
 31
0.0
  0
LINE
  5
553
330
1F
100
AcDbEntity
  8
16
  6
Continuous
 62
     3
370
    25
100
AcDbLine
 10
-112.5
 20
-37.375
 30
0.0
 11
-109.375
 21
-37.375
 31
0.0
  0
LINE
  5
554
330
1F
100
AcDbEntity
  8
16
  6
Continuous
 62
     3
370
    25
100
AcDbLine
 10
-112.5
 20
-38.125
 30
0.0
 11
-109.375
 21
-37.375
 31
0.0
  0
LINE
  5
555
330
1F
100
AcDbEntity
  8
16
  6
Continuous
 62
     3
370
    25
100
AcDbLine
 10
-112.5
 20
-38.125
 30
0.0
 11
-109.375
 21
-38.125
 31
0.0
  0
LINE
  5
556
330
1F
100
AcDbEntity
  8
16
  6
Continuous
 62
     3
370
    25
100
AcDbLine
 10
-108.75
 20
-37.375
 30
0.0
 11
-105.625
 21
-37.375
 31
0.0
  0
LINE
  5
557
330
1F
100
AcDbEntity
  8
16
  6
Continuous
 62
     3
370
    25
100
AcDbLine
 10
-108.75
 20
-38.125
 30
0.0
 11
-105.625
 21
-37.375
 31
0.0
  0
LINE
  5
558
330
1F
100
AcDbEntity
  8
16
  6
Continuous
 62
     3
370
    25
100
AcDbLine
 10
-108.75
 20
-38.125
 30
0.0
 11
-105.625
 21
-38.125
 31
0.0
  0
LINE
  5
559
330
1F
100
AcDbEntity
  8
16
  6
Continuous
 62
     3
370
    25
100
AcDbLine
 10
-105.0
 20
-37.375
 30
0.0
 11
-101.875
 21
-37.375
 31
0.0
  0
LINE
  5
55A
330
1F
100
AcDbEntity
  8
16
  6
Continuous
 62
     3
370
    25
100
AcDbLine
 10
-105.0
 20
-38.125
 30
0.0
 11
-101.875
 21
-37.375
 31
0.0
  0
LINE
  5
55B
330
1F
100
AcDbEntity
  8
16
  6
Continuous
 62
     3
370
    25
100
AcDbLine
 10
-105.0
 20
-38.125
 30
0.0
 11
-101.875
 21
-38.125
 31
0.0
  0
LINE
  5
55C
330
1F
100
AcDbEntity
  8
16
  6
Continuous
 62
     3
370
    25
100
AcDbLine
 10
-101.25
 20
-37.375
 30
0.0
 11
-98.125
 21
-37.375
 31
0.0
  0
LINE
  5
55D
330
1F
100
AcDbEntity
  8
16
  6
Continuous
 62
     3
370
    25
100
AcDbLine
 10
-101.25
 20
-38.125
 30
0.0
 11
-98.125
 21
-37.375
 31
0.0
  0
LINE
  5
55E
330
1F
100
AcDbEntity
  8
16
  6
Continuous
 62
     3
370
    25
100
AcDbLine
 10
-101.25
 20
-38.125
 30
0.0
 11
-98.125
 21
-38.125
 31
0.0
  0
LINE
  5
55F
330
1F
100
AcDbEntity
  8
16
  6
Continuous
 62
     3
370
    25
100
AcDbLine
 10
-97.5
 20
-37.375
 30
0.0
 11
-94.375
 21
-37.375
 31
0.0
  0
LINE
  5
560
330
1F
100
AcDbEntity
  8
16
  6
Continuous
 62
     3
370
    25
100
AcDbLine
 10
-97.5
 20
-38.125
 30
0.0
 11
-94.375
 21
-37.375
 31
0.0
  0
LINE
  5
561
330
1F
100
AcDbEntity
  8
16
  6
Continuous
 62
     3
370
    25
100
AcDbLine
 10
-97.5
 20
-38.125
 30
0.0
 11
-94.375
 21
-38.125
 31
0.0
  0
LINE
  5
562
330
1F
100
AcDbEntity
  8
16
  6
Continuous
 62
     3
370
    25
100
AcDbLine
 10
-93.75
 20
-37.375
 30
0.0
 11
-90.625
 21
-37.375
 31
0.0
  0
LINE
  5
563
330
1F
100
AcDbEntity
  8
16
  6
Continuous
 62
     3
370
    25
100
AcDbLine
 10
-93.75
 20
-38.125
 30
0.0
 11
-90.625
 21
-37.375
 31
0.0
  0
LINE
  5
564
330
1F
100
AcDbEntity
  8
16
  6
Continuous
 62
     3
370
    25
100
AcDbLine
 10
-93.75
 20
-38.125
 30
0.0
 11
-90.625
 21
-38.125
 31
0.0
  0
LINE
  5
565
330
1F
100
AcDbEntity
  8
16
  6
Continuous
 62
     3
370
    25
100
AcDbLine
 10
-90.0
 20
-37.375
 30
0.0
 11
-86.875
 21
-37.375
 31
0.0
  0
LINE
  5
566
330
1F
100
AcDbEntity
  8
16
  6
Continuous
 62
     3
370
    25
100
AcDbLine
 10
-90.0
 20
-38.125
 30
0.0
 11
-86.875
 21
-37.375
 31
0.0
  0
LINE
  5
567
330
1F
100
AcDbEntity
  8
16
  6
Continuous
 62
     3
370
    25
100
AcDbLine
 10
-90.0
 20
-38.125
 30
0.0
 11
-86.875
 21
-38.125
 31
0.0
  0
LINE
  5
568
330
1F
100
AcDbEntity
  8
16
  6
Continuous
 62
     3
370
    25
100
AcDbLine
 10
-86.25
 20
-37.375
 30
0.0
 11
-83.125
 21
-37.375
 31
0.0
  0
LINE
  5
569
330
1F
100
AcDbEntity
  8
16
  6
Continuous
 62
     3
370
    25
100
AcDbLine
 10
-86.25
 20
-38.125
 30
0.0
 11
-83.125
 21
-37.375
 31
0.0
  0
LINE
  5
56A
330
1F
100
AcDbEntity
  8
16
  6
Continuous
 62
     3
370
    25
100
AcDbLine
 10
-86.25
 20
-38.125
 30
0.0
 11
-83.125
 21
-38.125
 31
0.0
  0
LINE
  5
56B
330
1F
100
AcDbEntity
  8
16
  6
Continuous
 62
     3
370
    25
100
AcDbLine
 10
-82.5
 20
-37.375
 30
0.0
 11
-79.375
 21
-37.375
 31
0.0
  0
LINE
  5
56C
330
1F
100
AcDbEntity
  8
16
  6
Continuous
 62
     3
370
    25
100
AcDbLine
 10
-82.5
 20
-38.125
 30
0.0
 11
-79.375
 21
-37.375
 31
0.0
  0
LINE
  5
56D
330
1F
100
AcDbEntity
  8
16
  6
Continuous
 62
     3
370
    25
100
AcDbLine
 10
-82.5
 20
-38.125
 30
0.0
 11
-79.375
 21
-38.125
 31
0.0
  0
LINE
  5
56E
330
1F
100
AcDbEntity
  8
16
  6
Continuous
 62
     3
370
    25
100
AcDbLine
 10
-78.75
 20
-37.375
 30
0.0
 11
-75.625
 21
-37.375
 31
0.0
  0
LINE
  5
56F
330
1F
100
AcDbEntity
  8
16
  6
Continuous
 62
     3
370
    25
100
AcDbLine
 10
-78.75
 20
-38.125
 30
0.0
 11
-75.625
 21
-37.375
 31
0.0
  0
LINE
  5
570
330
1F
100
AcDbEntity
  8
16
  6
Continuous
 62
     3
370
    25
100
AcDbLine
 10
-78.75
 20
-38.125
 30
0.0
 11
-75.625
 21
-38.125
 31
0.0
  0
LINE
  5
571
330
1F
100
AcDbEntity
  8
16
  6
Continuous
 62
     3
370
    25
100
AcDbLine
 10
-75.0
 20
-37.375
 30
0.0
 11
-71.875
 21
-37.375
 31
0.0
  0
LINE
  5
572
330
1F
100
AcDbEntity
  8
16
  6
Continuous
 62
     3
370
    25
100
AcDbLine
 10
-75.0
 20
-38.125
 30
0.0
 11
-71.875
 21
-37.375
 31
0.0
  0
LINE
  5
573
330
1F
100
AcDbEntity
  8
16
  6
Continuous
 62
     3
370
    25
100
AcDbLine
 10
-75.0
 20
-38.125
 30
0.0
 11
-71.875
 21
-38.125
 31
0.0
  0
LINE
  5
574
330
1F
100
AcDbEntity
  8
16
  6
Continuous
 62
     3
370
    25
100
AcDbLine
 10
-71.25
 20
-37.375
 30
0.0
 11
-68.125
 21
-37.375
 31
0.0
  0
LINE
  5
575
330
1F
100
AcDbEntity
  8
16
  6
Continuous
 62
     3
370
    25
100
AcDbLine
 10
-71.25
 20
-38.125
 30
0.0
 11
-68.125
 21
-37.375
 31
0.0
  0
LINE
  5
576
330
1F
100
AcDbEntity
  8
16
  6
Continuous
 62
     3
370
    25
100
AcDbLine
 10
-71.25
 20
-38.125
 30
0.0
 11
-68.125
 21
-38.125
 31
0.0
  0
LINE
  5
577
330
1F
100
AcDbEntity
  8
16
  6
Continuous
 62
     3
370
    25
100
AcDbLine
 10
-67.5
 20
-37.375
 30
0.0
 11
-64.375
 21
-37.375
 31
0.0
  0
LINE
  5
578
330
1F
100
AcDbEntity
  8
16
  6
Continuous
 62
     3
370
    25
100
AcDbLine
 10
-67.5
 20
-38.125
 30
0.0
 11
-64.375
 21
-37.375
 31
0.0
  0
LINE
  5
579
330
1F
100
AcDbEntity
  8
16
  6
Continuous
 62
     3
370
    25
100
AcDbLine
 10
-67.5
 20
-38.125
 30
0.0
 11
-64.375
 21
-38.125
 31
0.0
  0
LINE
  5
57A
330
1F
100
AcDbEntity
  8
16
  6
Continuous
 62
     3
370
    25
100
AcDbLine
 10
-63.75
 20
-37.375
 30
0.0
 11
-60.625
 21
-37.375
 31
0.0
  0
LINE
  5
57B
330
1F
100
AcDbEntity
  8
16
  6
Continuous
 62
     3
370
    25
100
AcDbLine
 10
-63.75
 20
-38.125
 30
0.0
 11
-60.625
 21
-37.375
 31
0.0
  0
LINE
  5
57C
330
1F
100
AcDbEntity
  8
16
  6
Continuous
 62
     3
370
    25
100
AcDbLine
 10
-63.75
 20
-38.125
 30
0.0
 11
-60.625
 21
-38.125
 31
0.0
  0
LINE
  5
57D
330
1F
100
AcDbEntity
  8
16
  6
Continuous
 62
     3
370
    25
100
AcDbLine
 10
-60.0
 20
-37.375
 30
0.0
 11
-56.875
 21
-37.375
 31
0.0
  0
LINE
  5
57E
330
1F
100
AcDbEntity
  8
16
  6
Continuous
 62
     3
370
    25
100
AcDbLine
 10
-60.0
 20
-38.125
 30
0.0
 11
-56.875
 21
-37.375
 31
0.0
  0
LINE
  5
57F
330
1F
100
AcDbEntity
  8
16
  6
Continuous
 62
     3
370
    25
100
AcDbLine
 10
-60.0
 20
-38.125
 30
0.0
 11
-56.875
 21
-38.125
 31
0.0
  0
LINE
  5
580
330
1F
100
AcDbEntity
  8
16
  6
Continuous
 62
     3
370
    25
100
AcDbLine
 10
-56.25
 20
-37.375
 30
0.0
 11
-53.125
 21
-37.375
 31
0.0
  0
LINE
  5
581
330
1F
100
AcDbEntity
  8
16
  6
Continuous
 62
     3
370
    25
100
AcDbLine
 10
-56.25
 20
-38.125
 30
0.0
 11
-53.125
 21
-37.375
 31
0.0
  0
LINE
  5
582
330
1F
100
AcDbEntity
  8
16
  6
Continuous
 62
     3
370
    25
100
AcDbLine
 10
-56.25
 20
-38.125
 30
0.0
 11
-53.125
 21
-38.125
 31
0.0
  0
LINE
  5
583
330
1F
100
AcDbEntity
  8
16
  6
Continuous
 62
     3
370
    25
100
AcDbLine
 10
-52.5
 20
-37.375
 30
0.0
 11
-49.375
 21
-37.375
 31
0.0
  0
LINE
  5
584
330
1F
100
AcDbEntity
  8
16
  6
Continuous
 62
     3
370
    25
100
AcDbLine
 10
-52.5
 20
-38.125
 30
0.0
 11
-49.375
 21
-37.375
 31
0.0
  0
LINE
  5
585
330
1F
100
AcDbEntity
  8
16
  6
Continuous
 62
     3
370
    25
100
AcDbLine
 10
-52.5
 20
-38.125
 30
0.0
 11
-49.375
 21
-38.125
 31
0.0
  0
LINE
  5
586
330
1F
100
AcDbEntity
  8
16
  6
Continuous
 62
     3
370
    25
100
AcDbLine
 10
-48.75
 20
-37.375
 30
0.0
 11
-45.625
 21
-37.375
 31
0.0
  0
LINE
  5
587
330
1F
100
AcDbEntity
  8
16
  6
Continuous
 62
     3
370
    25
100
AcDbLine
 10
-48.75
 20
-38.125
 30
0.0
 11
-45.625
 21
-37.375
 31
0.0
  0
LINE
  5
588
330
1F
100
AcDbEntity
  8
16
  6
Continuous
 62
     3
370
    25
100
AcDbLine
 10
-48.75
 20
-38.125
 30
0.0
 11
-45.625
 21
-38.125
 31
0.0
  0
LINE
  5
589
330
1F
100
AcDbEntity
  8
16
  6
Continuous
 62
     3
370
    25
100
AcDbLine
 10
-45.0
 20
-37.375
 30
0.0
 11
-41.875
 21
-37.375
 31
0.0
  0
LINE
  5
58A
330
1F
100
AcDbEntity
  8
16
  6
Continuous
 62
     3
370
    25
100
AcDbLine
 10
-45.0
 20
-38.125
 30
0.0
 11
-41.875
 21
-37.375
 31
0.0
  0
LINE
  5
58B
330
1F
100
AcDbEntity
  8
16
  6
Continuous
 62
     3
370
    25
100
AcDbLine
 10
-45.0
 20
-38.125
 30
0.0
 11
-41.875
 21
-38.125
 31
0.0
  0
LINE
  5
58C
330
1F
100
AcDbEntity
  8
16
  6
Continuous
 62
     3
370
    25
100
AcDbLine
 10
-41.25
 20
-37.375
 30
0.0
 11
-38.125
 21
-37.375
 31
0.0
  0
LINE
  5
58D
330
1F
100
AcDbEntity
  8
16
  6
Continuous
 62
     3
370
    25
100
AcDbLine
 10
-41.25
 20
-38.125
 30
0.0
 11
-38.125
 21
-37.375
 31
0.0
  0
LINE
  5
58E
330
1F
100
AcDbEntity
  8
16
  6
Continuous
 62
     3
370
    25
100
AcDbLine
 10
-41.25
 20
-38.125
 30
0.0
 11
-38.125
 21
-38.125
 31
0.0
  0
LINE
  5
58F
330
1F
100
AcDbEntity
  8
16
  6
Continuous
 62
     3
370
    25
100
AcDbLine
 10
-37.5
 20
-37.375
 30
0.0
 11
-34.375
 21
-37.375
 31
0.0
  0
LINE
  5
590
330
1F
100
AcDbEntity
  8
16
  6
Continuous
 62
     3
370
    25
100
AcDbLine
 10
-37.5
 20
-38.125
 30
0.0
 11
-34.375
 21
-37.375
 31
0.0
  0
LINE
  5
591
330
1F
100
AcDbEntity
  8
16
  6
Continuous
 62
     3
370
    25
100
AcDbLine
 10
-37.5
 20
-38.125
 30
0.0
 11
-34.375
 21
-38.125
 31
0.0
  0
LINE
  5
592
330
1F
100
AcDbEntity
  8
16
  6
Continuous
 62
     3
370
    25
100
AcDbLine
 10
-33.75
 20
-37.375
 30
0.0
 11
-30.625
 21
-37.375
 31
0.0
  0
LINE
  5
593
330
1F
100
AcDbEntity
  8
16
  6
Continuous
 62
     3
370
    25
100
AcDbLine
 10
-33.75
 20
-38.125
 30
0.0
 11
-30.625
 21
-37.375
 31
0.0
  0
LINE
  5
594
330
1F
100
AcDbEntity
  8
16
  6
Continuous
 62
     3
370
    25
100
AcDbLine
 10
-33.75
 20
-38.125
 30
0.0
 11
-30.625
 21
-38.125
 31
0.0
  0
LINE
  5
595
330
1F
100
AcDbEntity
  8
16
  6
Continuous
 62
     3
370
    25
100
AcDbLine
 10
17.5
 20
23.875
 30
0.0
 11
22.5
 21
23.875
 31
0.0
  0
ARC
  5
596
330
1F
100
AcDbEntity
  8
16
  6
Continuous
 62
     3
370
    25
100
AcDbCircle
 10
21.875
 20
23.875
 30
0.0
 40
0.625
100
AcDbArc
 50
0.0
 51
90.0000000000002
  0
LINE
  5
597
330
1F
100
AcDbEntity
  8
16
  6
Continuous
 62
     3
370
    25
100
AcDbLine
 10
21.87500020424681
 20
24.49999999999997
 30
0.0
 11
18.75000020424681
 21
24.49999999999997
 31
0.0
  0
ARC
  5
598
330
1F
100
AcDbEntity
  8
16
  6
Continuous
 62
     3
370
    25
100
AcDbCircle
 10
18.75
 20
25.12499999999994
 30
0.0
 40
0.625
100
AcDbArc
 50
180.0000000000004
 51
270.0000000000006
  0
LINE
  5
599
330
1F
100
AcDbEntity
  8
16
  6
Continuous
 62
     3
370
    25
100
AcDbLine
 10
18.12500000000013
 20
25.12499959150632
 30
0.0
 11
18.12500000000013
 21
28.24999959150632
 31
0.0
  0
ARC
  5
59A
330
1F
100
AcDbEntity
  8
16
  6
Continuous
 62
     3
370
    25
100
AcDbCircle
 10
17.50000000000013
 20
28.24999959150632
 30
0.0
 40
0.625
100
AcDbArc
 50
0.0
 51
90.0000000000002
  0
LINE
  5
59B
330
1F
100
AcDbEntity
  8
16
  6
Continuous
 62
     3
370
    25
100
AcDbLine
 10
17.50000020424694
 20
28.87499959150628
 30
0.0
 11
17.50000020424694
 21
23.87499959150628
 31
0.0
  0
LINE
  5
59C
330
1F
100
AcDbEntity
  8
16
  6
Continuous
 62
     3
370
    25
100
AcDbLine
 10
17.5
 20
7.625
 30
0.0
 11
22.5
 21
7.625
 31
0.0
  0
ARC
  5
59D
330
1F
100
AcDbEntity
  8
16
  6
Continuous
 62
     3
370
    25
100
AcDbCircle
 10
21.875
 20
7.625
 30
0.0
 40
0.625
100
AcDbArc
 50
270.0000000000006
 51
0.0000000000008142
  0
LINE
  5
59E
330
1F
100
AcDbEntity
  8
16
  6
Continuous
 62
     3
370
    25
100
AcDbLine
 10
21.87500020424681
 20
7.000000000000032
 30
0.0
 11
18.75000020424681
 21
7.000000000000032
 31
0.0
  0
ARC
  5
59F
330
1F
100
AcDbEntity
  8
16
  6
Continuous
 62
     3
370
    25
100
AcDbCircle
 10
18.75
 20
6.375000000000064
 30
0.0
 40
0.625
100
AcDbArc
 50
90.0000000000002
 51
180.0000000000004
  0
LINE
  5
5A0
330
1F
100
AcDbEntity
  8
16
  6
Continuous
 62
     3
370
    25
100
AcDbLine
 10
18.12500000000013
 20
6.375000408493683
 30
0.0
 11
18.12500000000013
 21
3.250000408493683
 31
0.0
  0
ARC
  5
5A1
330
1F
100
AcDbEntity
  8
16
  6
Continuous
 62
     3
370
    25
100
AcDbCircle
 10
17.50000000000013
 20
3.250000408493683
 30
0.0
 40
0.625
100
AcDbArc
 50
270.0000000000006
 51
0.0000000000008142
  0
LINE
  5
5A2
330
1F
100
AcDbEntity
  8
16
  6
Continuous
 62
     3
370
    25
100
AcDbLine
 10
17.50000020424694
 20
2.625000408493715
 30
0.0
 11
17.50000020424694
 21
7.625000408493715
 31
0.0
  0
LINE
  5
5A3
330
1F
100
AcDbEntity
  8
16
  6
Continuous
 62
     3
370
    25
100
AcDbLine
 10
17.5
 20
23.875
 30
0.0
 11
17.5
 21
7.625
 31
0.0
  0
LINE
  5
5A4
330
1F
100
AcDbEntity
  8
16
  6
Continuous
 62
     3
370
    25
100
AcDbLine
 10
17.5
 20
7.625
 30
0.0
 11
17.41250000149012
 21
7.625
 31
0.0
  0
LINE
  5
5A5
330
1F
100
AcDbEntity
  8
16
  6
Continuous
 62
     3
370
    25
100
AcDbLine
 10
17.41250000149012
 20
7.625
 30
0.0
 11
17.41250000149012
 21
23.875
 31
0.0
  0
LINE
  5
5A6
330
1F
100
AcDbEntity
  8
16
  6
Continuous
 62
     3
370
    25
100
AcDbLine
 10
17.41250000149012
 20
23.875
 30
0.0
 11
17.5
 21
23.875
 31
0.0
  0
LINE
  5
5A7
330
1F
100
AcDbEntity
  8
16
  6
Continuous
 62
     3
370
    25
100
AcDbLine
 10
17.5
 20
7.625
 30
0.0
 11
20.625
 21
7.625
 31
0.0
  0
LINE
  5
5A8
330
1F
100
AcDbEntity
  8
16
  6
Continuous
 62
     3
370
    25
100
AcDbLine
 10
20.625
 20
7.625
 30
0.0
 11
20.625
 21
23.875
 31
0.0
  0
LINE
  5
5A9
330
1F
100
AcDbEntity
  8
16
  6
Continuous
 62
     3
370
    25
100
AcDbLine
 10
20.625
 20
23.875
 30
0.0
 11
17.5
 21
23.875
 31
0.0
  0
LINE
  5
5AA
330
1F
100
AcDbEntity
  8
16
  6
Continuous
 62
     3
370
    25
100
AcDbLine
 10
18.5
 20
23.875
 30
0.0
 11
18.5
 21
7.625
 31
0.0
  0
LINE
  5
5AB
330
1F
100
AcDbEntity
  8
16
  6
Continuous
 62
     3
370
    25
100
AcDbLine
 10
19.625
 20
7.625
 30
0.0
 11
19.625
 21
23.875
 31
0.0
  0
LINE
  5
5AC
330
1F
100
AcDbEntity
  8
16
  6
Continuous
 62
     3
370
    25
100
AcDbLine
 10
18.5
 20
18.875
 30
0.0
 11
18.24697102863905
 21
19.309747410588
 31
0.0
  0
LINE
  5
5AD
330
1F
100
AcDbEntity
  8
16
  6
Continuous
 62
     3
370
    25
100
AcDbLine
 10
18.24697102863905
 20
19.309747410588
 30
0.0
 11
17.74698330647585
 21
19.30625694521724
 31
0.0
  0
LINE
  5
5AE
330
1F
100
AcDbEntity
  8
16
  6
Continuous
 62
     3
370
    25
100
AcDbLine
 10
17.74698330647585
 20
19.30625694521724
 30
0.0
 11
17.5000121823609
 21
18.87150969736415
 31
0.0
  0
LINE
  5
5AF
330
1F
100
AcDbEntity
  8
16
  6
Continuous
 62
     3
370
    25
100
AcDbLine
 10
17.5000121823609
 20
18.87150969736415
 30
0.0
 11
17.75302868721453
 21
18.44025275082984
 31
0.0
  0
LINE
  5
5B0
330
1F
100
AcDbEntity
  8
16
  6
Continuous
 62
     3
370
    25
100
AcDbLine
 10
17.75302868721453
 20
18.44025275082984
 30
0.0
 11
18.25301641165895
 21
18.44374288941372
 31
0.0
  0
LINE
  5
5B1
330
1F
100
AcDbEntity
  8
16
  6
Continuous
 62
     3
370
    25
100
AcDbLine
 10
18.25301641165895
 20
18.44374288941372
 30
0.0
 11
18.49998781992022
 21
18.87848997584892
 31
0.0
  0
LINE
  5
5B2
330
1F
100
AcDbEntity
  8
16
  6
Continuous
 62
     3
370
    25
100
AcDbLine
 10
18.5
 20
12.625
 30
0.0
 11
18.24697102863905
 21
13.059747410588
 31
0.0
  0
LINE
  5
5B3
330
1F
100
AcDbEntity
  8
16
  6
Continuous
 62
     3
370
    25
100
AcDbLine
 10
18.24697102863905
 20
13.059747410588
 30
0.0
 11
17.74698330647585
 21
13.05625694521724
 31
0.0
  0
LINE
  5
5B4
330
1F
100
AcDbEntity
  8
16
  6
Continuous
 62
     3
370
    25
100
AcDbLine
 10
17.74698330647585
 20
13.05625694521724
 30
0.0
 11
17.5000121823609
 21
12.62150969736415
 31
0.0
  0
LINE
  5
5B5
330
1F
100
AcDbEntity
  8
16
  6
Continuous
 62
     3
370
    25
100
AcDbLine
 10
17.5000121823609
 20
12.62150969736415
 30
0.0
 11
17.75302868721453
 21
12.19025275082984
 31
0.0
  0
LINE
  5
5B6
330
1F
100
AcDbEntity
  8
16
  6
Continuous
 62
     3
370
    25
100
AcDbLine
 10
17.75302868721453
 20
12.19025275082984
 30
0.0
 11
18.25301641165895
 21
12.19374288941372
 31
0.0
  0
LINE
  5
5B7
330
1F
100
AcDbEntity
  8
16
  6
Continuous
 62
     3
370
    25
100
AcDbLine
 10
18.25301641165895
 20
12.19374288941372
 30
0.0
 11
18.49998781992022
 21
12.62848997584892
 31
0.0
  0
LINE
  5
5B8
330
1F
100
AcDbEntity
  8
16
  6
DASHED2
 62
     3
370
    25
100
AcDbLine
 10
-154.375
 20
24.5
 30
0.0
 11
-30.0
 21
24.5
 31
0.0
  0
LINE
  5
5B9
330
1F
100
AcDbEntity
  8
16
  6
DASHED2
 62
     3
370
    25
100
AcDbLine
 10
-154.375
 20
7.0
 30
0.0
 11
-30.0
 21
7.0
 31
0.0
  0
LINE
  5
5BA
330
1F
100
AcDbEntity
  8
22
  6
Continuous
 62
     4
370
    25
100
AcDbLine
 10
-146.25
 20
16.125
 30
0.0
 11
-145.9499999955296
 21
17.58500005990267
 31
0.0
  0
LINE
  5
5BB
330
1F
100
AcDbEntity
  8
22
  6
Continuous
 62
     4
370
    25
100
AcDbLine
 10
-146.25
 20
16.125
 30
0.0
 11
-145.2499999850988
 21
17.22500001639128
 31
0.0
  0
LINE
  5
5BC
330
1F
100
AcDbEntity
  8
22
  6
Continuous
 62
     4
370
    25
100
AcDbLine
 10
-146.25
 20
16.125
 30
0.0
 11
-127.5624997215346
 21
53.5000005569309
 31
0.0
  0
LINE
  5
5BD
330
1F
100
AcDbEntity
  8
22
  6
Continuous
 62
     4
370
    25
100
AcDbLine
 10
-127.5624997215346
 20
53.5000005569309
 30
0.0
 11
-81.56249903608114
 21
53.5000005569309
 31
0.0
  0
LINE
  5
5BE
330
1F
100
AcDbEntity
  8
22
  6
Continuous
 62
     4
370
    25
100
AcDbLine
 10
-137.1875
 20
19.25
 30
0.0
 11
-136.8874999955297
 21
20.71000005990267
 31
0.0
  0
LINE
  5
5BF
330
1F
100
AcDbEntity
  8
22
  6
Continuous
 62
     4
370
    25
100
AcDbLine
 10
-137.1875
 20
19.25
 30
0.0
 11
-136.1874999850988
 21
20.35000001639128
 31
0.0
  0
LINE
  5
5C0
330
1F
100
AcDbEntity
  8
22
  6
Continuous
 62
     4
370
    25
100
AcDbLine
 10
-137.1875
 20
19.25
 30
0.0
 11
-122.3749997792765
 21
48.8750004414469
 31
0.0
  0
LINE
  5
5C1
330
1F
100
AcDbEntity
  8
22
  6
Continuous
 62
     4
370
    25
100
AcDbLine
 10
-122.3749997792765
 20
48.8750004414469
 30
0.0
 11
-95.87499938439578
 21
48.8750004414469
 31
0.0
  0
LINE
  5
5C2
330
1F
100
AcDbEntity
  8
22
  6
Continuous
 62
     4
370
    25
100
AcDbLine
 10
-101.3749994663522
 20
50.77500046975911
 30
0.0
 11
-101.8749444545151
 21
51.65149755961045
 31
0.0
  0
LINE
  5
5C3
330
1F
100
AcDbEntity
  8
22
  6
Continuous
 62
     4
370
    25
100
AcDbLine
 10
-101.8749444545151
 20
51.65149755961045
 30
0.0
 11
-102.8749442807411
 21
51.65149788640529
 31
0.0
  0
LINE
  5
5C4
330
1F
100
AcDbEntity
  8
22
  6
Continuous
 62
     4
370
    25
100
AcDbLine
 10
-102.8749442807411
 20
51.65149788640529
 30
0.0
 11
-103.3749446655418
 21
50.78547290544268
 31
0.0
  0
LINE
  5
5C5
330
1F
100
AcDbEntity
  8
22
  6
Continuous
 62
     4
370
    25
100
AcDbLine
 10
-103.3749446655418
 20
50.78547290544268
 30
0.0
 11
-102.8749454127917
 21
49.91944727089052
 31
0.0
  0
LINE
  5
5C6
330
1F
100
AcDbEntity
  8
22
  6
Continuous
 62
     4
370
    25
100
AcDbLine
 10
-102.8749454127917
 20
49.91944727089052
 30
0.0
 11
-101.8749455865662
 21
49.919446290506
 31
0.0
  0
LINE
  5
5C7
330
1F
100
AcDbEntity
  8
22
  6
Continuous
 62
     4
370
    25
100
AcDbLine
 10
-101.8749455865662
 20
49.919446290506
 30
0.0
 11
-101.3749446357405
 21
50.78547094467327
 31
0.0
  0
LINE
  5
5C8
330
1F
100
AcDbEntity
  8
22
  6
Continuous
 62
     4
370
    25
100
AcDbLine
 10
-125.9375
 20
28.875
 30
0.0
 11
-125.6374999955296
 21
30.33500005990267
 31
0.0
  0
LINE
  5
5C9
330
1F
100
AcDbEntity
  8
22
  6
Continuous
 62
     4
370
    25
100
AcDbLine
 10
-125.9375
 20
28.875
 30
0.0
 11
-124.9374999850988
 21
29.97500001639128
 31
0.0
  0
LINE
  5
5CA
330
1F
100
AcDbEntity
  8
22
  6
Continuous
 62
     4
370
    25
100
AcDbLine
 10
-125.9375
 20
28.875
 30
0.0
 11
-118.4374998882413
 21
43.87500022351742
 31
0.0
  0
LINE
  5
5CB
330
1F
100
AcDbEntity
  8
22
  6
Continuous
 62
     4
370
    25
100
AcDbLine
 10
-118.4374998882413
 20
43.87500022351742
 30
0.0
 11
-74.4374992325902
 21
43.87500022351742
 31
0.0
  0
LINE
  5
5CC
330
1F
100
AcDbEntity
  8
22
  6
Continuous
 62
     4
370
    25
100
AcDbLine
 10
-112.8125
 20
-36.875
 30
0.0
 11
-112.8125
 21
-31.87499992549419
 31
0.0
  0
LINE
  5
5CD
330
1F
100
AcDbEntity
  8
22
  6
Continuous
 62
     4
370
    25
100
AcDbLine
 10
-112.8125
 20
-32.87499994039535
 30
0.0
 11
-114.3125000223517
 21
-32.47499993443489
 31
0.0
  0
LINE
  5
5CE
330
1F
100
AcDbEntity
  8
22
  6
Continuous
 62
     4
370
    25
100
AcDbLine
 10
-114.3125000223517
 20
-33.27499994635582
 30
0.0
 11
-112.8125
 21
-32.87499994039535
 31
0.0
  0
LINE
  5
5CF
330
1F
100
AcDbEntity
  8
22
  6
Continuous
 62
     4
370
    25
100
AcDbLine
 10
-112.8125
 20
-32.87499994039535
 30
0.0
 11
-115.8125000447035
 21
-32.87499994039535
 31
0.0
  0
LINE
  5
5D0
330
1F
100
AcDbEntity
  8
22
  6
Continuous
 62
     4
370
    25
100
AcDbLine
 10
-112.8125
 20
-32.87499994039535
 30
0.0
 11
-109.0624999441206
 21
-32.87499994039535
 31
0.0
  0
LINE
  5
5D1
330
1F
100
AcDbEntity
  8
22
  6
Continuous
 62
     4
370
    25
100
AcDbLine
 10
-109.0624999441206
 20
-32.87499994039535
 30
0.0
 11
-107.5624999217689
 21
-32.47499993443489
 31
0.0
  0
LINE
  5
5D2
330
1F
100
AcDbEntity
  8
22
  6
Continuous
 62
     4
370
    25
100
AcDbLine
 10
-107.5624999217689
 20
-33.27499994635582
 30
0.0
 11
-109.0624999441206
 21
-32.87499994039535
 31
0.0
  0
LINE
  5
5D3
330
1F
100
AcDbEntity
  8
22
  6
Continuous
 62
     4
370
    25
100
AcDbLine
 10
-109.0624999441206
 20
-32.87499994039535
 30
0.0
 11
-102.0624998398125
 21
-32.87499994039535
 31
0.0
  0
LINE
  5
5D4
330
1F
100
AcDbEntity
  8
22
  6
Continuous
 62
     4
370
    25
100
AcDbLine
 10
-109.0624999441206
 20
-31.87499992549419
 30
0.0
 11
-109.0624999441206
 21
-36.875
 31
0.0
  0
LINE
  5
5D5
330
1F
100
AcDbEntity
  8
22
  6
Continuous
 62
     4
370
    25
100
AcDbLine
 10
-154.375
 20
-36.875
 30
0.0
 11
-154.375
 21
-24.87499982118607
 31
0.0
  0
LINE
  5
5D6
330
1F
100
AcDbEntity
  8
22
  6
Continuous
 62
     4
370
    25
100
AcDbLine
 10
-154.375
 20
-25.87499983608723
 30
0.0
 11
-152.8749999776483
 21
-25.47499983012676
 31
0.0
  0
LINE
  5
5D7
330
1F
100
AcDbEntity
  8
22
  6
Continuous
 62
     4
370
    25
100
AcDbLine
 10
-152.8749999776483
 20
-26.27499984204769
 30
0.0
 11
-154.375
 21
-25.87499983608723
 31
0.0
  0
LINE
  5
5D8
330
1F
100
AcDbEntity
  8
22
  6
Continuous
 62
     4
370
    25
100
AcDbLine
 10
-154.375
 20
-25.87499983608723
 30
0.0
 11
-29.99999814666808
 21
-25.87499983608723
 31
0.0
  0
LINE
  5
5D9
330
1F
100
AcDbEntity
  8
22
  6
Continuous
 62
     4
370
    25
100
AcDbLine
 10
-29.99999814666808
 20
-25.87499983608723
 30
0.0
 11
-31.49999816901982
 21
-25.47499983012676
 31
0.0
  0
LINE
  5
5DA
330
1F
100
AcDbEntity
  8
22
  6
Continuous
 62
     4
370
    25
100
AcDbLine
 10
-31.49999816901982
 20
-26.27499984204769
 30
0.0
 11
-29.99999814666808
 21
-25.87499983608723
 31
0.0
  0
LINE
  5
5DB
330
1F
100
AcDbEntity
  8
22
  6
Continuous
 62
     4
370
    25
100
AcDbLine
 10
-29.99999814666808
 20
-36.875
 30
0.0
 11
-29.99999814666808
 21
-24.87499982118607
 31
0.0
  0
LINE
  5
5DC
330
1F
100
AcDbEntity
  8
22
  6
Continuous
 62
     4
370
    25
100
AcDbLine
 10
16.69999694824219
 20
18.875
 30
0.0
 11
11.69999687373638
 21
18.875
 31
0.0
  0
LINE
  5
5DD
330
1F
100
AcDbEntity
  8
22
  6
Continuous
 62
     4
370
    25
100
AcDbLine
 10
12.69999688863754
 20
18.875
 30
0.0
 11
12.29999688267708
 21
20.37500002235174
 31
0.0
  0
LINE
  5
5DE
330
1F
100
AcDbEntity
  8
22
  6
Continuous
 62
     4
370
    25
100
AcDbLine
 10
13.09999689459801
 20
20.37500002235174
 30
0.0
 11
12.69999688863754
 21
18.875
 31
0.0
  0
LINE
  5
5DF
330
1F
100
AcDbEntity
  8
22
  6
Continuous
 62
     4
370
    25
100
AcDbLine
 10
12.69999688863754
 20
18.875
 30
0.0
 11
12.69999688863754
 21
25.87500010430813
 31
0.0
  0
LINE
  5
5E0
330
1F
100
AcDbEntity
  8
22
  6
Continuous
 62
     4
370
    25
100
AcDbLine
 10
12.69999688863754
 20
18.875
 30
0.0
 11
12.69999688863754
 21
12.62499990686774
 31
0.0
  0
LINE
  5
5E1
330
1F
100
AcDbEntity
  8
22
  6
Continuous
 62
     4
370
    25
100
AcDbLine
 10
12.69999688863754
 20
12.62499990686774
 30
0.0
 11
12.29999688267708
 21
11.124999884516
 31
0.0
  0
LINE
  5
5E2
330
1F
100
AcDbEntity
  8
22
  6
Continuous
 62
     4
370
    25
100
AcDbLine
 10
13.09999689459801
 20
11.124999884516
 30
0.0
 11
12.69999688863754
 21
12.62499990686774
 31
0.0
  0
LINE
  5
5E3
330
1F
100
AcDbEntity
  8
22
  6
Continuous
 62
     4
370
    25
100
AcDbLine
 10
12.69999688863754
 20
12.62499990686774
 30
0.0
 11
12.69999688863754
 21
9.624999862164259
 31
0.0
  0
LINE
  5
5E4
330
1F
100
AcDbEntity
  8
22
  6
Continuous
 62
     4
370
    25
100
AcDbLine
 10
11.69999687373638
 20
12.62499990686774
 30
0.0
 11
16.69999694824219
 21
12.62499990686774
 31
0.0
  0
LINE
  5
5E5
330
1F
100
AcDbEntity
  8
22
  6
Continuous
 62
     4
370
    25
100
AcDbLine
 10
4.699996769428253
 20
23.875
 30
0.0
 11
8.200002834200859
 21
23.875
 31
0.0
  0
LINE
  5
5E6
330
1F
100
AcDbEntity
  8
22
  6
Continuous
 62
     4
370
    25
100
AcDbLine
 10
13.70000291615725
 20
23.875
 30
0.0
 11
16.69999694824219
 21
23.875
 31
0.0
  0
LINE
  5
5E7
330
1F
100
AcDbEntity
  8
22
  6
Continuous
 62
     4
370
    25
100
AcDbLine
 10
5.29999677836895
 20
22.37499997764826
 30
0.0
 11
5.699996784329414
 21
23.875
 31
0.0
  0
LINE
  5
5E8
330
1F
100
AcDbEntity
  8
22
  6
Continuous
 62
     4
370
    25
100
AcDbLine
 10
6.099996790289879
 20
22.37499997764826
 30
0.0
 11
5.699996784329414
 21
23.875
 31
0.0
  0
LINE
  5
5E9
330
1F
100
AcDbEntity
  8
22
  6
Continuous
 62
     4
370
    25
100
AcDbLine
 10
5.699996784329414
 20
7.62499975785613
 30
0.0
 11
5.699996784329414
 21
23.875
 31
0.0
  0
LINE
  5
5EA
330
1F
100
AcDbEntity
  8
22
  6
Continuous
 62
     4
370
    25
100
AcDbLine
 10
5.699996784329414
 20
7.62499975785613
 30
0.0
 11
5.29999677836895
 21
9.124999780207872
 31
0.0
  0
LINE
  5
5EB
330
1F
100
AcDbEntity
  8
22
  6
Continuous
 62
     4
370
    25
100
AcDbLine
 10
5.699996784329414
 20
7.62499975785613
 30
0.0
 11
6.099996790289879
 21
9.124999780207872
 31
0.0
  0
LINE
  5
5EC
330
1F
100
AcDbEntity
  8
22
  6
Continuous
 62
     4
370
    25
100
AcDbLine
 10
4.699996769428253
 20
7.62499975785613
 30
0.0
 11
16.69999694824219
 21
7.62499975785613
 31
0.0
  0
LINE
  5
5ED
330
1F
100
AcDbEntity
  8
22
  6
Continuous
 62
     4
370
    25
100
AcDbLine
 10
-2.300003334879875
 20
28.875
 30
0.0
 11
16.69999694824219
 21
28.875
 31
0.0
  0
LINE
  5
5EE
330
1F
100
AcDbEntity
  8
22
  6
Continuous
 62
     4
370
    25
100
AcDbLine
 10
-1.700003325939178
 20
27.37499997764826
 30
0.0
 11
-1.300003319978714
 21
28.875
 31
0.0
  0
LINE
  5
5EF
330
1F
100
AcDbEntity
  8
22
  6
Continuous
 62
     4
370
    25
100
AcDbLine
 10
-0.9000033140182495
 20
27.37499997764826
 30
0.0
 11
-1.300003319978714
 21
28.875
 31
0.0
  0
LINE
  5
5F0
330
1F
100
AcDbEntity
  8
22
  6
Continuous
 62
     4
370
    25
100
AcDbLine
 10
-1.300003319978714
 20
2.624999608844519
 30
0.0
 11
-1.300003319978714
 21
28.875
 31
0.0
  0
LINE
  5
5F1
330
1F
100
AcDbEntity
  8
22
  6
Continuous
 62
     4
370
    25
100
AcDbLine
 10
-1.300003319978714
 20
2.624999608844519
 30
0.0
 11
-1.700003325939178
 21
4.12499963119626
 31
0.0
  0
LINE
  5
5F2
330
1F
100
AcDbEntity
  8
22
  6
Continuous
 62
     4
370
    25
100
AcDbLine
 10
-1.300003319978714
 20
2.624999608844519
 30
0.0
 11
-0.9000033140182495
 21
4.12499963119626
 31
0.0
  0
LINE
  5
5F3
330
1F
100
AcDbEntity
  8
22
  6
Continuous
 62
     4
370
    25
100
AcDbLine
 10
-2.300003334879875
 20
2.624999608844519
 30
0.0
 11
16.69999694824219
 21
2.624999608844519
 31
0.0
  0
LINE
  5
5F4
330
1F
100
AcDbEntity
  8
22
  6
Continuous
 62
     4
370
    25
100
AcDbLine
 10
23.0
 20
24.5
 30
0.0
 11
31.00000011920929
 21
24.5
 31
0.0
  0
LINE
  5
5F5
330
1F
100
AcDbEntity
  8
22
  6
Continuous
 62
     4
370
    25
100
AcDbLine
 10
29.60000009834766
 20
22.99999997764826
 30
0.0
 11
30.00000010430813
 21
24.5
 31
0.0
  0
LINE
  5
5F6
330
1F
100
AcDbEntity
  8
22
  6
Continuous
 62
     4
370
    25
100
AcDbLine
 10
30.40000011026859
 20
22.99999997764826
 30
0.0
 11
30.00000010430813
 21
24.5
 31
0.0
  0
LINE
  5
5F7
330
1F
100
AcDbEntity
  8
22
  6
Continuous
 62
     4
370
    25
100
AcDbLine
 10
30.00000010430813
 20
6.999999739229679
 30
0.0
 11
30.00000010430813
 21
24.5
 31
0.0
  0
LINE
  5
5F8
330
1F
100
AcDbEntity
  8
22
  6
Continuous
 62
     4
370
    25
100
AcDbLine
 10
30.00000010430813
 20
6.999999739229679
 30
0.0
 11
29.60000009834766
 21
8.499999761581421
 31
0.0
  0
LINE
  5
5F9
330
1F
100
AcDbEntity
  8
22
  6
Continuous
 62
     4
370
    25
100
AcDbLine
 10
30.00000010430813
 20
6.999999739229679
 30
0.0
 11
30.40000011026859
 21
8.499999761581421
 31
0.0
  0
LINE
  5
5FA
330
1F
100
AcDbEntity
  8
22
  6
Continuous
 62
     4
370
    25
100
AcDbLine
 10
23.0
 20
6.999999739229679
 30
0.0
 11
31.00000011920929
 21
6.999999739229679
 31
0.0
  0
LINE
  5
5FB
330
1F
100
AcDbEntity
  8
22
  6
Continuous
 62
     4
370
    25
100
AcDbLine
 10
18.125
 20
25.12499982491136
 30
0.0
 11
18.125
 21
36.875
 31
0.0
  0
LINE
  5
5FC
330
1F
100
AcDbEntity
  8
22
  6
Continuous
 62
     4
370
    25
100
AcDbLine
 10
18.125
 20
25.12499982491136
 30
0.0
 11
37.90000029467046
 21
25.12499982491136
 31
0.0
  0
LINE
  5
5FD
330
1F
100
AcDbEntity
  8
22
  6
Continuous
 62
     4
370
    25
100
AcDbLine
 10
18.125
 20
29.87499989569187
 30
0.0
 11
20.12500002980232
 21
31.87499992549419
 31
0.0
  0
LINE
  5
5FE
330
1F
100
AcDbEntity
  8
22
  6
Continuous
 62
     4
370
    25
100
AcDbLine
 10
18.125
 20
28.87499988079071
 30
0.0
 11
20.12500002980232
 21
30.87499991059303
 31
0.0
  0
LINE
  5
5FF
330
1F
100
AcDbEntity
  8
22
  6
Continuous
 62
     4
370
    25
100
AcDbLine
 10
26.5
 20
25.125
 30
0.0
 11
28.50000002980232
 21
27.12500002980232
 31
0.0
  0
LINE
  5
600
330
1F
100
AcDbEntity
  8
22
  6
Continuous
 62
     4
370
    25
100
AcDbLine
 10
25.49999998509884
 20
25.125
 30
0.0
 11
27.50000001490116
 21
27.12500002980232
 31
0.0
  0
LINE
  5
601
330
1F
100
AcDbEntity
  8
22
  6
Continuous
 62
     4
370
    25
100
AcDbLine
 10
36.49999389052391
 20
23.62499997764826
 30
0.0
 11
36.89999389648437
 21
25.125
 31
0.0
  0
LINE
  5
602
330
1F
100
AcDbEntity
  8
22
  6
Continuous
 62
     4
370
    25
100
AcDbLine
 10
37.29999390244484
 20
23.62499997764826
 30
0.0
 11
36.89999389648437
 21
25.125
 31
0.0
  0
LINE
  5
603
330
1F
100
AcDbEntity
  8
22
  6
Continuous
 62
     4
370
    25
100
AcDbLine
 10
36.89999389648437
 20
6.374999720603228
 30
0.0
 11
36.89999389648437
 21
25.125
 31
0.0
  0
LINE
  5
604
330
1F
100
AcDbEntity
  8
22
  6
Continuous
 62
     4
370
    25
100
AcDbLine
 10
36.89999389648437
 20
6.374999720603228
 30
0.0
 11
36.49999389052391
 21
7.874999742954969
 31
0.0
  0
LINE
  5
605
330
1F
100
AcDbEntity
  8
22
  6
Continuous
 62
     4
370
    25
100
AcDbLine
 10
36.89999389648437
 20
6.374999720603228
 30
0.0
 11
37.29999390244484
 21
7.874999742954969
 31
0.0
  0
LINE
  5
606
330
1F
100
AcDbEntity
  8
22
  6
Continuous
 62
     4
370
    25
100
AcDbLine
 10
18.12499360181391
 20
6.375
 30
0.0
 11
37.89999389648437
 21
6.375
 31
0.0
  0
LINE
  5
607
330
1F
100
AcDbEntity
  8
22
  6
Continuous
 62
     4
370
    25
100
AcDbLine
 10
18.12499360181391
 20
-5.375000175088644
 30
0.0
 11
18.12499360181391
 21
6.375
 31
0.0
  0
LINE
  5
608
330
1F
100
AcDbEntity
  8
22
  6
Continuous
 62
     4
370
    25
100
AcDbLine
 10
20.12499363161623
 20
1.624999929219484
 30
0.0
 11
18.12499360181391
 21
3.624999959021807
 31
0.0
  0
LINE
  5
609
330
1F
100
AcDbEntity
  8
22
  6
Continuous
 62
     4
370
    25
100
AcDbLine
 10
20.12499363161623
 20
2.624999944120646
 30
0.0
 11
18.12499360181391
 21
4.624999973922968
 31
0.0
  0
LINE
  5
60A
330
1F
100
AcDbEntity
  8
22
  6
Continuous
 62
     4
370
    25
100
AcDbLine
 10
29.8999939262867
 20
4.374999970197678
 30
0.0
 11
27.89999389648437
 21
6.375
 31
0.0
  0
LINE
  5
60B
330
1F
100
AcDbEntity
  8
22
  6
Continuous
 62
     4
370
    25
100
AcDbLine
 10
28.89999391138554
 20
4.374999970197678
 30
0.0
 11
26.89999388158321
 21
6.375
 31
0.0
  0
LINE
  5
60C
330
1F
100
AcDbEntity
  8
22
  6
Continuous
 62
     4
370
    25
100
AcDbLine
 10
17.5
 20
-12.80000333487987
 30
0.0
 11
17.5
 21
2.125001942738891
 31
0.0
  0
LINE
  5
60D
330
1F
100
AcDbEntity
  8
22
  6
Continuous
 62
     4
370
    25
100
AcDbLine
 10
17.5
 20
-11.80000331997871
 30
0.0
 11
15.99999997764826
 21
-11.40000331401825
 31
0.0
  0
LINE
  5
60E
330
1F
100
AcDbEntity
  8
22
  6
Continuous
 62
     4
370
    25
100
AcDbLine
 10
15.99999997764826
 20
-12.20000332593918
 30
0.0
 11
17.5
 21
-11.80000331997871
 31
0.0
  0
LINE
  5
60F
330
1F
100
AcDbEntity
  8
22
  6
Continuous
 62
     4
370
    25
100
AcDbLine
 10
10.49999989569187
 20
-11.80000331997871
 30
0.0
 11
17.5
 21
-11.80000331997871
 31
0.0
  0
LINE
  5
610
330
1F
100
AcDbEntity
  8
22
  6
Continuous
 62
     4
370
    25
100
AcDbLine
 10
17.5
 20
-11.80000331997871
 30
0.0
 11
20.62500004656613
 21
-11.80000331997871
 31
0.0
  0
LINE
  5
611
330
1F
100
AcDbEntity
  8
22
  6
Continuous
 62
     4
370
    25
100
AcDbLine
 10
20.62500004656613
 20
-11.80000331997871
 30
0.0
 11
22.12500006891787
 21
-11.40000331401825
 31
0.0
  0
LINE
  5
612
330
1F
100
AcDbEntity
  8
22
  6
Continuous
 62
     4
370
    25
100
AcDbLine
 10
22.12500006891787
 20
-12.20000332593918
 30
0.0
 11
20.62500004656613
 21
-11.80000331997871
 31
0.0
  0
LINE
  5
613
330
1F
100
AcDbEntity
  8
22
  6
Continuous
 62
     4
370
    25
100
AcDbLine
 10
20.62500004656613
 20
-11.80000331997871
 30
0.0
 11
23.62500009126961
 21
-11.80000331997871
 31
0.0
  0
LINE
  5
614
330
1F
100
AcDbEntity
  8
22
  6
Continuous
 62
     4
370
    25
100
AcDbLine
 10
20.62500004656613
 20
-12.80000333487987
 30
0.0
 11
20.62500004656613
 21
6.199996948242187
 31
0.0
  0
TEXT
  5
615
330
1F
100
AcDbEntity
  8
24
 62
     2
100
AcDbText
 10
93.90000411
 20
93.3500033
 30
0.0
 40
4.0
  1
◇　荷　重　計　算　◇
 41
0.833333335542929
  7
dcStyle0
 72
     5
 11
137.90000481
 21
93.3500033
 31
0.0
100
AcDbText
  0
TEXT
  5
616
330
1F
100
AcDbEntity
  8
24
 62
     2
100
AcDbText
 10
64.55000367
 20
83.35000314999999
 30
0.0
 40
3.3
  1
設計条件
 41
0.8583691004600379
  7
dcStyle0
 72
     5
 11
80.5500039
 21
83.35000314999999
 31
0.0
100
AcDbText
  0
TEXT
  5
617
330
1F
100
AcDbEntity
  8
24
 62
     2
100
AcDbText
 10
69.80000374999999
 20
77.35000305999999
 30
0.0
 40
3.3
  1
荷重基準：　
 41
0.841346155753051
  7
dcStyle0
 72
     5
 11
90.80000404999998
 21
77.35000305999999
 31
0.0
100
AcDbText
  0
TEXT
  5
618
330
1F
100
AcDbEntity
  8
24
 62
     2
100
AcDbText
 10
90.70000406
 20
77.35000305999999
 30
0.0
 40
3.3
  1
鋼道路橋等設計示方による
 41
0.8413461560073042
  7
dcStyle0
 72
     5
 11
132.70000474
 21
77.35000305999999
 31
0.0
100
AcDbText
  0
TEXT
  5
619
330
1F
100
AcDbEntity
  8
24
 62
     2
100
AcDbText
 10
69.80000374999999
 20
72.35000299
 30
0.0
 40
3.3
  1
荷　　重：　
 41
0.841346155753051
  7
dcStyle0
 72
     5
 11
90.80000404999998
 21
72.35000299
 31
0.0
100
AcDbText
  0
TEXT
  5
61A
330
1F
100
AcDbEntity
  8
24
 62
     2
100
AcDbText
 10
90.80000407
 20
72.35000299
 30
0.0
 40
3.0
  1
T-
  7
dcStyle0
 72
     5
 11
96.80000416
 21
72.35000299
 31
0.0
100
AcDbText
  0
TEXT
  5
61B
330
1F
100
AcDbEntity
  8
24
 62
     2
100
AcDbText
 10
94.80000412
 20
72.35000299
 30
0.0
 40
3.0
  1
 6 
 41
0.8333333355555551
  7
dcStyle0
 72
     5
 11
102.30000424
 21
72.35000299
 31
0.0
100
AcDbText
  0
TEXT
  5
61C
330
1F
100
AcDbEntity
  8
24
 62
     2
100
AcDbText
 10
102.20000423
 20
72.35000299
 30
0.0
 40
3.3
  1
（後輪一輪荷重：
 41
0.8413461558960684
  7
dcStyle0
 72
     5
 11
130.20000466
 21
72.35000299
 31
0.0
100
AcDbText
  0
TEXT
  5
61D
330
1F
100
AcDbEntity
  8
24
 62
     2
100
AcDbText
 10
130.20000465
 20
72.35000299
 30
0.0
 40
3.0
  1
 2400
 41
0.8333333355555547
  7
dcStyle0
 72
     5
 11
142.70000485
 21
72.35000299
 31
0.0
100
AcDbText
  0
TEXT
  5
61E
330
1F
100
AcDbEntity
  8
24
 62
     2
100
AcDbText
 10
142.70000484
 20
72.35000299
 30
0.0
 40
3.0
  1
Kg
 41
0.5000000033333338
  7
dcStyle0
 72
     5
 11
145.70000488
 21
72.35000299
 31
0.0
100
AcDbText
  0
TEXT
  5
61F
330
1F
100
AcDbEntity
  8
24
 62
     2
100
AcDbText
 10
145.70000488
 20
72.35000299
 30
0.0
 40
3.3
  1
）
 41
0.8333333333333363
  7
dcStyle0
 72
     5
 11
149.00000488
 21
72.35000299
 31
0.0
100
AcDbText
  0
TEXT
  5
620
330
1F
100
AcDbEntity
  8
24
 62
     2
100
AcDbText
 10
69.80000374999999
 20
67.35000291
 30
0.0
 40
3.3
  1
載荷寸法：　
 41
0.841346155753051
  7
dcStyle0
 72
     5
 11
90.80000404999998
 21
67.35000291
 31
0.0
100
AcDbText
  0
TEXT
  5
621
330
1F
100
AcDbEntity
  8
24
 62
     2
100
AcDbText
 10
90.80000407
 20
67.35000291
 30
0.0
 40
3.0
  1
200
 41
0.8333333355555551
  7
dcStyle0
 72
     5
 11
98.30000419
 21
67.35000291
 31
0.0
100
AcDbText
  0
TEXT
  5
622
330
1F
100
AcDbEntity
  8
24
 62
     2
100
AcDbText
 10
98.30000418
 20
67.35000291
 30
0.0
 40
3.0
  1
mm
 41
0.6666666700000008
  7
dcStyle0
 72
     5
 11
102.30000424
 21
67.35000291
 31
0.0
100
AcDbText
  0
TEXT
  5
623
330
1F
100
AcDbEntity
  8
24
 62
     2
100
AcDbText
 10
102.20000423
 20
67.35000291
 30
0.0
 40
3.3
  1
×
 41
0.8333333333333327
  7
dcStyle0
 72
     5
 11
105.50000423
 21
67.35000291
 31
0.0
100
AcDbText
  0
TEXT
  5
624
330
1F
100
AcDbEntity
  8
24
 62
     2
100
AcDbText
 10
105.70000429
 20
67.35000291
 30
0.0
 40
3.0
  1
240
 41
0.8333333355555551
  7
dcStyle0
 72
     5
 11
113.20000441
 21
67.35000291
 31
0.0
100
AcDbText
  0
TEXT
  5
625
330
1F
100
AcDbEntity
  8
24
 62
     2
100
AcDbText
 10
113.2000044
 20
67.35000291
 30
0.0
 40
3.0
  1
mm
 41
0.6666666700000008
  7
dcStyle0
 72
     5
 11
117.20000446
 21
67.35000291
 31
0.0
100
AcDbText
  0
TEXT
  5
626
330
1F
100
AcDbEntity
  8
24
 62
     2
100
AcDbText
 10
117.10000446
 20
67.35000291
 30
0.0
 40
3.3
  1
　（等分布負載）
 41
0.8413461558960689
  7
dcStyle0
 72
     5
 11
145.10000489
 21
67.35000291
 31
0.0
100
AcDbText
  0
TEXT
  5
627
330
1F
100
AcDbEntity
  8
24
 62
     2
100
AcDbText
 10
69.80000374999999
 20
62.35000284000001
 30
0.0
 40
3.3
  1
許容応力：　
 41
0.841346155753051
  7
dcStyle0
 72
     5
 11
90.80000404999998
 21
62.35000284000001
 31
0.0
100
AcDbText
  0
TEXT
  5
628
330
1F
100
AcDbEntity
  8
24
 62
     2
100
AcDbText
 10
90.80000407
 20
62.35000284000001
 30
0.0
 40
3.3
  1
σｂ＝
 41
0.6313131350372408
  7
dcStyle0
 72
     5
 11
98.30000419
 21
62.35000284000001
 31
0.0
100
AcDbText
  0
TEXT
  5
629
330
1F
100
AcDbEntity
  8
24
 62
     2
100
AcDbText
 10
98.30000418
 20
62.35000284
 30
0.0
 40
3.0
  1
 18.0
 41
0.8333333355555557
  7
dcStyle0
 72
     5
 11
110.80000438
 21
62.35000284
 31
0.0
100
AcDbText
  0
TEXT
  5
62A
330
1F
100
AcDbEntity
  8
24
 62
     2
100
AcDbText
 10
111.40000437
 20
62.35000284
 30
0.0
 40
3.0
  1
Kg
 41
0.5000000033333338
  7
dcStyle0
 72
     5
 11
114.40000441
 21
62.35000284
 31
0.0
100
AcDbText
  0
TEXT
  5
62B
330
1F
100
AcDbEntity
  8
24
 62
     2
100
AcDbText
 10
114.15000441
 20
62.35000284
 30
0.0
 40
3.0
  1
／
 41
0.8333333333333334
  7
dcStyle0
 72
     5
 11
117.15000441
 21
62.35000284
 31
0.0
100
AcDbText
  0
TEXT
  5
62C
330
1F
100
AcDbEntity
  8
24
 62
     2
100
AcDbText
 10
117.65000447
 20
62.35000284
 30
0.0
 40
3.0
  1
mm
 41
0.6666666700000008
  7
dcStyle0
 72
     5
 11
121.65000453
 21
62.35000284
 31
0.0
100
AcDbText
  0
TEXT
  5
62D
330
1F
100
AcDbEntity
  8
24
 62
     2
100
AcDbText
 10
121.65000452
 20
64.35000287
 30
0.0
 40
1.8
  1
2
 41
0.8333333333333333
  7
dcStyle0
 72
     5
 11
123.15000452
 21
64.35000287
 31
0.0
100
AcDbText
  0
TEXT
  5
62E
330
1F
100
AcDbEntity
  8
24
 62
     2
100
AcDbText
 10
124.15000456
 20
62.35000284000001
 30
0.0
 40
3.3
  1
（ＳＳ４００使用）
 41
0.7575757602965681
  7
dcStyle0
 72
     5
 11
151.15000496
 21
62.35000284000001
 31
0.0
100
AcDbText
  0
TEXT
  5
62F
330
1F
100
AcDbEntity
  8
24
 62
     2
100
AcDbText
 10
69.80000374999999
 20
52.35000269
 30
0.0
 40
3.3
  1
スパン　：　
 41
0.841346155753051
  7
dcStyle0
 72
     5
 11
90.80000404999998
 21
52.35000269
 31
0.0
100
AcDbText
  0
TEXT
  5
630
330
1F
100
AcDbEntity
  8
24
 62
     2
100
AcDbText
 10
90.80000407
 20
52.35000269
 30
0.0
 40
3.0
  1
L =
 41
0.8333333355555551
  7
dcStyle0
 72
     5
 11
98.30000419
 21
52.35000269
 31
0.0
100
AcDbText
  0
TEXT
  5
631
330
1F
100
AcDbEntity
  8
24
 62
     2
100
AcDbText
 10
98.30000418
 20
52.35000269
 30
0.0
 40
3.0
  1
 170 
 41
0.8333333355555557
  7
dcStyle0
 72
     5
 11
110.80000438
 21
52.35000269
 31
0.0
100
AcDbText
  0
TEXT
  5
632
330
1F
100
AcDbEntity
  8
24
 62
     2
100
AcDbText
 10
110.80000436
 20
52.35000269
 30
0.0
 40
3.0
  1
mm
 41
0.6666666700000008
  7
dcStyle0
 72
     5
 11
114.80000442
 21
52.35000269
 31
0.0
100
AcDbText
  0
TEXT
  5
633
330
1F
100
AcDbEntity
  8
24
 62
     2
100
AcDbText
 10
79.8000039
 20
44.35000257
 30
0.0
 40
3.3
  1
　Ｗ　：主部材が支える最大後輪一輪荷重
 41
0.8413461559738498
  7
dcStyle0
 72
     5
 11
146.30000496
 21
44.35000257
 31
0.0
100
AcDbText
  0
TEXT
  5
634
330
1F
100
AcDbEntity
  8
24
 62
     2
100
AcDbText
 10
146.30000489
 20
44.35000257
 30
0.0
 40
3.0
  1
(Kg)
 41
0.5000000037499988
  7
dcStyle0
 72
     5
 11
152.30000498
 21
44.35000257
 31
0.0
100
AcDbText
  0
TEXT
  5
635
330
1F
100
AcDbEntity
  8
24
 62
     2
100
AcDbText
 10
79.8000039
 20
40.35000251
 30
0.0
 40
3.3
  1
　Ｎ　：荷重を受ける主部材本数
 41
0.841346155829327
  7
dcStyle0
 72
     5
 11
132.30000468
 21
40.35000251
 31
0.0
100
AcDbText
  0
TEXT
  5
636
330
1F
100
AcDbEntity
  8
24
 62
     2
100
AcDbText
 10
79.8000039
 20
36.35000245
 30
0.0
 40
3.3
  1
〔Ｚ〕：主部材断面係数
 41
0.8413461559264055
  7
dcStyle0
 72
     5
 11
118.3000045
 21
36.35000245
 31
0.0
100
AcDbText
  0
TEXT
  5
637
330
1F
100
AcDbEntity
  8
24
 62
     2
100
AcDbText
 10
79.8000039
 20
32.35000239
 30
0.0
 40
3.3
  1
　Ｓ　：溝幅方向載荷寸法
 41
0.8413461560073039
  7
dcStyle0
 72
     5
 11
121.80000458
 21
32.35000239
 31
0.0
100
AcDbText
  0
TEXT
  5
638
330
1F
100
AcDbEntity
  8
24
 62
     2
100
AcDbText
 10
64.55000367
 20
27.35000232
 30
0.0
 40
3.3
  1
荷重計算
 41
0.8583691004600379
  7
dcStyle0
 72
     5
 11
80.5500039
 21
27.35000232
 31
0.0
100
AcDbText
  0
TEXT
  5
639
330
1F
100
AcDbEntity
  8
24
 62
     2
100
AcDbText
 10
69.80000374999999
 20
20.35000221
 30
0.0
 40
3.3
  1
側　溝
 41
0.8413461558801776
  7
dcStyle0
 72
     5
 11
80.30000390999999
 21
20.35000221
 31
0.0
100
AcDbText
  0
TEXT
  5
63A
330
1F
100
AcDbEntity
  8
24
 62
     2
100
AcDbText
 10
80.20000390999999
 20
20.35000221
 30
0.0
 40
3.3
  1
　（溝幅≦載荷寸法Ｓの場合）
 41
0.8413461557802925
  7
dcStyle0
 72
     5
 11
129.20000462
 21
20.35000221
 31
0.0
100
AcDbText
  0
TEXT
  5
63B
330
1F
100
AcDbEntity
  8
24
 62
     2
100
AcDbText
 10
69.90000375
 20
10.35000207
 30
0.0
 40
3.0
  1
Ｗ　＝
 41
0.6944444478395059
  7
dcStyle0
 72
     5
 11
77.40000386999999
 21
10.35000207
 31
0.0
100
AcDbText
  0
TEXT
  5
63C
330
1F
100
AcDbEntity
  8
24
 62
     2
100
AcDbText
 10
80.90000391999999
 20
12.8500021
 30
0.0
 40
3.3
  1
８
 41
0.8333333333333327
  7
dcStyle0
 72
     5
 11
84.20000391999999
 21
12.8500021
 31
0.0
100
AcDbText
  0
TEXT
  5
63D
330
1F
100
AcDbEntity
  8
24
 62
     2
100
AcDbText
 10
84.20000397
 20
12.8500021
 30
0.0
 40
3.3
  1
σｂ
 41
0.6313131345717273
  7
dcStyle0
 72
     5
 11
89.20000404
 21
12.8500021
 31
0.0
100
AcDbText
  0
TEXT
  5
63E
330
1F
100
AcDbEntity
  8
24
 62
     2
100
AcDbText
 10
89.20000404
 20
12.8500021
 30
0.0
 40
3.3
  1
Ｚ
 41
0.8333333333333327
  7
dcStyle0
 72
     5
 11
92.50000404
 21
12.8500021
 31
0.0
100
AcDbText
  0
TEXT
  5
63F
330
1F
100
AcDbEntity
  8
24
 62
     2
100
AcDbText
 10
80.40000391
 20
7.850002030000001
 30
0.0
 40
3.0
  1
 L 
  7
dcStyle0
 72
     5
 11
92.40000409
 21
7.850002030000001
 31
0.0
100
AcDbText
  0
TEXT
  5
640
330
1F
100
AcDbEntity
  8
24
 62
     2
100
AcDbText
 10
92.9000041
 20
10.35000207
 30
0.0
 40
3.3
  1
×
 41
0.7575757575757577
  7
dcStyle0
 72
     5
 11
95.9000041
 21
10.35000207
 31
0.0
100
AcDbText
  0
TEXT
  5
641
330
1F
100
AcDbEntity
  8
24
 62
     2
100
AcDbText
 10
97.90000417
 20
12.8500021
 30
0.0
 40
3.0
  1
S
  7
dcStyle0
 72
     5
 11
100.90000417
 21
12.8500021
 31
0.0
100
AcDbText
  0
TEXT
  5
642
330
1F
100
AcDbEntity
  8
24
 62
     2
100
AcDbText
 10
97.90000417
 20
7.850002030000001
 30
0.0
 40
3.0
  1
L
  7
dcStyle0
 72
     5
 11
100.90000417
 21
7.850002030000001
 31
0.0
100
AcDbText
  0
TEXT
  5
643
330
1F
100
AcDbEntity
  8
24
 62
     2
100
AcDbText
 10
101.90000423
 20
10.35000207
 30
0.0
 40
3.3
  1
＝
 41
0.7575757575757577
  7
dcStyle0
 72
     5
 11
104.90000423
 21
10.35000207
 31
0.0
100
AcDbText
  0
TEXT
  5
644
330
1F
100
AcDbEntity
  8
24
 62
     2
100
AcDbText
 10
107.40000431
 20
12.8500021
 30
0.0
 40
3.0
  1
8
 41
0.8333333333333334
  7
dcStyle0
 72
     5
 11
109.90000431
 21
12.8500021
 31
0.0
100
AcDbText
  0
TEXT
  5
645
330
1F
100
AcDbEntity
  8
24
 62
     2
100
AcDbText
 10
109.90000435
 20
12.8500021
 30
0.0
 40
3.3
  1
×
 41
0.7575757575757577
  7
dcStyle0
 72
     5
 11
112.90000435
 21
12.8500021
 31
0.0
100
AcDbText
  0
TEXT
  5
646
330
1F
100
AcDbEntity
  8
24
 62
     2
100
AcDbText
 10
110.90000436
 20
12.8500021
 30
0.0
 40
3.0
  1
 18 
 41
0.8333333354166671
  7
dcStyle0
 72
     5
 11
120.90000451
 21
12.8500021
 31
0.0
100
AcDbText
  0
TEXT
  5
647
330
1F
100
AcDbEntity
  8
24
 62
     2
100
AcDbText
 10
118.90000448
 20
12.8500021
 30
0.0
 40
3.3
  1
×
 41
0.7575757575757577
  7
dcStyle0
 72
     5
 11
121.90000448
 21
12.8500021
 31
0.0
100
AcDbText
  0
TEXT
  5
648
330
1F
100
AcDbEntity
  8
24
 62
     2
100
AcDbText
 10
119.9000045
 20
12.8500021
 30
0.0
 40
3.0
  1
 240 
 41
0.8333333355555547
  7
dcStyle0
 72
     5
 11
132.4000047
 21
12.8500021
 31
0.0
100
AcDbText
  0
TEXT
  5
649
330
1F
100
AcDbEntity
  8
24
 62
     2
100
AcDbText
 10
130.40000466
 20
12.8500021
 30
0.0
 40
3.3
  1
×
 41
0.7575757575757577
  7
dcStyle0
 72
     5
 11
133.40000466
 21
12.8500021
 31
0.0
100
AcDbText
  0
TEXT
  5
64A
330
1F
100
AcDbEntity
  8
24
 62
     2
100
AcDbText
 10
133.4000047
 20
12.8500021
 30
0.0
 40
3.0
  1
Z
 41
0.8333333333333334
  7
dcStyle0
 72
     5
 11
135.9000047
 21
12.8500021
 31
0.0
100
AcDbText
  0
TEXT
  5
64B
330
1F
100
AcDbEntity
  8
24
 62
     2
100
AcDbText
 10
113.4000044
 20
7.850002030000001
 30
0.0
 40
3.0
  1
 170 
 41
0.8333333355555557
  7
dcStyle0
 72
     5
 11
125.9000046
 21
7.850002030000001
 31
0.0
100
AcDbText
  0
TEXT
  5
64C
330
1F
100
AcDbEntity
  8
24
 62
     2
100
AcDbText
 10
123.90000456
 20
9.85000206
 30
0.0
 40
1.8
  1
2
 41
0.8333333333333333
  7
dcStyle0
 72
     5
 11
125.40000456
 21
9.85000206
 31
0.0
100
AcDbText
  0
TEXT
  5
64D
330
1F
100
AcDbEntity
  8
24
 62
     2
100
AcDbText
 10
138.90000478
 20
10.35000207
 30
0.0
 40
3.3
  1
＝
 41
0.7575757575757577
  7
dcStyle0
 72
     5
 11
141.90000478
 21
10.35000207
 31
0.0
100
AcDbText
  0
TEXT
  5
64E
330
1F
100
AcDbEntity
  8
24
 62
     2
100
AcDbText
 10
141.90000483
 20
10.35000207
 30
0.0
 40
3.0
  1
1.196
 41
0.8333333355555547
  7
dcStyle0
 72
     5
 11
154.40000503
 21
10.35000207
 31
0.0
100
AcDbText
  0
TEXT
  5
64F
330
1F
100
AcDbEntity
  8
24
 62
     2
100
AcDbText
 10
154.40000501
 20
10.35000207
 30
0.0
 40
3.3
  1
×
 41
0.7575757575757577
  7
dcStyle0
 72
     5
 11
157.40000501
 21
10.35000207
 31
0.0
100
AcDbText
  0
TEXT
  5
650
330
1F
100
AcDbEntity
  8
24
 62
     2
100
AcDbText
 10
157.40000506
 20
10.35000207
 30
0.0
 40
3.0
  1
Z
 41
0.8333333333333334
  7
dcStyle0
 72
     5
 11
159.90000506
 21
10.35000207
 31
0.0
100
AcDbText
  0
TEXT
  5
651
330
1F
100
AcDbEntity
  8
24
 62
     2
100
AcDbText
 10
69.90000375
 20
1.35000193
 30
0.0
 40
3.3
  1
Ｚ　＝　Ｎ〔Ｚ〕＝
 41
0.6313131346234511
  7
dcStyle0
 72
     5
 11
92.40000407
 21
1.35000193
 31
0.0
100
AcDbText
  0
TEXT
  5
652
330
1F
100
AcDbEntity
  8
24
 62
     2
100
AcDbText
 10
90.40000406
 20
1.35000193
 30
0.0
 40
3.0
  1
 7 
 41
0.8333333355555551
  7
dcStyle0
 72
     5
 11
97.90000418
 21
1.35000193
 31
0.0
100
AcDbText
  0
TEXT
  5
653
330
1F
100
AcDbEntity
  8
24
 62
     2
100
AcDbText
 10
95.90000414
 20
1.35000193
 30
0.0
 40
3.3
  1
×
 41
0.7575757575757577
  7
dcStyle0
 72
     5
 11
98.90000414
 21
1.35000193
 31
0.0
100
AcDbText
  0
TEXT
  5
654
330
1F
100
AcDbEntity
  8
24
 62
     2
100
AcDbText
 10
98.90000419
 20
1.35000193
 30
0.0
 40
3.0
  1
0.485
 41
0.8333333355555557
  7
dcStyle0
 72
     5
 11
111.40000439
 21
1.35000193
 31
0.0
100
AcDbText
  0
TEXT
  5
655
330
1F
100
AcDbEntity
  8
24
 62
     2
100
AcDbText
 10
111.30000437
 20
1.35000193
 30
0.0
 40
3.3
  1
×
 41
0.8333333333333327
  7
dcStyle0
 72
     5
 11
114.60000437
 21
1.35000193
 31
0.0
100
AcDbText
  0
TEXT
  5
656
330
1F
100
AcDbEntity
  8
24
 62
     2
100
AcDbText
 10
114.80000442
 20
1.35000193
 30
0.0
 40
3.0
  1
10
 41
0.8333333352777776
  7
dcStyle0
 72
     5
 11
119.80000449
 21
1.35000193
 31
0.0
100
AcDbText
  0
TEXT
  5
657
330
1F
100
AcDbEntity
  8
24
 62
     2
100
AcDbText
 10
119.8000045
 20
3.35000196
 30
0.0
 40
1.8
  1
3
 41
0.8333333333333333
  7
dcStyle0
 72
     5
 11
121.3000045
 21
3.35000196
 31
0.0
100
AcDbText
  0
TEXT
  5
658
330
1F
100
AcDbEntity
  8
24
 62
     2
100
AcDbText
 10
122.30000453
 20
1.35000193
 30
0.0
 40
3.0
  1
=
  7
dcStyle0
 72
     5
 11
125.30000453
 21
1.35000193
 31
0.0
100
AcDbText
  0
TEXT
  5
659
330
1F
100
AcDbEntity
  8
24
 62
     2
100
AcDbText
 10
125.30000458
 20
1.35000193
 30
0.0
 40
3.0
  1
3.40
 41
0.8333333354166671
  7
dcStyle0
 72
     5
 11
135.30000473
 21
1.35000193
 31
0.0
100
AcDbText
  0
TEXT
  5
65A
330
1F
100
AcDbEntity
  8
24
 62
     2
100
AcDbText
 10
135.20000473
 20
1.35000193
 30
0.0
 40
3.3
  1
×
 41
0.8333333333333363
  7
dcStyle0
 72
     5
 11
138.50000473
 21
1.35000193
 31
0.0
100
AcDbText
  0
TEXT
  5
65B
330
1F
100
AcDbEntity
  8
24
 62
     2
100
AcDbText
 10
138.70000478
 20
1.35000193
 30
0.0
 40
3.0
  1
10
 41
0.8333333352777776
  7
dcStyle0
 72
     5
 11
143.70000485
 21
1.35000193
 31
0.0
100
AcDbText
  0
TEXT
  5
65C
330
1F
100
AcDbEntity
  8
24
 62
     2
100
AcDbText
 10
143.70000485
 20
3.35000196
 30
0.0
 40
1.8
  1
3
 41
0.8333333333333333
  7
dcStyle0
 72
     5
 11
145.20000485
 21
3.35000196
 31
0.0
100
AcDbText
  0
TEXT
  5
65D
330
1F
100
AcDbEntity
  8
24
 62
     2
100
AcDbText
 10
64.90000368
 20
-5.64999817
 30
0.0
 40
3.3
  1
∴　Ｗ　＝
 41
0.6313131350372412
  7
dcStyle0
 72
     5
 11
77.40000388
 21
-5.64999817
 31
0.0
100
AcDbText
  0
TEXT
  5
65E
330
1F
100
AcDbEntity
  8
24
 62
     2
100
AcDbText
 10
77.40000387
 20
-5.64999817
 30
0.0
 40
3.0
  1
 1.196
 41
0.8333333351851854
  7
dcStyle0
 72
     5
 11
92.40000407000001
 21
-5.64999817
 31
0.0
100
AcDbText
  0
TEXT
  5
65F
330
1F
100
AcDbEntity
  8
24
 62
     2
100
AcDbText
 10
92.30000408999999
 20
-5.64999817
 30
0.0
 40
3.3
  1
×
 41
0.8333333333333327
  7
dcStyle0
 72
     5
 11
95.60000408999998
 21
-5.64999817
 31
0.0
100
AcDbText
  0
TEXT
  5
660
330
1F
100
AcDbEntity
  8
24
 62
     2
100
AcDbText
 10
95.80000414
 20
-5.64999817
 30
0.0
 40
3.0
  1
3.40
 41
0.8333333354166671
  7
dcStyle0
 72
     5
 11
105.80000429
 21
-5.64999817
 31
0.0
100
AcDbText
  0
TEXT
  5
661
330
1F
100
AcDbEntity
  8
24
 62
     2
100
AcDbText
 10
105.70000429
 20
-5.64999817
 30
0.0
 40
3.3
  1
×
 41
0.8333333333333327
  7
dcStyle0
 72
     5
 11
109.00000429
 21
-5.64999817
 31
0.0
100
AcDbText
  0
TEXT
  5
662
330
1F
100
AcDbEntity
  8
24
 62
     2
100
AcDbText
 10
109.20000434
 20
-5.64999817
 30
0.0
 40
3.0
  1
10
 41
0.8333333352777776
  7
dcStyle0
 72
     5
 11
114.20000441
 21
-5.64999817
 31
0.0
100
AcDbText
  0
TEXT
  5
663
330
1F
100
AcDbEntity
  8
24
 62
     2
100
AcDbText
 10
114.20000441
 20
-3.64999814
 30
0.0
 40
1.8
  1
3
 41
0.8333333333333333
  7
dcStyle0
 72
     5
 11
115.70000441
 21
-3.64999814
 31
0.0
100
AcDbText
  0
TEXT
  5
664
330
1F
100
AcDbEntity
  8
24
 62
     2
100
AcDbText
 10
116.70000445
 20
-5.64999817
 30
0.0
 40
3.0
  1
=
  7
dcStyle0
 72
     5
 11
119.70000445
 21
-5.64999817
 31
0.0
100
AcDbText
  0
TEXT
  5
665
330
1F
100
AcDbEntity
  8
24
 62
     2
100
AcDbText
 10
119.7000045
 20
-5.64999817
 30
0.0
 40
3.0
  1
4.07
 41
0.8333333354166671
  7
dcStyle0
 72
     5
 11
129.70000465
 21
-5.64999817
 31
0.0
100
AcDbText
  0
TEXT
  5
666
330
1F
100
AcDbEntity
  8
24
 62
     2
100
AcDbText
 10
129.60000464
 20
-5.64999817
 30
0.0
 40
3.3
  1
×
 41
0.8333333333333363
  7
dcStyle0
 72
     5
 11
132.90000464
 21
-5.64999817
 31
0.0
100
AcDbText
  0
TEXT
  5
667
330
1F
100
AcDbEntity
  8
24
 62
     2
100
AcDbText
 10
133.1000047
 20
-5.64999817
 30
0.0
 40
3.0
  1
10
 41
0.8333333352777776
  7
dcStyle0
 72
     5
 11
138.10000477
 21
-5.64999817
 31
0.0
100
AcDbText
  0
TEXT
  5
668
330
1F
100
AcDbEntity
  8
24
 62
     2
100
AcDbText
 10
138.10000477
 20
-3.64999814
 30
0.0
 40
1.8
  1
3
 41
0.8333333333333333
  7
dcStyle0
 72
     5
 11
139.60000477
 21
-3.64999814
 31
0.0
100
AcDbText
  0
TEXT
  5
669
330
1F
100
AcDbEntity
  8
24
 62
     2
100
AcDbText
 10
140.60000481
 20
-5.64999817
 30
0.0
 40
3.0
  1
(Kg)
 41
0.8333333354166671
  7
dcStyle0
 72
     5
 11
150.60000496
 21
-5.64999817
 31
0.0
100
AcDbText
  0
TEXT
  5
66A
330
1F
100
AcDbEntity
  8
24
 62
     2
100
AcDbText
 10
69.90000375
 20
-12.64999828
 30
0.0
 40
3.3
  1
Ｔ
 41
0.6313131313131314
  7
dcStyle0
 72
     5
 11
72.40000375
 21
-12.64999828
 31
0.0
100
AcDbText
  0
TEXT
  5
66B
330
1F
100
AcDbEntity
  8
24
 62
     2
100
AcDbText
 10
72.40000379
 20
-12.64999828
 30
0.0
 40
3.0
  1
 = 0
 41
0.8333333354166671
  7
dcStyle0
 72
     5
 11
82.40000394
 21
-12.64999828
 31
0.0
100
AcDbText
  0
TEXT
  5
66C
330
1F
100
AcDbEntity
  8
24
 62
     2
100
AcDbText
 10
79.9000039
 20
-12.64999828
 30
0.0
 40
3.0
  1
 .4 
 41
0.8333333354166671
  7
dcStyle0
 72
     5
 11
89.90000405
 21
-12.64999828
 31
0.0
100
AcDbText
  0
TEXT
  5
66D
330
1F
100
AcDbEntity
  8
24
 62
     2
100
AcDbText
 10
87.40000401
 20
-10.64999825
 30
0.0
 40
1.8
  1
-1
 41
0.833333335185186
  7
dcStyle0
 72
     5
 11
90.40000405
 21
-10.64999825
 31
0.0
100
AcDbText
  0
TEXT
  5
66E
330
1F
100
AcDbEntity
  8
24
 62
     2
100
AcDbText
 10
91.30000407
 20
-12.64999828
 30
0.0
 40
3.3
  1
×
 41
0.8333333333333327
  7
dcStyle0
 72
     5
 11
94.60000407
 21
-12.64999828
 31
0.0
100
AcDbText
  0
TEXT
  5
66F
330
1F
100
AcDbEntity
  8
24
 62
     2
100
AcDbText
 10
94.80000412
 20
-12.64999828
 30
0.0
 40
3.0
  1
10
 41
0.8333333352777776
  7
dcStyle0
 72
     5
 11
99.80000419
 21
-12.64999828
 31
0.0
100
AcDbText
  0
TEXT
  5
670
330
1F
100
AcDbEntity
  8
24
 62
     2
100
AcDbText
 10
99.8000042
 20
-10.64999825
 30
0.0
 40
1.8
  1
-3
 41
0.833333335185186
  7
dcStyle0
 72
     5
 11
102.80000424
 21
-10.64999825
 31
0.0
100
AcDbText
  0
TEXT
  5
671
330
1F
100
AcDbEntity
  8
24
 62
     2
100
AcDbText
 10
103.70000426
 20
-12.64999828
 30
0.0
 40
3.3
  1
×Ｗ
 41
0.8413461557530504
  7
dcStyle0
 72
     5
 11
110.70000436
 21
-12.64999828
 31
0.0
100
AcDbText
  0
TEXT
  5
672
330
1F
100
AcDbEntity
  8
24
 62
     2
100
AcDbText
 10
69.90000375
 20
-17.64999835
 30
0.0
 40
3.0
  1
  = 0
 41
0.8333333355555557
  7
dcStyle0
 72
     5
 11
82.40000395
 21
-17.64999835
 31
0.0
100
AcDbText
  0
TEXT
  5
673
330
1F
100
AcDbEntity
  8
24
 62
     2
100
AcDbText
 10
79.9000039
 20
-17.64999835
 30
0.0
 40
3.0
  1
 .4 
 41
0.8333333354166671
  7
dcStyle0
 72
     5
 11
89.90000405
 21
-17.64999835
 31
0.0
100
AcDbText
  0
TEXT
  5
674
330
1F
100
AcDbEntity
  8
24
 62
     2
100
AcDbText
 10
87.40000401
 20
-15.64999832
 30
0.0
 40
1.8
  1
-1
 41
0.833333335185186
  7
dcStyle0
 72
     5
 11
90.40000405
 21
-15.64999832
 31
0.0
100
AcDbText
  0
TEXT
  5
675
330
1F
100
AcDbEntity
  8
24
 62
     2
100
AcDbText
 10
91.30000407
 20
-17.64999835
 30
0.0
 40
3.3
  1
×
 41
0.8333333333333327
  7
dcStyle0
 72
     5
 11
94.60000407
 21
-17.64999835
 31
0.0
100
AcDbText
  0
TEXT
  5
676
330
1F
100
AcDbEntity
  8
24
 62
     2
100
AcDbText
 10
94.80000412
 20
-17.64999835
 30
0.0
 40
3.0
  1
10
 41
0.8333333352777776
  7
dcStyle0
 72
     5
 11
99.80000419
 21
-17.64999835
 31
0.0
100
AcDbText
  0
TEXT
  5
677
330
1F
100
AcDbEntity
  8
24
 62
     2
100
AcDbText
 10
99.8000042
 20
-15.64999832
 30
0.0
 40
1.8
  1
-3
 41
0.833333335185186
  7
dcStyle0
 72
     5
 11
102.80000424
 21
-15.64999832
 31
0.0
100
AcDbText
  0
TEXT
  5
678
330
1F
100
AcDbEntity
  8
24
 62
     2
100
AcDbText
 10
103.70000426
 20
-17.64999835
 30
0.0
 40
3.3
  1
×
 41
0.8333333333333327
  7
dcStyle0
 72
     5
 11
107.00000426
 21
-17.64999835
 31
0.0
100
AcDbText
  0
TEXT
  5
679
330
1F
100
AcDbEntity
  8
24
 62
     2
100
AcDbText
 10
107.20000431
 20
-17.64999835
 30
0.0
 40
3.0
  1
4.07
 41
0.8333333354166671
  7
dcStyle0
 72
     5
 11
117.20000446
 21
-17.64999835
 31
0.0
100
AcDbText
  0
TEXT
  5
67A
330
1F
100
AcDbEntity
  8
24
 62
     2
100
AcDbText
 10
117.10000446
 20
-17.64999835
 30
0.0
 40
3.3
  1
×
 41
0.8333333333333327
  7
dcStyle0
 72
     5
 11
120.40000446
 21
-17.64999835
 31
0.0
100
AcDbText
  0
TEXT
  5
67B
330
1F
100
AcDbEntity
  8
24
 62
     2
100
AcDbText
 10
120.60000451
 20
-17.64999835
 30
0.0
 40
3.0
  1
10
 41
0.8333333352777776
  7
dcStyle0
 72
     5
 11
125.60000458
 21
-17.64999835
 31
0.0
100
AcDbText
  0
TEXT
  5
67C
330
1F
100
AcDbEntity
  8
24
 62
     2
100
AcDbText
 10
125.60000458
 20
-15.64999832
 30
0.0
 40
1.8
  1
3
 41
0.8333333333333333
  7
dcStyle0
 72
     5
 11
127.10000458
 21
-15.64999832
 31
0.0
100
AcDbText
  0
TEXT
  5
67D
330
1F
100
AcDbEntity
  8
24
 62
     2
100
AcDbText
 10
69.90000375
 20
-22.64999843
 30
0.0
 40
3.0
  1
  =
 41
0.8333333355555551
  7
dcStyle0
 72
     5
 11
77.40000386999999
 21
-22.64999843
 31
0.0
100
AcDbText
  0
TEXT
  5
67E
330
1F
100
AcDbEntity
  8
24
 62
     2
100
AcDbText
 10
77.40000387
 20
-22.64999843
 30
0.0
 40
3.0
  1
 10.2
 41
0.8333333355555557
  7
dcStyle0
 72
     5
 11
89.90000407000001
 21
-22.64999843
 31
0.0
100
AcDbText
  0
TEXT
  5
67F
330
1F
100
AcDbEntity
  8
24
 62
     2
100
AcDbText
 10
92.40000409
 20
-22.64999843
 30
0.0
 40
3.0
  1
>
  7
dcStyle0
 72
     5
 11
95.40000409
 21
-22.64999843
 31
0.0
100
AcDbText
  0
TEXT
  5
680
330
1F
100
AcDbEntity
  8
24
 62
     2
100
AcDbText
 10
95.40000413
 20
-22.64999843
 30
0.0
 40
3.0
  1
 6 
 41
0.8333333355555551
  7
dcStyle0
 72
     5
 11
102.90000425
 21
-22.64999843
 31
0.0
100
AcDbText
  0
TEXT
  5
681
330
1F
100
AcDbEntity
  8
24
 62
     2
100
AcDbText
 10
84.80000398
 20
-58.64999896
 30
0.0
 40
3.3
  1
以上より　
 41
0.8413461559818791
  7
dcStyle0
 72
     5
 11
102.30000426
 21
-58.64999896
 31
0.0
100
AcDbText
  0
TEXT
  5
682
330
1F
100
AcDbEntity
  8
24
 62
     2
100
AcDbText
 10
102.30000424
 20
-58.64999896
 30
0.0
 40
3.5
  1
Ｔ－
 41
0.8333333353174596
  7
dcStyle0
 72
     5
 11
109.30000434
 21
-58.64999896
 31
0.0
100
AcDbText
  0
TEXT
  5
683
330
1F
100
AcDbEntity
  8
24
 62
     2
100
AcDbText
 10
109.30000434
 20
-58.64999896
 30
0.0
 40
3.0
  1
 6 
 41
0.8333333355555551
  7
dcStyle0
 72
     5
 11
116.80000446
 21
-58.64999896
 31
0.0
100
AcDbText
  0
TEXT
  5
684
330
1F
100
AcDbEntity
  8
24
 62
     2
100
AcDbText
 10
116.70000445
 20
-58.64999896
 30
0.0
 40
3.3
  1
となる
 41
0.8413461558801765
  7
dcStyle0
 72
     5
 11
127.20000461
 21
-58.64999896
 31
0.0
100
AcDbText
  0
LINE
  5
685
330
1F
100
AcDbEntity
  8
24
  6
Continuous
 62
     4
370
    25
100
AcDbLine
 10
91.90000408142805
 20
95.35000333189964
 30
0.0
 11
86.90000400692225
 21
95.35000333189964
 31
0.0
  0
LINE
  5
686
330
1F
100
AcDbEntity
  8
24
  6
Continuous
 62
     4
370
    25
100
AcDbLine
 10
86.90000400692225
 20
95.35000333189964
 30
0.0
 11
86.90000400692225
 21
91.350003272295
 31
0.0
  0
LINE
  5
687
330
1F
100
AcDbEntity
  8
24
  6
Continuous
 62
     4
370
    25
100
AcDbLine
 10
86.90000400692225
 20
91.350003272295
 30
0.0
 11
144.9000048711896
 21
91.350003272295
 31
0.0
  0
LINE
  5
688
330
1F
100
AcDbEntity
  8
24
  6
Continuous
 62
     4
370
    25
100
AcDbLine
 10
144.9000048711896
 20
91.350003272295
 30
0.0
 11
144.9000048711896
 21
95.35000333189964
 31
0.0
  0
LINE
  5
689
330
1F
100
AcDbEntity
  8
24
  6
Continuous
 62
     4
370
    25
100
AcDbLine
 10
144.9000048711896
 20
95.35000333189964
 30
0.0
 11
139.9000047966838
 21
95.35000333189964
 31
0.0
  0
LINE
  5
68A
330
1F
100
AcDbEntity
  8
24
  6
Continuous
 62
     4
370
    25
100
AcDbLine
 10
68.90000373870134
 20
21.8500022366643
 30
0.0
 11
67.90000372380018
 21
21.8500022366643
 31
0.0
  0
LINE
  5
68B
330
1F
100
AcDbEntity
  8
24
  6
Continuous
 62
     4
370
    25
100
AcDbLine
 10
67.90000372380018
 20
21.8500022366643
 30
0.0
 11
67.90000372380018
 21
19.35000219941139
 31
0.0
  0
LINE
  5
68C
330
1F
100
AcDbEntity
  8
24
  6
Continuous
 62
     4
370
    25
100
AcDbLine
 10
67.90000372380018
 20
19.35000219941139
 30
0.0
 11
81.90000393241644
 21
19.35000219941139
 31
0.0
  0
LINE
  5
68D
330
1F
100
AcDbEntity
  8
24
  6
Continuous
 62
     4
370
    25
100
AcDbLine
 10
81.90000393241644
 20
19.35000219941139
 30
0.0
 11
81.90000393241644
 21
21.8500022366643
 31
0.0
  0
LINE
  5
68E
330
1F
100
AcDbEntity
  8
24
  6
Continuous
 62
     4
370
    25
100
AcDbLine
 10
81.90000393241644
 20
21.8500022366643
 30
0.0
 11
80.90000391751528
 21
21.8500022366643
 31
0.0
  0
LINE
  5
68F
330
1F
100
AcDbEntity
  8
24
  6
Continuous
 62
     4
370
    25
100
AcDbLine
 10
79.90000390261412
 20
11.85000208765268
 30
0.0
 11
91.90000408142805
 21
11.85000208765268
 31
0.0
  0
LINE
  5
690
330
1F
100
AcDbEntity
  8
24
  6
Continuous
 62
     4
370
    25
100
AcDbLine
 10
96.90000415593386
 20
11.85000208765268
 30
0.0
 11
100.9000042155385
 21
11.85000208765268
 31
0.0
  0
LINE
  5
691
330
1F
100
AcDbEntity
  8
24
  6
Continuous
 62
     4
370
    25
100
AcDbLine
 10
105.9000042900443
 20
11.85000208765268
 30
0.0
 11
137.9000047668815
 21
11.85000208765268
 31
0.0
  0
LINE
  5
692
330
1F
100
AcDbEntity
  8
24
  6
Continuous
 62
     4
370
    25
100
AcDbLine
 10
82.9000039473176
 20
-59.64999897778034
 30
0.0
 11
130.9000046625733
 21
-59.64999897778034
 31
0.0
  0
LINE
  5
693
330
1F
100
AcDbEntity
  8
24
  6
Continuous
 62
     4
370
    25
100
AcDbLine
 10
-182.0
 20
-128.25
 30
0.0
 11
-178.9999999552965
 21
-128.25
 31
0.0
  0
LINE
  5
694
330
1F
100
AcDbEntity
  8
24
  6
Continuous
 62
     4
370
    25
100
AcDbLine
 10
-178.9999999552965
 20
-128.25
 30
0.0
 11
-178.9999999552965
 21
-125.2499999552965
 31
0.0
  0
LINE
  5
695
330
1F
100
AcDbEntity
  8
24
  6
Continuous
 62
     4
370
    25
100
AcDbLine
 10
-178.9999999552965
 20
-125.2499999552965
 30
0.0
 11
-182.0
 21
-125.2499999552965
 31
0.0
  0
LINE
  5
696
330
1F
100
AcDbEntity
  8
24
  6
Continuous
 62
     4
370
    25
100
AcDbLine
 10
-182.0
 20
-125.2499999552965
 30
0.0
 11
-182.0
 21
-128.25
 31
0.0
  0
LINE
  5
697
330
1F
100
AcDbEntity
  8
24
  6
Continuous
 62
     4
370
    25
100
AcDbLine
 10
-182.0
 20
-128.25
 30
0.0
 11
-178.9999999552965
 21
-128.25
 31
0.0
  0
LINE
  5
698
330
1F
100
AcDbEntity
  8
24
  6
Continuous
 62
     4
370
    25
100
AcDbLine
 10
-178.9999999552965
 20
-128.25
 30
0.0
 11
-178.9999999552965
 21
-125.2499999552965
 31
0.0
  0
LINE
  5
699
330
1F
100
AcDbEntity
  8
24
  6
Continuous
 62
     4
370
    25
100
AcDbLine
 10
-178.9999999552965
 20
-125.2499999552965
 30
0.0
 11
-182.0
 21
-125.2499999552965
 31
0.0
  0
LINE
  5
69A
330
1F
100
AcDbEntity
  8
24
  6
Continuous
 62
     4
370
    25
100
AcDbLine
 10
-182.0
 20
-125.2499999552965
 30
0.0
 11
-182.0
 21
-128.25
 31
0.0
  0
LINE
  5
69B
330
1F
100
AcDbEntity
  8
24
  6
Continuous
 62
     4
370
    25
100
AcDbLine
 10
-182.0
 20
-128.25
 30
0.0
 11
-178.9999999552965
 21
-128.25
 31
0.0
  0
LINE
  5
69C
330
1F
100
AcDbEntity
  8
24
  6
Continuous
 62
     4
370
    25
100
AcDbLine
 10
-178.9999999552965
 20
-128.25
 30
0.0
 11
-178.9999999552965
 21
-125.2499999552965
 31
0.0
  0
LINE
  5
69D
330
1F
100
AcDbEntity
  8
24
  6
Continuous
 62
     4
370
    25
100
AcDbLine
 10
-178.9999999552965
 20
-125.2499999552965
 30
0.0
 11
-182.0
 21
-125.2499999552965
 31
0.0
  0
LINE
  5
69E
330
1F
100
AcDbEntity
  8
24
  6
Continuous
 62
     4
370
    25
100
AcDbLine
 10
-182.0
 20
-125.2499999552965
 30
0.0
 11
-182.0
 21
-128.25
 31
0.0
  0
ARC
  5
69F
330
1F
100
AcDbEntity
  8
24
  6
Continuous
 62
     4
370
    25
100
AcDbCircle
 10
59.90000360459089
 20
102.3500034362078
 30
0.0
 40
5.000000074505806
100
AcDbArc
 50
270.0000000000006
 51
0.0000000000008142
  0
LINE
  5
6A0
330
1F
100
AcDbEntity
  8
24
  6
Continuous
 62
     4
370
    25
100
AcDbLine
 10
59.9000052385654
 20
97.35000336170224
 30
0.0
 11
59.90000360459089
 21
-57.64999894797802
 31
0.0
  0
ARC
  5
6A1
330
1F
100
AcDbEntity
  8
24
  6
Continuous
 62
     4
370
    25
100
AcDbCircle
 10
59.90000197061639
 20
-62.64999902248356
 30
0.0
 40
5.000000074505806
100
AcDbArc
 50
0.0
 51
90.0000000000002
  0
LINE
  5
6A2
330
1F
100
AcDbEntity
  8
24
  6
Continuous
 62
     4
370
    25
100
AcDbLine
 10
64.90000204512219
 20
-62.64999902248356
 30
0.0
 11
164.9000051692128
 21
-62.64999902248383
 31
0.0
  0
ARC
  5
6A3
330
1F
100
AcDbEntity
  8
24
  6
Continuous
 62
     4
370
    25
100
AcDbCircle
 10
169.9000052437176
 20
-62.65000229043284
 30
0.0
 40
5.000000074505806
100
AcDbArc
 50
90.0000000000002
 51
180.0000000000004
  0
LINE
  5
6A4
330
1F
100
AcDbEntity
  8
24
  6
Continuous
 62
     4
370
    25
100
AcDbLine
 10
169.9000068776921
 20
-57.6500022159273
 30
0.0
 11
169.9000052437186
 21
97.35000336170197
 31
0.0
  0
ARC
  5
6A5
330
1F
100
AcDbEntity
  8
24
  6
Continuous
 62
     4
370
    25
100
AcDbCircle
 10
169.9000101456421
 20
102.3500034362054
 30
0.0
 40
5.000000074505806
100
AcDbArc
 50
180.0000000000004
 51
270.0000000000006
  0
LINE
  5
6A6
330
1F
100
AcDbEntity
  8
24
  6
Continuous
 62
     4
370
    25
100
AcDbLine
 10
164.9000100711374
 20
102.3500067041544
 30
0.0
 11
64.9000036790967
 21
102.3500034362078
 31
0.0
  0
LINE
  5
6A7
330
1F
100
AcDbEntity
  8
0
  6
Continuous
 62
     4
370
    25
100
AcDbLine
 10
-152.8708346419658
 20
59.8333342242986
 30
0.0
 11
-151.3708346196141
 21
60.23333423025906
 31
0.0
  0
LINE
  5
6A8
330
1F
100
AcDbEntity
  8
0
  6
Continuous
 62
     4
370
    25
100
AcDbLine
 10
-151.3708346196141
 20
59.43333421833813
 30
0.0
 11
-152.8708346419658
 21
59.8333342242986
 31
0.0
  0
LINE
  5
6A9
330
1F
100
AcDbEntity
  8
0
  6
Continuous
 62
     4
370
    25
100
AcDbLine
 10
-152.8708346419658
 20
59.8333342242986
 30
0.0
 11
-122.870834194931
 21
59.8333342242986
 31
0.0
  0
LINE
  5
6AA
330
1F
100
AcDbEntity
  8
0
  6
Continuous
 62
     4
370
    25
100
AcDbLine
 10
-122.870834194931
 20
59.8333342242986
 30
0.0
 11
-124.3708342172827
 21
60.23333423025906
 31
0.0
  0
LINE
  5
6AB
330
1F
100
AcDbEntity
  8
0
  6
Continuous
 62
     4
370
    25
100
AcDbLine
 10
-124.3708342172827
 20
59.43333421833813
 30
0.0
 11
-122.870834194931
 21
59.8333342242986
 31
0.0
  0
TEXT
  5
6AC
330
1F
100
AcDbEntity
  8
0
 62
     2
100
AcDbText
 10
-146.8708345563901
 20
60.5333342367789
 30
0.0
 40
3.0
  1
車両進行方向
 41
0.8333333352623458
  7
dcStyle0
 72
     5
 11
-128.8708343063901
 21
60.5333342367789
 31
0.0
100
AcDbText
  0
VIEWPORT
  5
78
330
1B
100
AcDbEntity
 67
     1
  8
0
100
AcDbViewport
 10
-4.44999735429883
 20
-11.44999825954434
 30
0.0
 40
1065.300015874207
 41
700.800010442734
 68
     1
 69
     1
 12
-4.44999735429883
 22
-11.44999825954434
 13
0.0
 23
0.0
 14
0.5
 24
0.5
 15
0.0
 25
0.0
 16
0.0
 26
0.0
 36
1.0
 17
0.0
 27
0.0
 37
0.0
 42
50.0
 43
0.0
 44
0.0
 45
700.800010442734
 50
0.0
 51
0.0
 72
   100
 90
   557152
  1

281
     0
 71
     1
 74
     0
110
0.0
120
0.0
130
0.0
111
1.0
121
0.0
131
0.0
112
0.0
122
1.0
132
0.0
 79
     0
146
0.0
  0
ENDSEC
  0
SECTION
  2
OBJECTS
  0
DICTIONARY
  5
C
330
0
100
AcDbDictionary
281
     1
  3
ACAD_GROUP
350
D
  3
ACAD_LAYOUT
350
1A
  3
ACAD_MATERIAL
350
3B
  3
ACAD_MLEADERSTYLE
350
6D1
  3
ACAD_MLINESTYLE
350
17
  3
ACAD_PLOTSETTINGS
350
19
  3
ACAD_PLOTSTYLENAME
350
E
  3
ACAD_SCALELIST
350
6AD
  3
ACAD_VISUALSTYLE
350
2A
  3
AcDbVariableDictionary
350
6CF
  0
DICTIONARY
  5
D
102
{ACAD_REACTORS
330
C
102
}
330
C
100
AcDbDictionary
281
     1
  0
DICTIONARY
  5
1A
102
{ACAD_REACTORS
330
C
102
}
330
C
100
AcDbDictionary
281
     1
  3
Layout1
350
1E
  3
Layout2
350
26
  3
Model
350
22
  0
DICTIONARY
  5
3B
102
{ACAD_REACTORS
330
C
102
}
330
C
100
AcDbDictionary
281
     1
  3
ByBlock
350
3D
  3
ByLayer
350
3C
  3
Global
350
3E
  0
DICTIONARY
  5
6D1
102
{ACAD_REACTORS
330
C
102
}
330
C
100
AcDbDictionary
281
     1
  0
DICTIONARY
  5
17
102
{ACAD_REACTORS
330
C
102
}
330
C
100
AcDbDictionary
281
     1
  3
Standard
350
18
  0
DICTIONARY
  5
19
102
{ACAD_REACTORS
330
C
102
}
330
C
100
AcDbDictionary
281
     1
  0
ACDBDICTIONARYWDFLT
  5
E
102
{ACAD_REACTORS
330
C
102
}
330
C
100
AcDbDictionary
281
     1
  3
Normal
350
F
100
AcDbDictionaryWithDefault
340
F
  0
DICTIONARY
  5
6AD
102
{ACAD_REACTORS
330
C
102
}
330
C
100
AcDbDictionary
281
     1
  3
A0
350
6AE
  3
A1
350
6AF
  3
A2
350
6B0
  3
A3
350
6B1
  3
A4
350
6B2
  3
A5
350
6B3
  3
A6
350
6B4
  3
A7
350
6B5
  3
A8
350
6B6
  3
A9
350
6B7
  3
B0
350
6B8
  3
B1
350
6B9
  3
B2
350
6BA
  3
B3
350
6BB
  3
B4
350
6BC
  3
B5
350
6BD
  3
B6
350
6BE
  3
B7
350
6BF
  3
B8
350
6C0
  3
B9
350
6C1
  3
C0
350
6C2
  3
C1
350
6C3
  3
C2
350
6C4
  3
C3
350
6C5
  3
C4
350
6C6
  3
C5
350
6C7
  3
C6
350
6C8
  3
C7
350
6C9
  3
C8
350
6CA
  3
C9
350
6CB
  3
D0
350
6CC
  3
D1
350
6CD
  3
D2
350
6CE
  0
DICTIONARY
  5
2A
102
{ACAD_REACTORS
330
C
102
}
330
C
100
AcDbDictionary
281
     1
  3
2dWireframe
350
2F
  3
3D Hidden
350
31
  3
3dWireframe
350
30
  3
Basic
350
32
  3
Brighten
350
36
  3
ColorChange
350
3A
  3
Conceptual
350
34
  3
Dim
350
35
  3
Facepattern
350
39
  3
Flat
350
2B
  3
FlatWithEdges
350
2C
  3
Gouraud
350
2D
  3
GouraudWithEdges
350
2E
  3
Linepattern
350
38
  3
Realistic
350
33
  3
Thicken
350
37
  0
DICTIONARY
  5
6CF
102
{ACAD_REACTORS
330
C
102
}
330
C
100
AcDbDictionary
281
     1
  3
CANNOSCALE
350
6D2
  3
DIMASSOC
350
6D3
  3
HIDETEXT
350
6D4
  0
LAYOUT
  5
1E
102
{ACAD_REACTORS
330
1A
102
}
330
1A
100
AcDbPlotSettings
  1

  2
none_device
  4

  6

 40
0.0
 41
0.0
 42
0.0
 43
0.0
 44
0.0
 45
0.0
 46
0.0
 47
0.0
 48
0.0
 49
0.0
140
0.0
141
0.0
142
1.0
143
1.0
 70
   688
 72
     0
 73
     0
 74
     5
  7

 75
    16
147
1.0
148
0.0
149
0.0
100
AcDbLayout
  1
Layout1
 70
     0
 71
     1
 10
0.0
 20
0.0
 11
12.0
 21
9.0
 12
0.0
 22
0.0
 32
0.0
 14
1.000000000000000E+20
 24
1.000000000000000E+20
 34
1.000000000000000E+20
 15
-1.000000000000000E+20
 25
-1.000000000000000E+20
 35
-1.000000000000000E+20
146
0.0
 13
0.0
 23
0.0
 33
0.0
 16
1.0
 26
0.0
 36
0.0
 17
0.0
 27
1.0
 37
0.0
 76
     0
330
1B
331
78
  0
LAYOUT
  5
26
102
{ACAD_REACTORS
330
1A
102
}
330
1A
100
AcDbPlotSettings
  1

  2
none_device
  4

  6

 40
0.0
 41
0.0
 42
0.0
 43
0.0
 44
0.0
 45
0.0
 46
0.0
 47
0.0
 48
0.0
 49
0.0
140
0.0
141
0.0
142
1.0
143
1.0
 70
   688
 72
     0
 73
     0
 74
     5
  7

 75
    16
147
1.0
148
0.0
149
0.0
100
AcDbLayout
  1
Layout2
 70
     1
 71
     2
 10
0.0
 20
0.0
 11
0.0
 21
0.0
 12
0.0
 22
0.0
 32
0.0
 14
0.0
 24
0.0
 34
0.0
 15
0.0
 25
0.0
 35
0.0
146
0.0
 13
0.0
 23
0.0
 33
0.0
 16
1.0
 26
0.0
 36
0.0
 17
0.0
 27
1.0
 37
0.0
 76
     0
330
23
  0
LAYOUT
  5
22
102
{ACAD_REACTORS
330
1A
102
}
330
1A
100
AcDbPlotSettings
  1

  2
none_device
  4

  6

 40
0.0
 41
0.0
 42
0.0
 43
0.0
 44
0.0
 45
0.0
 46
0.0
 47
0.0
 48
0.0
 49
0.0
140
0.0
141
0.0
142
1.0
143
1.0
 70
  1712
 72
     0
 73
     0
 74
     0
  7

 75
     0
147
1.0
148
0.0
149
0.0
100
AcDbLayout
  1
Model
 70
     1
 71
     0
 10
-182.0
 20
-128.5
 11
182.0
 21
128.5
 12
0.0
 22
0.0
 32
0.0
 14
-537.1000052914023
 24
-361.8500034809113
 34
0.0
 15
528.2000105828047
 25
338.9500069618226
 35
0.0
146
0.0
 13
0.0
 23
0.0
 33
0.0
 16
1.0
 26
0.0
 36
0.0
 17
0.0
 27
1.0
 37
0.0
 76
     0
330
1F
331
29
  0
MATERIAL
  5
3D
102
{ACAD_REACTORS
330
3B
102
}
102
{ACAD_XDICTIONARY
360
6F7
102
}
330
3B
100
AcDbMaterial
  1
ByBlock
  0
MATERIAL
  5
3C
102
{ACAD_REACTORS
330
3B
102
}
102
{ACAD_XDICTIONARY
360
6F5
102
}
330
3B
100
AcDbMaterial
  1
ByLayer
  0
MATERIAL
  5
3E
102
{ACAD_REACTORS
330
3B
102
}
102
{ACAD_XDICTIONARY
360
6F9
102
}
330
3B
100
AcDbMaterial
  1
Global
  0
MLINESTYLE
  5
18
102
{ACAD_REACTORS
330
17
102
}
330
17
100
AcDbMlineStyle
  2
Standard
 70
     0
  3

 62
   256
 51
90.0
 52
90.0
 71
     2
 49
0.5
 62
   256
  6
BYLAYER
 49
-0.5
 62
   256
  6
BYLAYER
  0
ACDBPLACEHOLDER
  5
F
102
{ACAD_REACTORS
330
E
102
}
330
E
  0
SCALE
  5
6AE
102
{ACAD_REACTORS
330
6AD
102
}
330
6AD
100
AcDbScale
 70
     0
300
1:1
140
1.0
141
1.0
290
     1
  0
SCALE
  5
6AF
102
{ACAD_REACTORS
330
6AD
102
}
330
6AD
100
AcDbScale
 70
     0
300
1:2
140
1.0
141
2.0
290
     0
  0
SCALE
  5
6B0
102
{ACAD_REACTORS
330
6AD
102
}
330
6AD
100
AcDbScale
 70
     0
300
1:4
140
1.0
141
4.0
290
     0
  0
SCALE
  5
6B1
102
{ACAD_REACTORS
330
6AD
102
}
330
6AD
100
AcDbScale
 70
     0
300
1:5
140
1.0
141
5.0
290
     0
  0
SCALE
  5
6B2
102
{ACAD_REACTORS
330
6AD
102
}
330
6AD
100
AcDbScale
 70
     0
300
1:8
140
1.0
141
8.0
290
     0
  0
SCALE
  5
6B3
102
{ACAD_REACTORS
330
6AD
102
}
330
6AD
100
AcDbScale
 70
     0
300
1:10
140
1.0
141
10.0
290
     0
  0
SCALE
  5
6B4
102
{ACAD_REACTORS
330
6AD
102
}
330
6AD
100
AcDbScale
 70
     0
300
1:16
140
1.0
141
16.0
290
     0
  0
SCALE
  5
6B5
102
{ACAD_REACTORS
330
6AD
102
}
330
6AD
100
AcDbScale
 70
     0
300
1:20
140
1.0
141
20.0
290
     0
  0
SCALE
  5
6B6
102
{ACAD_REACTORS
330
6AD
102
}
330
6AD
100
AcDbScale
 70
     0
300
1:30
140
1.0
141
30.0
290
     0
  0
SCALE
  5
6B7
102
{ACAD_REACTORS
330
6AD
102
}
330
6AD
100
AcDbScale
 70
     0
300
1:40
140
1.0
141
40.0
290
     0
  0
SCALE
  5
6B8
102
{ACAD_REACTORS
330
6AD
102
}
330
6AD
100
AcDbScale
 70
     0
300
1:50
140
1.0
141
50.0
290
     0
  0
SCALE
  5
6B9
102
{ACAD_REACTORS
330
6AD
102
}
330
6AD
100
AcDbScale
 70
     0
300
1:100
140
1.0
141
100.0
290
     0
  0
SCALE
  5
6BA
102
{ACAD_REACTORS
330
6AD
102
}
330
6AD
100
AcDbScale
 70
     0
300
2:1
140
2.0
141
1.0
290
     0
  0
SCALE
  5
6BB
102
{ACAD_REACTORS
330
6AD
102
}
330
6AD
100
AcDbScale
 70
     0
300
4:1
140
4.0
141
1.0
290
     0
  0
SCALE
  5
6BC
102
{ACAD_REACTORS
330
6AD
102
}
330
6AD
100
AcDbScale
 70
     0
300
8:1
140
8.0
141
1.0
290
     0
  0
SCALE
  5
6BD
102
{ACAD_REACTORS
330
6AD
102
}
330
6AD
100
AcDbScale
 70
     0
300
10:1
140
10.0
141
1.0
290
     0
  0
SCALE
  5
6BE
102
{ACAD_REACTORS
330
6AD
102
}
330
6AD
100
AcDbScale
 70
     0
300
100:1
140
100.0
141
1.0
290
     0
  0
SCALE
  5
6BF
102
{ACAD_REACTORS
330
6AD
102
}
330
6AD
100
AcDbScale
 70
     0
300
1/128" = 1'-0"
140
0.0078125
141
12.0
290
     0
  0
SCALE
  5
6C0
102
{ACAD_REACTORS
330
6AD
102
}
330
6AD
100
AcDbScale
 70
     0
300
1/64" = 1'-0"
140
0.015625
141
12.0
290
     0
  0
SCALE
  5
6C1
102
{ACAD_REACTORS
330
6AD
102
}
330
6AD
100
AcDbScale
 70
     0
300
1/32" = 1'-0"
140
0.03125
141
12.0
290
     0
  0
SCALE
  5
6C2
102
{ACAD_REACTORS
330
6AD
102
}
330
6AD
100
AcDbScale
 70
     0
300
1/16" = 1'-0"
140
0.0625
141
12.0
290
     0
  0
SCALE
  5
6C3
102
{ACAD_REACTORS
330
6AD
102
}
330
6AD
100
AcDbScale
 70
     0
300
3/32" = 1'-0"
140
0.09375
141
12.0
290
     0
  0
SCALE
  5
6C4
102
{ACAD_REACTORS
330
6AD
102
}
330
6AD
100
AcDbScale
 70
     0
300
1/8" = 1'-0"
140
0.125
141
12.0
290
     0
  0
SCALE
  5
6C5
102
{ACAD_REACTORS
330
6AD
102
}
330
6AD
100
AcDbScale
 70
     0
300
3/16" = 1'-0"
140
0.1875
141
12.0
290
     0
  0
SCALE
  5
6C6
102
{ACAD_REACTORS
330
6AD
102
}
330
6AD
100
AcDbScale
 70
     0
300
1/4" = 1'-0"
140
0.25
141
12.0
290
     0
  0
SCALE
  5
6C7
102
{ACAD_REACTORS
330
6AD
102
}
330
6AD
100
AcDbScale
 70
     0
300
3/8" = 1'-0"
140
0.375
141
12.0
290
     0
  0
SCALE
  5
6C8
102
{ACAD_REACTORS
330
6AD
102
}
330
6AD
100
AcDbScale
 70
     0
300
1/2" = 1'-0"
140
0.5
141
12.0
290
     0
  0
SCALE
  5
6C9
102
{ACAD_REACTORS
330
6AD
102
}
330
6AD
100
AcDbScale
 70
     0
300
3/4" = 1'-0"
140
0.75
141
12.0
290
     0
  0
SCALE
  5
6CA
102
{ACAD_REACTORS
330
6AD
102
}
330
6AD
100
AcDbScale
 70
     0
300
1" = 1'-0"
140
1.0
141
12.0
290
     0
  0
SCALE
  5
6CB
102
{ACAD_REACTORS
330
6AD
102
}
330
6AD
100
AcDbScale
 70
     0
300
1-1/2" = 1'-0"
140
1.5
141
12.0
290
     0
  0
SCALE
  5
6CC
102
{ACAD_REACTORS
330
6AD
102
}
330
6AD
100
AcDbScale
 70
     0
300
3" = 1'-0"
140
3.0
141
12.0
290
     0
  0
SCALE
  5
6CD
102
{ACAD_REACTORS
330
6AD
102
}
330
6AD
100
AcDbScale
 70
     0
300
6" = 1'-0"
140
6.0
141
12.0
290
     0
  0
SCALE
  5
6CE
102
{ACAD_REACTORS
330
6AD
102
}
330
6AD
100
AcDbScale
 70
     0
300
1'-0" = 1'-0"
140
12.0
141
12.0
290
     0
  0
VISUALSTYLE
  5
2F
102
{ACAD_REACTORS
330
2A
102
}
102
{ACAD_XDICTIONARY
360
6DD
102
}
330
2A
100
AcDbVisualStyle
  2
2dWireframe
 70
     4
 71
     0
 72
     2
 73
     0
 90
        0
 40
-0.6
 41
-30.0
 62
     5
 63
     7
 74
     1
 91
        4
 64
     7
 65
   257
 75
     1
175
     1
 42
1.0
 92
        0
 66
   257
 43
1.0
 76
     1
 77
     6
 78
     2
 67
     7
 79
     5
170
     0
171
     0
290
     0
174
     0
 93
        1
 44
0.0
173
     0
291
     0
 45
0.0
1001
ACAD
1000
AcDbSavedByObjectVersion
1070
     0
  0
VISUALSTYLE
  5
31
102
{ACAD_REACTORS
330
2A
102
}
102
{ACAD_XDICTIONARY
360
6E1
102
}
330
2A
100
AcDbVisualStyle
  2
3D Hidden
 70
     6
 71
     1
 72
     2
 73
     2
 90
        0
 40
-0.6
 41
-30.0
 62
     5
 63
     7
 74
     2
 91
        2
 64
     7
 65
   257
 75
     2
175
     1
 42
40.0
 92
        0
 66
   257
 43
1.0
 76
     1
 77
     6
 78
     2
 67
     7
 79
     3
170
     0
171
     0
290
     0
174
     0
 93
        1
 44
0.0
173
     0
291
     0
 45
0.0
1001
ACAD
1000
AcDbSavedByObjectVersion
1070
     0
  0
VISUALSTYLE
  5
30
102
{ACAD_REACTORS
330
2A
102
}
102
{ACAD_XDICTIONARY
360
6DF
102
}
330
2A
100
AcDbVisualStyle
  2
3dWireframe
 70
     5
 71
     0
 72
     2
 73
     0
 90
        0
 40
-0.6
 41
-30.0
 62
     5
 63
     7
 74
     1
 91
        4
 64
     7
 65
   257
 75
     1
175
     1
 42
1.0
 92
        0
 66
   257
 43
1.0
 76
     1
 77
     6
 78
     2
 67
     7
 79
     5
170
     0
171
     0
290
     0
174
     0
 93
        1
 44
0.0
173
     0
291
     0
 45
0.0
1001
ACAD
1000
AcDbSavedByObjectVersion
1070
     0
  0
VISUALSTYLE
  5
32
102
{ACAD_REACTORS
330
2A
102
}
102
{ACAD_XDICTIONARY
360
6E3
102
}
330
2A
100
AcDbVisualStyle
  2
Basic
 70
     7
 71
     1
 72
     0
 73
     1
 90
        0
 40
-0.6
 41
-30.0
 62
     5
 63
     7
 74
     0
 91
        4
 64
     7
 65
   257
 75
     1
175
     1
 42
1.0
 92
        8
 66
     7
 43
1.0
 76
     1
 77
     6
 78
     2
 67
     7
 79
     5
170
     0
171
     0
290
     0
174
     0
 93
        1
 44
0.0
173
     0
291
     1
 45
0.0
1001
ACAD
1000
AcDbSavedByObjectVersion
1070
     0
  0
VISUALSTYLE
  5
36
102
{ACAD_REACTORS
330
2A
102
}
102
{ACAD_XDICTIONARY
360
6EB
102
}
330
2A
100
AcDbVisualStyle
  2
Brighten
 70
    12
 71
     2
 72
     2
 73
     0
 90
        0
 40
-0.6
 41
-30.0
 62
     5
 63
     7
 74
     1
 91
        4
 64
     7
 65
   257
 75
     1
175
     1
 42
1.0
 92
        8
 66
     7
 43
1.0
 76
     1
 77
     6
 78
     2
 67
     7
 79
     5
170
     0
171
     0
290
     0
174
     0
 93
        1
 44
50.0
173
     0
291
     1
 45
0.0
1001
ACAD
1000
AcDbSavedByObjectVersion
1070
     0
  0
VISUALSTYLE
  5
3A
102
{ACAD_REACTORS
330
2A
102
}
102
{ACAD_XDICTIONARY
360
6F3
102
}
330
2A
100
AcDbVisualStyle
  2
ColorChange
 70
    16
 71
     2
 72
     2
 73
     3
 90
        0
 40
-0.6
 41
-30.0
 62
     5
 63
     8
 74
     1
 91
        4
 64
     7
 65
   257
 75
     1
175
     1
 42
1.0
 92
        8
 66
     8
 43
1.0
 76
     1
 77
     6
 78
     2
 67
     7
 79
     5
170
     0
171
     0
290
     0
174
     0
 93
        1
 44
0.0
173
     0
291
     1
 45
0.0
1001
ACAD
1000
AcDbSavedByObjectVersion
1070
     0
  0
VISUALSTYLE
  5
34
102
{ACAD_REACTORS
330
2A
102
}
102
{ACAD_XDICTIONARY
360
6E7
102
}
330
2A
100
AcDbVisualStyle
  2
Conceptual
 70
     9
 71
     3
 72
     2
 73
     0
 90
        0
 40
-0.6
 41
-30.0
 62
     5
 63
     7
 74
     2
 91
        2
 64
     7
 65
   257
 75
     1
175
     1
 42
40.0
 92
        8
 66
     7
 43
1.0
 76
     1
 77
     6
 78
     2
 67
     7
 79
     3
170
     0
171
     0
290
     0
174
     0
 93
        1
 44
0.0
173
     0
291
     0
 45
0.0
1001
ACAD
1000
AcDbSavedByObjectVersion
1070
     0
  0
VISUALSTYLE
  5
35
102
{ACAD_REACTORS
330
2A
102
}
102
{ACAD_XDICTIONARY
360
6E9
102
}
330
2A
100
AcDbVisualStyle
  2
Dim
 70
    11
 71
     2
 72
     2
 73
     0
 90
        0
 40
-0.6
 41
-30.0
 62
     5
 63
     7
 74
     1
 91
        4
 64
     7
 65
   257
 75
     1
175
     1
 42
1.0
 92
        8
 66
     7
 43
1.0
 76
     1
 77
     6
 78
     2
 67
     7
 79
     5
170
     0
171
     0
290
     0
174
     0
 93
        1
 44
-50.0
173
     0
291
     1
 45
0.0
1001
ACAD
1000
AcDbSavedByObjectVersion
1070
     0
  0
VISUALSTYLE
  5
39
102
{ACAD_REACTORS
330
2A
102
}
102
{ACAD_XDICTIONARY
360
6F1
102
}
330
2A
100
AcDbVisualStyle
  2
Facepattern
 70
    15
 71
     2
 72
     2
 73
     0
 90
        0
 40
-0.6
 41
-30.0
 62
     5
 63
     7
 74
     1
 91
        4
 64
     7
 65
   257
 75
     1
175
     1
 42
1.0
 92
        8
 66
     7
 43
1.0
 76
     1
 77
     6
 78
     2
 67
     7
 79
     5
170
     0
171
     0
290
     0
174
     0
 93
        1
 44
0.0
173
     0
291
     1
 45
0.0
1001
ACAD
1000
AcDbSavedByObjectVersion
1070
     0
  0
VISUALSTYLE
  5
2B
102
{ACAD_REACTORS
330
2A
102
}
102
{ACAD_XDICTIONARY
360
6D5
102
}
330
2A
100
AcDbVisualStyle
  2
Flat
 70
     0
 71
     2
 72
     1
 73
     1
 90
        2
 40
-0.6
 41
30.0
 62
     5
 63
     7
 74
     0
 91
        4
 64
     7
 65
   257
 75
     1
175
     1
 42
1.0
 92
        8
 66
     7
 43
1.0
 76
     1
 77
     6
 78
     2
 67
     7
 79
     5
170
     0
171
     0
290
     0
174
     0
 93
       13
 44
0.0
173
     0
291
     1
 45
0.0
1001
ACAD
1000
AcDbSavedByObjectVersion
1070
     0
  0
VISUALSTYLE
  5
2C
102
{ACAD_REACTORS
330
2A
102
}
102
{ACAD_XDICTIONARY
360
6D7
102
}
330
2A
100
AcDbVisualStyle
  2
FlatWithEdges
 70
     1
 71
     2
 72
     1
 73
     1
 90
        2
 40
-0.6
 41
30.0
 62
     5
 63
     7
 74
     1
 91
        4
 64
     7
 65
   257
 75
     1
175
     1
 42
1.0
 92
        0
 66
   257
 43
1.0
 76
     1
 77
     6
 78
     2
 67
     7
 79
     5
170
     0
171
     0
290
     0
174
     0
 93
       13
 44
0.0
173
     0
291
     1
 45
0.0
1001
ACAD
1000
AcDbSavedByObjectVersion
1070
     0
  0
VISUALSTYLE
  5
2D
102
{ACAD_REACTORS
330
2A
102
}
102
{ACAD_XDICTIONARY
360
6D9
102
}
330
2A
100
AcDbVisualStyle
  2
Gouraud
 70
     2
 71
     2
 72
     2
 73
     1
 90
        2
 40
-0.6
 41
30.0
 62
     5
 63
     7
 74
     0
 91
        4
 64
     7
 65
   257
 75
     1
175
     1
 42
1.0
 92
        0
 66
     7
 43
1.0
 76
     1
 77
     6
 78
     2
 67
     7
 79
     5
170
     0
171
     0
290
     0
174
     0
 93
       13
 44
0.0
173
     0
291
     1
 45
0.0
1001
ACAD
1000
AcDbSavedByObjectVersion
1070
     0
  0
VISUALSTYLE
  5
2E
102
{ACAD_REACTORS
330
2A
102
}
102
{ACAD_XDICTIONARY
360
6DB
102
}
330
2A
100
AcDbVisualStyle
  2
GouraudWithEdges
 70
     3
 71
     2
 72
     2
 73
     1
 90
        2
 40
-0.6
 41
30.0
 62
     5
 63
     7
 74
     1
 91
        4
 64
     7
 65
   257
 75
     1
175
     1
 42
1.0
 92
        0
 66
   257
 43
1.0
 76
     1
 77
     6
 78
     2
 67
     7
 79
     5
170
     0
171
     0
290
     0
174
     0
 93
       13
 44
0.0
173
     0
291
     1
 45
0.0
1001
ACAD
1000
AcDbSavedByObjectVersion
1070
     0
  0
VISUALSTYLE
  5
38
102
{ACAD_REACTORS
330
2A
102
}
102
{ACAD_XDICTIONARY
360
6EF
102
}
330
2A
100
AcDbVisualStyle
  2
Linepattern
 70
    14
 71
     2
 72
     2
 73
     0
 90
        0
 40
-0.6
 41
-30.0
 62
     5
 63
     7
 74
     1
 91
        4
 64
     7
 65
   257
 75
     7
175
     7
 42
1.0
 92
        8
 66
     7
 43
1.0
 76
     1
 77
     6
 78
     2
 67
     7
 79
     5
170
     0
171
     0
290
     0
174
     0
 93
        1
 44
0.0
173
     0
291
     1
 45
0.0
1001
ACAD
1000
AcDbSavedByObjectVersion
1070
     0
  0
VISUALSTYLE
  5
33
102
{ACAD_REACTORS
330
2A
102
}
102
{ACAD_XDICTIONARY
360
6E5
102
}
330
2A
100
AcDbVisualStyle
  2
Realistic
 70
     8
 71
     2
 72
     2
 73
     0
 90
        0
 40
-0.6
 41
-30.0
 62
     5
 63
     7
 74
     1
 91
        0
 64
     7
 65
   257
 75
     1
175
     1
 42
1.0
 92
        8
 66
     8
 43
1.0
 76
     1
 77
     6
 78
     2
 67
     7
 79
     5
170
     0
171
     0
290
     0
174
     0
 93
       13
 44
0.0
173
     0
291
     0
 45
0.0
1001
ACAD
1000
AcDbSavedByObjectVersion
1070
     0
  0
VISUALSTYLE
  5
37
102
{ACAD_REACTORS
330
2A
102
}
102
{ACAD_XDICTIONARY
360
6ED
102
}
330
2A
100
AcDbVisualStyle
  2
Thicken
 70
    13
 71
     2
 72
     2
 73
     0
 90
        0
 40
-0.6
 41
-30.0
 62
     5
 63
     7
 74
     1
 91
        4
 64
     7
 65
   257
 75
     1
175
     1
 42
1.0
 92
       12
 66
     7
 43
1.0
 76
     1
 77
     6
 78
     2
 67
     7
 79
     5
170
     0
171
     0
290
     0
174
     0
 93
        1
 44
0.0
173
     0
291
     1
 45
0.0
1001
ACAD
1000
AcDbSavedByObjectVersion
1070
     0
  0
DICTIONARYVAR
  5
6D2
102
{ACAD_REACTORS
330
6CF
102
}
330
6CF
100
DictionaryVariables
280
     0
  1
1:1
  0
DICTIONARYVAR
  5
6D3
102
{ACAD_REACTORS
330
6CF
102
}
330
6CF
100
DictionaryVariables
280
     0
  1
2
  0
DICTIONARYVAR
  5
6D4
102
{ACAD_REACTORS
330
6CF
102
}
330
6CF
100
DictionaryVariables
280
     0
  1
1
  0
DICTIONARY
  5
6F7
330
3D
100
AcDbDictionary
280
     1
281
     1
  3
ACAD_XREC_ROUNDTRIP
360
6F8
  0
DICTIONARY
  5
6F5
330
3C
100
AcDbDictionary
280
     1
281
     1
  3
ACAD_XREC_ROUNDTRIP
360
6F6
  0
DICTIONARY
  5
6F9
330
3E
100
AcDbDictionary
280
     1
281
     1
  3
ACAD_XREC_ROUNDTRIP
360
6FA
  0
DICTIONARY
  5
6DD
330
2F
100
AcDbDictionary
280
     1
281
     1
  3
ACAD_XREC_ROUNDTRIP
360
6DE
  0
DICTIONARY
  5
6E1
330
31
100
AcDbDictionary
280
     1
281
     1
  3
ACAD_XREC_ROUNDTRIP
360
6E2
  0
DICTIONARY
  5
6DF
330
30
100
AcDbDictionary
280
     1
281
     1
  3
ACAD_XREC_ROUNDTRIP
360
6E0
  0
DICTIONARY
  5
6E3
330
32
100
AcDbDictionary
280
     1
281
     1
  3
ACAD_XREC_ROUNDTRIP
360
6E4
  0
DICTIONARY
  5
6EB
330
36
100
AcDbDictionary
280
     1
281
     1
  3
ACAD_XREC_ROUNDTRIP
360
6EC
  0
DICTIONARY
  5
6F3
330
3A
100
AcDbDictionary
280
     1
281
     1
  3
ACAD_XREC_ROUNDTRIP
360
6F4
  0
DICTIONARY
  5
6E7
330
34
100
AcDbDictionary
280
     1
281
     1
  3
ACAD_XREC_ROUNDTRIP
360
6E8
  0
DICTIONARY
  5
6E9
330
35
100
AcDbDictionary
280
     1
281
     1
  3
ACAD_XREC_ROUNDTRIP
360
6EA
  0
DICTIONARY
  5
6F1
330
39
100
AcDbDictionary
280
     1
281
     1
  3
ACAD_XREC_ROUNDTRIP
360
6F2
  0
DICTIONARY
  5
6D5
330
2B
100
AcDbDictionary
280
     1
281
     1
  3
ACAD_XREC_ROUNDTRIP
360
6D6
  0
DICTIONARY
  5
6D7
330
2C
100
AcDbDictionary
280
     1
281
     1
  3
ACAD_XREC_ROUNDTRIP
360
6D8
  0
DICTIONARY
  5
6D9
330
2D
100
AcDbDictionary
280
     1
281
     1
  3
ACAD_XREC_ROUNDTRIP
360
6DA
  0
DICTIONARY
  5
6DB
330
2E
100
AcDbDictionary
280
     1
281
     1
  3
ACAD_XREC_ROUNDTRIP
360
6DC
  0
DICTIONARY
  5
6EF
330
38
100
AcDbDictionary
280
     1
281
     1
  3
ACAD_XREC_ROUNDTRIP
360
6F0
  0
DICTIONARY
  5
6E5
330
33
100
AcDbDictionary
280
     1
281
     1
  3
ACAD_XREC_ROUNDTRIP
360
6E6
  0
DICTIONARY
  5
6ED
330
37
100
AcDbDictionary
280
     1
281
     1
  3
ACAD_XREC_ROUNDTRIP
360
6EE
  0
XRECORD
  5
6F8
102
{ACAD_REACTORS
330
6F7
102
}
330
6F7
100
AcDbXrecord
280
     1
102
MATERIAL
148
0.0
149
0.0
149
0.0
 93
        0
 94
      127
282
     0
 72
     1
 77
     1
171
     1
175
     1
179
     1
273
     0
  0
XRECORD
  5
6F6
102
{ACAD_REACTORS
330
6F5
102
}
330
6F5
100
AcDbXrecord
280
     1
102
MATERIAL
148
0.0
149
0.0
149
0.0
 93
        0
 94
      127
282
     0
 72
     1
 77
     1
171
     1
175
     1
179
     1
273
     0
  0
XRECORD
  5
6FA
102
{ACAD_REACTORS
330
6F9
102
}
330
6F9
100
AcDbXrecord
280
     1
102
MATERIAL
148
0.0
149
0.0
149
0.0
 93
        0
 94
      127
282
     0
 72
     1
 77
     1
171
     1
175
     1
179
     1
273
     0
  0
XRECORD
  5
6DE
102
{ACAD_REACTORS
330
6DD
102
}
330
6DD
100
AcDbXrecord
280
     1
102
RTVSPropertyOp0
 70
     1
102
RTVSPropertyOp1
 70
     1
102
RTVSPropertyOp2
 70
     1
102
RTVSPropertyOp3
 70
     1
102
RTVSPropertyOp4
 70
     1
102
RTVSPropertyOp5
 70
     1
102
RTVSPropertyOp6
 70
     1
102
RTVSPropertyOp7
 70
     1
102
RTVSPropertyOp8
 70
     1
102
RTVSPropertyOp9
 70
     1
102
RTVSPropertyOp10
 70
     1
102
RTVSPropertyOp11
 70
     1
102
RTVSPropertyOp12
 70
     1
102
RTVSPropertyOp13
 70
     1
102
RTVSPropertyOp14
 70
     1
102
RTVSPropertyOp15
 70
     1
102
RTVSPropertyOp16
 70
     1
102
RTVSPropertyOp17
 70
     1
102
RTVSPropertyOp18
 70
     1
102
RTVSPropertyOp19
 70
     1
102
RTVSPropertyOp20
 70
     1
102
RTVSPropertyOp21
 70
     1
102
RTVSPropertyOp22
 70
     1
102
RTVSPropertyOp23
 70
     1
102
RTVSPropertyOp24
 70
     1
102
RTVSPropertyOp25
 70
     1
102
RTVSPropertyOp26
 70
     1
102
RTVSPropertyOp27
 70
     1
  0
XRECORD
  5
6E2
102
{ACAD_REACTORS
330
6E1
102
}
330
6E1
100
AcDbXrecord
280
     1
102
RTVSPropertyOp0
 70
     1
102
RTVSPropertyOp1
 70
     1
102
RTVSPropertyOp2
 70
     1
102
RTVSPropertyOp3
 70
     1
102
RTVSPropertyOp4
 70
     1
102
RTVSPropertyOp5
 70
     1
102
RTVSPropertyOp6
 70
     1
102
RTVSPropertyOp7
 70
     1
102
RTVSPropertyOp8
 70
     1
102
RTVSPropertyOp9
 70
     1
102
RTVSPropertyOp10
 70
     1
102
RTVSPropertyOp11
 70
     1
102
RTVSPropertyOp12
 70
     1
102
RTVSPropertyOp13
 70
     1
102
RTVSPropertyOp14
 70
     1
102
RTVSPropertyOp15
 70
     1
102
RTVSPropertyOp16
 70
     1
102
RTVSPropertyOp17
 70
     1
102
RTVSPropertyOp18
 70
     1
102
RTVSPropertyOp19
 70
     1
102
RTVSPropertyOp20
 70
     1
102
RTVSPropertyOp21
 70
     1
102
RTVSPropertyOp22
 70
     1
102
RTVSPropertyOp23
 70
     1
102
RTVSPropertyOp24
 70
     1
102
RTVSPropertyOp25
 70
     1
102
RTVSPropertyOp26
 70
     1
102
RTVSPropertyOp27
 70
     1
  0
XRECORD
  5
6E0
102
{ACAD_REACTORS
330
6DF
102
}
330
6DF
100
AcDbXrecord
280
     1
102
RTVSPropertyOp0
 70
     1
102
RTVSPropertyOp1
 70
     1
102
RTVSPropertyOp2
 70
     1
102
RTVSPropertyOp3
 70
     1
102
RTVSPropertyOp4
 70
     1
102
RTVSPropertyOp5
 70
     1
102
RTVSPropertyOp6
 70
     1
102
RTVSPropertyOp7
 70
     1
102
RTVSPropertyOp8
 70
     1
102
RTVSPropertyOp9
 70
     1
102
RTVSPropertyOp10
 70
     1
102
RTVSPropertyOp11
 70
     1
102
RTVSPropertyOp12
 70
     1
102
RTVSPropertyOp13
 70
     1
102
RTVSPropertyOp14
 70
     1
102
RTVSPropertyOp15
 70
     1
102
RTVSPropertyOp16
 70
     1
102
RTVSPropertyOp17
 70
     1
102
RTVSPropertyOp18
 70
     1
102
RTVSPropertyOp19
 70
     1
102
RTVSPropertyOp20
 70
     1
102
RTVSPropertyOp21
 70
     1
102
RTVSPropertyOp22
 70
     1
102
RTVSPropertyOp23
 70
     1
102
RTVSPropertyOp24
 70
     1
102
RTVSPropertyOp25
 70
     1
102
RTVSPropertyOp26
 70
     1
102
RTVSPropertyOp27
 70
     1
  0
XRECORD
  5
6E4
102
{ACAD_REACTORS
330
6E3
102
}
330
6E3
100
AcDbXrecord
280
     1
102
RTVSPropertyOp0
 70
     1
102
RTVSPropertyOp1
 70
     1
102
RTVSPropertyOp2
 70
     1
102
RTVSPropertyOp3
 70
     1
102
RTVSPropertyOp4
 70
     1
102
RTVSPropertyOp5
 70
     1
102
RTVSPropertyOp6
 70
     1
102
RTVSPropertyOp7
 70
     1
102
RTVSPropertyOp8
 70
     1
102
RTVSPropertyOp9
 70
     1
102
RTVSPropertyOp10
 70
     1
102
RTVSPropertyOp11
 70
     1
102
RTVSPropertyOp12
 70
     1
102
RTVSPropertyOp13
 70
     1
102
RTVSPropertyOp14
 70
     1
102
RTVSPropertyOp15
 70
     1
102
RTVSPropertyOp16
 70
     1
102
RTVSPropertyOp17
 70
     1
102
RTVSPropertyOp18
 70
     1
102
RTVSPropertyOp19
 70
     1
102
RTVSPropertyOp20
 70
     1
102
RTVSPropertyOp21
 70
     1
102
RTVSPropertyOp22
 70
     1
102
RTVSPropertyOp23
 70
     1
102
RTVSPropertyOp24
 70
     1
102
RTVSPropertyOp25
 70
     1
102
RTVSPropertyOp26
 70
     1
102
RTVSPropertyOp27
 70
     1
  0
XRECORD
  5
6EC
102
{ACAD_REACTORS
330
6EB
102
}
330
6EB
100
AcDbXrecord
280
     1
102
RTVSPropertyOp0
 70
     1
102
RTVSPropertyOp1
 70
     1
102
RTVSPropertyOp2
 70
     1
102
RTVSPropertyOp3
 70
     1
102
RTVSPropertyOp4
 70
     1
102
RTVSPropertyOp5
 70
     1
102
RTVSPropertyOp6
 70
     1
102
RTVSPropertyOp7
 70
     1
102
RTVSPropertyOp8
 70
     1
102
RTVSPropertyOp9
 70
     1
102
RTVSPropertyOp10
 70
     1
102
RTVSPropertyOp11
 70
     1
102
RTVSPropertyOp12
 70
     1
102
RTVSPropertyOp13
 70
     1
102
RTVSPropertyOp14
 70
     1
102
RTVSPropertyOp15
 70
     1
102
RTVSPropertyOp16
 70
     1
102
RTVSPropertyOp17
 70
     1
102
RTVSPropertyOp18
 70
     1
102
RTVSPropertyOp19
 70
     1
102
RTVSPropertyOp20
 70
     1
102
RTVSPropertyOp21
 70
     1
102
RTVSPropertyOp22
 70
     1
102
RTVSPropertyOp23
 70
     1
102
RTVSPropertyOp24
 70
     1
102
RTVSPropertyOp25
 70
     1
102
RTVSPropertyOp26
 70
     1
102
RTVSPropertyOp27
 70
     1
  0
XRECORD
  5
6F4
102
{ACAD_REACTORS
330
6F3
102
}
330
6F3
100
AcDbXrecord
280
     1
102
RTVSPropertyOp0
 70
     1
102
RTVSPropertyOp1
 70
     1
102
RTVSPropertyOp2
 70
     1
102
RTVSPropertyOp3
 70
     1
102
RTVSPropertyOp4
 70
     1
102
RTVSPropertyOp5
 70
     1
102
RTVSPropertyOp6
 70
     1
102
RTVSPropertyOp7
 70
     1
102
RTVSPropertyOp8
 70
     1
102
RTVSPropertyOp9
 70
     1
102
RTVSPropertyOp10
 70
     1
102
RTVSPropertyOp11
 70
     1
102
RTVSPropertyOp12
 70
     1
102
RTVSPropertyOp13
 70
     1
102
RTVSPropertyOp14
 70
     1
102
RTVSPropertyOp15
 70
     1
102
RTVSPropertyOp16
 70
     1
102
RTVSPropertyOp17
 70
     1
102
RTVSPropertyOp18
 70
     1
102
RTVSPropertyOp19
 70
     1
102
RTVSPropertyOp20
 70
     1
102
RTVSPropertyOp21
 70
     1
102
RTVSPropertyOp22
 70
     1
102
RTVSPropertyOp23
 70
     1
102
RTVSPropertyOp24
 70
     1
102
RTVSPropertyOp25
 70
     1
102
RTVSPropertyOp26
 70
     1
102
RTVSPropertyOp27
 70
     1
  0
XRECORD
  5
6E8
102
{ACAD_REACTORS
330
6E7
102
}
330
6E7
100
AcDbXrecord
280
     1
102
RTVSPropertyOp0
 70
     1
102
RTVSPropertyOp1
 70
     1
102
RTVSPropertyOp2
 70
     1
102
RTVSPropertyOp3
 70
     1
102
RTVSPropertyOp4
 70
     1
102
RTVSPropertyOp5
 70
     1
102
RTVSPropertyOp6
 70
     1
102
RTVSPropertyOp7
 70
     1
102
RTVSPropertyOp8
 70
     1
102
RTVSPropertyOp9
 70
     1
102
RTVSPropertyOp10
 70
     1
102
RTVSPropertyOp11
 70
     1
102
RTVSPropertyOp12
 70
     1
102
RTVSPropertyOp13
 70
     1
102
RTVSPropertyOp14
 70
     1
102
RTVSPropertyOp15
 70
     1
102
RTVSPropertyOp16
 70
     1
102
RTVSPropertyOp17
 70
     1
102
RTVSPropertyOp18
 70
     1
102
RTVSPropertyOp19
 70
     1
102
RTVSPropertyOp20
 70
     1
102
RTVSPropertyOp21
 70
     1
102
RTVSPropertyOp22
 70
     1
102
RTVSPropertyOp23
 70
     1
102
RTVSPropertyOp24
 70
     1
102
RTVSPropertyOp25
 70
     1
102
RTVSPropertyOp26
 70
     1
102
RTVSPropertyOp27
 70
     1
  0
XRECORD
  5
6EA
102
{ACAD_REACTORS
330
6E9
102
}
330
6E9
100
AcDbXrecord
280
     1
102
RTVSPropertyOp0
 70
     1
102
RTVSPropertyOp1
 70
     1
102
RTVSPropertyOp2
 70
     1
102
RTVSPropertyOp3
 70
     1
102
RTVSPropertyOp4
 70
     1
102
RTVSPropertyOp5
 70
     1
102
RTVSPropertyOp6
 70
     1
102
RTVSPropertyOp7
 70
     1
102
RTVSPropertyOp8
 70
     1
102
RTVSPropertyOp9
 70
     1
102
RTVSPropertyOp10
 70
     1
102
RTVSPropertyOp11
 70
     1
102
RTVSPropertyOp12
 70
     1
102
RTVSPropertyOp13
 70
     1
102
RTVSPropertyOp14
 70
     1
102
RTVSPropertyOp15
 70
     1
102
RTVSPropertyOp16
 70
     1
102
RTVSPropertyOp17
 70
     1
102
RTVSPropertyOp18
 70
     1
102
RTVSPropertyOp19
 70
     1
102
RTVSPropertyOp20
 70
     1
102
RTVSPropertyOp21
 70
     1
102
RTVSPropertyOp22
 70
     1
102
RTVSPropertyOp23
 70
     1
102
RTVSPropertyOp24
 70
     1
102
RTVSPropertyOp25
 70
     1
102
RTVSPropertyOp26
 70
     1
102
RTVSPropertyOp27
 70
     1
  0
XRECORD
  5
6F2
102
{ACAD_REACTORS
330
6F1
102
}
330
6F1
100
AcDbXrecord
280
     1
102
RTVSPropertyOp0
 70
     1
102
RTVSPropertyOp1
 70
     1
102
RTVSPropertyOp2
 70
     1
102
RTVSPropertyOp3
 70
     1
102
RTVSPropertyOp4
 70
     1
102
RTVSPropertyOp5
 70
     1
102
RTVSPropertyOp6
 70
     1
102
RTVSPropertyOp7
 70
     1
102
RTVSPropertyOp8
 70
     1
102
RTVSPropertyOp9
 70
     1
102
RTVSPropertyOp10
 70
     1
102
RTVSPropertyOp11
 70
     1
102
RTVSPropertyOp12
 70
     1
102
RTVSPropertyOp13
 70
     1
102
RTVSPropertyOp14
 70
     1
102
RTVSPropertyOp15
 70
     1
102
RTVSPropertyOp16
 70
     1
102
RTVSPropertyOp17
 70
     1
102
RTVSPropertyOp18
 70
     1
102
RTVSPropertyOp19
 70
     1
102
RTVSPropertyOp20
 70
     1
102
RTVSPropertyOp21
 70
     1
102
RTVSPropertyOp22
 70
     1
102
RTVSPropertyOp23
 70
     1
102
RTVSPropertyOp24
 70
     1
102
RTVSPropertyOp25
 70
     1
102
RTVSPropertyOp26
 70
     1
102
RTVSPropertyOp27
 70
     1
  0
XRECORD
  5
6D6
102
{ACAD_REACTORS
330
6D5
102
}
330
6D5
100
AcDbXrecord
280
     1
102
RTVSPropertyOp0
 70
     1
102
RTVSPropertyOp1
 70
     1
102
RTVSPropertyOp2
 70
     1
102
RTVSPropertyOp3
 70
     1
102
RTVSPropertyOp4
 70
     1
102
RTVSPropertyOp5
 70
     1
102
RTVSPropertyOp6
 70
     1
102
RTVSPropertyOp7
 70
     1
102
RTVSPropertyOp8
 70
     1
102
RTVSPropertyOp9
 70
     1
102
RTVSPropertyOp10
 70
     1
102
RTVSPropertyOp11
 70
     1
102
RTVSPropertyOp12
 70
     1
102
RTVSPropertyOp13
 70
     1
102
RTVSPropertyOp14
 70
     1
102
RTVSPropertyOp15
 70
     1
102
RTVSPropertyOp16
 70
     1
102
RTVSPropertyOp17
 70
     1
102
RTVSPropertyOp18
 70
     1
102
RTVSPropertyOp19
 70
     1
102
RTVSPropertyOp20
 70
     1
102
RTVSPropertyOp21
 70
     1
102
RTVSPropertyOp22
 70
     1
102
RTVSPropertyOp23
 70
     1
102
RTVSPropertyOp24
 70
     1
102
RTVSPropertyOp25
 70
     1
102
RTVSPropertyOp26
 70
     1
102
RTVSPropertyOp27
 70
     1
  0
XRECORD
  5
6D8
102
{ACAD_REACTORS
330
6D7
102
}
330
6D7
100
AcDbXrecord
280
     1
102
RTVSPropertyOp0
 70
     1
102
RTVSPropertyOp1
 70
     1
102
RTVSPropertyOp2
 70
     1
102
RTVSPropertyOp3
 70
     1
102
RTVSPropertyOp4
 70
     1
102
RTVSPropertyOp5
 70
     1
102
RTVSPropertyOp6
 70
     1
102
RTVSPropertyOp7
 70
     1
102
RTVSPropertyOp8
 70
     1
102
RTVSPropertyOp9
 70
     1
102
RTVSPropertyOp10
 70
     1
102
RTVSPropertyOp11
 70
     1
102
RTVSPropertyOp12
 70
     1
102
RTVSPropertyOp13
 70
     1
102
RTVSPropertyOp14
 70
     1
102
RTVSPropertyOp15
 70
     1
102
RTVSPropertyOp16
 70
     1
102
RTVSPropertyOp17
 70
     1
102
RTVSPropertyOp18
 70
     1
102
RTVSPropertyOp19
 70
     1
102
RTVSPropertyOp20
 70
     1
102
RTVSPropertyOp21
 70
     1
102
RTVSPropertyOp22
 70
     1
102
RTVSPropertyOp23
 70
     1
102
RTVSPropertyOp24
 70
     1
102
RTVSPropertyOp25
 70
     1
102
RTVSPropertyOp26
 70
     1
102
RTVSPropertyOp27
 70
     1
  0
XRECORD
  5
6DA
102
{ACAD_REACTORS
330
6D9
102
}
330
6D9
100
AcDbXrecord
280
     1
102
RTVSPropertyOp0
 70
     1
102
RTVSPropertyOp1
 70
     1
102
RTVSPropertyOp2
 70
     1
102
RTVSPropertyOp3
 70
     1
102
RTVSPropertyOp4
 70
     1
102
RTVSPropertyOp5
 70
     1
102
RTVSPropertyOp6
 70
     1
102
RTVSPropertyOp7
 70
     1
102
RTVSPropertyOp8
 70
     1
102
RTVSPropertyOp9
 70
     1
102
RTVSPropertyOp10
 70
     1
102
RTVSPropertyOp11
 70
     1
102
RTVSPropertyOp12
 70
     1
102
RTVSPropertyOp13
 70
     1
102
RTVSPropertyOp14
 70
     1
102
RTVSPropertyOp15
 70
     1
102
RTVSPropertyOp16
 70
     1
102
RTVSPropertyOp17
 70
     1
102
RTVSPropertyOp18
 70
     1
102
RTVSPropertyOp19
 70
     1
102
RTVSPropertyOp20
 70
     1
102
RTVSPropertyOp21
 70
     1
102
RTVSPropertyOp22
 70
     1
102
RTVSPropertyOp23
 70
     1
102
RTVSPropertyOp24
 70
     1
102
RTVSPropertyOp25
 70
     1
102
RTVSPropertyOp26
 70
     1
102
RTVSPropertyOp27
 70
     1
  0
XRECORD
  5
6DC
102
{ACAD_REACTORS
330
6DB
102
}
330
6DB
100
AcDbXrecord
280
     1
102
RTVSPropertyOp0
 70
     1
102
RTVSPropertyOp1
 70
     1
102
RTVSPropertyOp2
 70
     1
102
RTVSPropertyOp3
 70
     1
102
RTVSPropertyOp4
 70
     1
102
RTVSPropertyOp5
 70
     1
102
RTVSPropertyOp6
 70
     1
102
RTVSPropertyOp7
 70
     1
102
RTVSPropertyOp8
 70
     1
102
RTVSPropertyOp9
 70
     1
102
RTVSPropertyOp10
 70
     1
102
RTVSPropertyOp11
 70
     1
102
RTVSPropertyOp12
 70
     1
102
RTVSPropertyOp13
 70
     1
102
RTVSPropertyOp14
 70
     1
102
RTVSPropertyOp15
 70
     1
102
RTVSPropertyOp16
 70
     1
102
RTVSPropertyOp17
 70
     1
102
RTVSPropertyOp18
 70
     1
102
RTVSPropertyOp19
 70
     1
102
RTVSPropertyOp20
 70
     1
102
RTVSPropertyOp21
 70
     1
102
RTVSPropertyOp22
 70
     1
102
RTVSPropertyOp23
 70
     1
102
RTVSPropertyOp24
 70
     1
102
RTVSPropertyOp25
 70
     1
102
RTVSPropertyOp26
 70
     1
102
RTVSPropertyOp27
 70
     1
  0
XRECORD
  5
6F0
102
{ACAD_REACTORS
330
6EF
102
}
330
6EF
100
AcDbXrecord
280
     1
102
RTVSPropertyOp0
 70
     1
102
RTVSPropertyOp1
 70
     1
102
RTVSPropertyOp2
 70
     1
102
RTVSPropertyOp3
 70
     1
102
RTVSPropertyOp4
 70
     1
102
RTVSPropertyOp5
 70
     1
102
RTVSPropertyOp6
 70
     1
102
RTVSPropertyOp7
 70
     1
102
RTVSPropertyOp8
 70
     1
102
RTVSPropertyOp9
 70
     1
102
RTVSPropertyOp10
 70
     1
102
RTVSPropertyOp11
 70
     1
102
RTVSPropertyOp12
 70
     1
102
RTVSPropertyOp13
 70
     1
102
RTVSPropertyOp14
 70
     1
102
RTVSPropertyOp15
 70
     1
102
RTVSPropertyOp16
 70
     1
102
RTVSPropertyOp17
 70
     1
102
RTVSPropertyOp18
 70
     1
102
RTVSPropertyOp19
 70
     1
102
RTVSPropertyOp20
 70
     1
102
RTVSPropertyOp21
 70
     1
102
RTVSPropertyOp22
 70
     1
102
RTVSPropertyOp23
 70
     1
102
RTVSPropertyOp24
 70
     1
102
RTVSPropertyOp25
 70
     1
102
RTVSPropertyOp26
 70
     1
102
RTVSPropertyOp27
 70
     1
  0
XRECORD
  5
6E6
102
{ACAD_REACTORS
330
6E5
102
}
330
6E5
100
AcDbXrecord
280
     1
102
RTVSPropertyOp0
 70
     1
102
RTVSPropertyOp1
 70
     1
102
RTVSPropertyOp2
 70
     1
102
RTVSPropertyOp3
 70
     1
102
RTVSPropertyOp4
 70
     1
102
RTVSPropertyOp5
 70
     1
102
RTVSPropertyOp6
 70
     1
102
RTVSPropertyOp7
 70
     1
102
RTVSPropertyOp8
 70
     1
102
RTVSPropertyOp9
 70
     1
102
RTVSPropertyOp10
 70
     1
102
RTVSPropertyOp11
 70
     1
102
RTVSPropertyOp12
 70
     1
102
RTVSPropertyOp13
 70
     1
102
RTVSPropertyOp14
 70
     1
102
RTVSPropertyOp15
 70
     1
102
RTVSPropertyOp16
 70
     1
102
RTVSPropertyOp17
 70
     1
102
RTVSPropertyOp18
 70
     1
102
RTVSPropertyOp19
 70
     1
102
RTVSPropertyOp20
 70
     1
102
RTVSPropertyOp21
 70
     1
102
RTVSPropertyOp22
 70
     1
102
RTVSPropertyOp23
 70
     1
102
RTVSPropertyOp24
 70
     1
102
RTVSPropertyOp25
 70
     1
102
RTVSPropertyOp26
 70
     1
102
RTVSPropertyOp27
 70
     1
  0
XRECORD
  5
6EE
102
{ACAD_REACTORS
330
6ED
102
}
330
6ED
100
AcDbXrecord
280
     1
102
RTVSPropertyOp0
 70
     1
102
RTVSPropertyOp1
 70
     1
102
RTVSPropertyOp2
 70
     1
102
RTVSPropertyOp3
 70
     1
102
RTVSPropertyOp4
 70
     1
102
RTVSPropertyOp5
 70
     1
102
RTVSPropertyOp6
 70
     1
102
RTVSPropertyOp7
 70
     1
102
RTVSPropertyOp8
 70
     1
102
RTVSPropertyOp9
 70
     1
102
RTVSPropertyOp10
 70
     1
102
RTVSPropertyOp11
 70
     1
102
RTVSPropertyOp12
 70
     1
102
RTVSPropertyOp13
 70
     1
102
RTVSPropertyOp14
 70
     1
102
RTVSPropertyOp15
 70
     1
102
RTVSPropertyOp16
 70
     1
102
RTVSPropertyOp17
 70
     1
102
RTVSPropertyOp18
 70
     1
102
RTVSPropertyOp19
 70
     1
102
RTVSPropertyOp20
 70
     1
102
RTVSPropertyOp21
 70
     1
102
RTVSPropertyOp22
 70
     1
102
RTVSPropertyOp23
 70
     1
102
RTVSPropertyOp24
 70
     1
102
RTVSPropertyOp25
 70
     1
102
RTVSPropertyOp26
 70
     1
102
RTVSPropertyOp27
 70
     1
  0
ENDSEC
  0
EOF
