  0
SECTION
  2
HEADER
  9
$ACADVER
  1
AC1015
  9
$ACADMAINTVER
 70
     6
  9
$DWGCODEPAGE
  3
ANSI_932
  9
$INSBASE
 10
0.0
 20
0.0
 30
0.0
  9
$EXTMIN
 10
-537.6000052988529
 20
-361.3500034734607
 30
0.0
  9
$EXTMAX
 10
529.2000105977058
 20
337.9500069469214
 30
0.0
  9
$LIMMIN
 10
-182.0
 20
-128.5
  9
$LIMMAX
 10
182.0
 20
128.5
  9
$ORTHOMODE
 70
     0
  9
$REGENMODE
 70
     1
  9
$FILLMODE
 70
     1
  9
$QTEXTMODE
 70
     0
  9
$MIRRTEXT
 70
     1
  9
$LTSCALE
 40
0.25
  9
$ATTMODE
 70
     1
  9
$TEXTSIZE
 40
0.2
  9
$TRACEWID
 40
0.05
  9
$TEXTSTYLE
  7
Standard
  9
$CLAYER
  8
0
  9
$CELTYPE
  6
ByLayer
  9
$CECOLOR
 62
   256
  9
$CELTSCALE
 40
1.0
  9
$DISPSILH
 70
     0
  9
$DIMSCALE
 40
1.0
  9
$DIMASZ
 40
3.000001882570243
  9
$DIMEXO
 40
1.0
  9
$DIMDLI
 40
10.0
  9
$DIMRND
 40
0.0
  9
$DIMDLE
 40
0.0
  9
$DIMEXE
 40
1.0
  9
$DIMTP
 40
0.0
  9
$DIMTM
 40
0.0
  9
$DIMTXT
 40
3.0
  9
$DIMCEN
 40
0.0
  9
$DIMTSZ
 40
0.0
  9
$DIMTOL
 70
     0
  9
$DIMLIM
 70
     0
  9
$DIMTIH
 70
     0
  9
$DIMTOH
 70
     0
  9
$DIMSE1
 70
     0
  9
$DIMSE2
 70
     0
  9
$DIMTAD
 70
     1
  9
$DIMZIN
 70
     8
  9
$DIMBLK
  1

  9
$DIMASO
 70
     1
  9
$DIMSHO
 70
     1
  9
$DIMPOST
  1

  9
$DIMAPOST
  1

  9
$DIMALT
 70
     0
  9
$DIMALTD
 70
     2
  9
$DIMALTF
 40
25.4
  9
$DIMLFAC
 40
1.0
  9
$DIMTOFL
 70
     0
  9
$DIMTVP
 40
0.0
  9
$DIMTIX
 70
     0
  9
$DIMSOXD
 70
     0
  9
$DIMSAH
 70
     0
  9
$DIMBLK1
  1

  9
$DIMBLK2
  1

  9
$DIMSTYLE
  2
Standard
  9
$DIMCLRD
 70
     0
  9
$DIMCLRE
 70
     0
  9
$DIMCLRT
 70
     0
  9
$DIMTFAC
 40
0.65
  9
$DIMGAP
 40
0.09
  9
$DIMJUST
 70
     0
  9
$DIMSD1
 70
     0
  9
$DIMSD2
 70
     0
  9
$DIMTOLJ
 70
     0
  9
$DIMTZIN
 70
     0
  9
$DIMALTZ
 70
     0
  9
$DIMALTTZ
 70
     0
  9
$DIMUPT
 70
     0
  9
$DIMDEC
 70
     2
  9
$DIMTDEC
 70
     2
  9
$DIMALTU
 70
     2
  9
$DIMALTTD
 70
     2
  9
$DIMTXSTY
  7
Standard
  9
$DIMAUNIT
 70
     0
  9
$DIMADEC
 70
     2
  9
$DIMALTRND
 40
0.0
  9
$DIMAZIN
 70
     2
  9
$DIMDSEP
 70
    46
  9
$DIMATFIT
 70
     3
  9
$DIMFRAC
 70
     0
  9
$DIMLDRBLK
  1

  9
$DIMLUNIT
 70
     2
  9
$DIMLWD
 70
    -2
  9
$DIMLWE
 70
    -2
  9
$DIMTMOVE
 70
     0
  9
$LUNITS
 70
     2
  9
$LUPREC
 70
     4
  9
$SKETCHINC
 40
0.1
  9
$FILLETRAD
 40
0.5
  9
$AUNITS
 70
     0
  9
$AUPREC
 70
     0
  9
$MENU
  1
.
  9
$ELEVATION
 40
0.0
  9
$PELEVATION
 40
0.0
  9
$THICKNESS
 40
0.0
  9
$LIMCHECK
 70
     0
  9
$CHAMFERA
 40
0.5
  9
$CHAMFERB
 40
0.5
  9
$CHAMFERC
 40
1.0
  9
$CHAMFERD
 40
0.0
  9
$SKPOLY
 70
     0
  9
$TDCREATE
 40
2459606.98578191
  9
$TDUCREATE
 40
2459606.61078191
  9
$TDUPDATE
 40
2459606.985781921
  9
$TDUUPDATE
 40
2459606.610781921
  9
$TDINDWG
 40
0.0000000116
  9
$TDUSRTIMER
 40
0.0000000116
  9
$USRTIMER
 70
     1
  9
$ANGBASE
 50
0.0
  9
$ANGDIR
 70
     0
  9
$PDMODE
 70
     0
  9
$PDSIZE
 40
1.0
  9
$PLINEWID
 40
0.0
  9
$SPLFRAME
 70
     0
  9
$SPLINETYPE
 70
     6
  9
$SPLINESEGS
 70
     8
  9
$HANDSEED
  5
616
  9
$SURFTAB1
 70
     6
  9
$SURFTAB2
 70
     6
  9
$SURFTYPE
 70
     6
  9
$SURFU
 70
     6
  9
$SURFV
 70
     6
  9
$UCSBASE
  2

  9
$UCSNAME
  2

  9
$UCSORG
 10
0.0
 20
0.0
 30
0.0
  9
$UCSXDIR
 10
1.0
 20
0.0
 30
0.0
  9
$UCSYDIR
 10
0.0
 20
1.0
 30
0.0
  9
$UCSORTHOREF
  2

  9
$UCSORTHOVIEW
 70
     0
  9
$UCSORGTOP
 10
0.0
 20
0.0
 30
0.0
  9
$UCSORGBOTTOM
 10
0.0
 20
0.0
 30
0.0
  9
$UCSORGLEFT
 10
0.0
 20
0.0
 30
0.0
  9
$UCSORGRIGHT
 10
0.0
 20
0.0
 30
0.0
  9
$UCSORGFRONT
 10
0.0
 20
0.0
 30
0.0
  9
$UCSORGBACK
 10
0.0
 20
0.0
 30
0.0
  9
$PUCSBASE
  2

  9
$PUCSNAME
  2

  9
$PUCSORG
 10
0.0
 20
0.0
 30
0.0
  9
$PUCSXDIR
 10
1.0
 20
0.0
 30
0.0
  9
$PUCSYDIR
 10
0.0
 20
1.0
 30
0.0
  9
$PUCSORTHOREF
  2

  9
$PUCSORTHOVIEW
 70
     0
  9
$PUCSORGTOP
 10
0.0
 20
0.0
 30
0.0
  9
$PUCSORGBOTTOM
 10
0.0
 20
0.0
 30
0.0
  9
$PUCSORGLEFT
 10
0.0
 20
0.0
 30
0.0
  9
$PUCSORGRIGHT
 10
0.0
 20
0.0
 30
0.0
  9
$PUCSORGFRONT
 10
0.0
 20
0.0
 30
0.0
  9
$PUCSORGBACK
 10
0.0
 20
0.0
 30
0.0
  9
$USERI1
 70
     0
  9
$USERI2
 70
     0
  9
$USERI3
 70
     0
  9
$USERI4
 70
     0
  9
$USERI5
 70
     0
  9
$USERR1
 40
0.0
  9
$USERR2
 40
0.0
  9
$USERR3
 40
0.0
  9
$USERR4
 40
0.0
  9
$USERR5
 40
0.0
  9
$WORLDVIEW
 70
     1
  9
$SHADEDGE
 70
     3
  9
$SHADEDIF
 70
    70
  9
$TILEMODE
 70
     1
  9
$MAXACTVP
 70
    64
  9
$PINSBASE
 10
0.0
 20
0.0
 30
0.0
  9
$PLIMCHECK
 70
     0
  9
$PEXTMIN
 10
1.000000000000000E+20
 20
1.000000000000000E+20
 30
1.000000000000000E+20
  9
$PEXTMAX
 10
-1.000000000000000E+20
 20
-1.000000000000000E+20
 30
-1.000000000000000E+20
  9
$PLIMMIN
 10
0.0
 20
0.0
  9
$PLIMMAX
 10
12.0
 20
9.0
  9
$UNITMODE
 70
     0
  9
$VISRETAIN
 70
     0
  9
$PLINEGEN
 70
     1
  9
$PSLTSCALE
 70
     0
  9
$TREEDEPTH
 70
  3020
  9
$CMLSTYLE
  2
Standard
  9
$CMLJUST
 70
     0
  9
$CMLSCALE
 40
1.0
  9
$PROXYGRAPHICS
 70
     0
  9
$MEASUREMENT
 70
     1
  9
$CELWEIGHT
370
    -1
  9
$ENDCAPS
280
     0
  9
$JOINSTYLE
280
     0
  9
$LWDISPLAY
290
     1
  9
$INSUNITS
 70
     4
  9
$HYPERLINKBASE
  1

  9
$STYLESHEET
  1

  9
$XEDIT
290
     1
  9
$CEPSNTYPE
380
     0
  9
$PSTYLEMODE
290
     1
  9
$FINGERPRINTGUID
  2
{0E915708-47B7-420C-9906-1DC4206C836D}
  9
$VERSIONGUID
  2
{FAEB1C32-E019-11D5-929B-00C0DF256EC4}
  9
$EXTNAMES
290
     1
  9
$PSVPSCALE
 40
0.0
  9
$OLESTARTUP
290
     0
  0
ENDSEC
  0
SECTION
  2
CLASSES
  0
CLASS
  1
ACDBDICTIONARYWDFLT
  2
AcDbDictionaryWithDefault
  3
ObjectDBX Classes
 90
        0
280
     0
281
     0
  0
CLASS
  1
VISUALSTYLE
  2
AcDbVisualStyle
  3
ObjectDBX Classes
 90
     4095
280
     0
281
     0
  0
CLASS
  1
MATERIAL
  2
AcDbMaterial
  3
ObjectDBX Classes
 90
     1153
280
     0
281
     0
  0
CLASS
  1
SCALE
  2
AcDbScale
  3
ObjectDBX Classes
 90
     1153
280
     0
281
     0
  0
CLASS
  1
DICTIONARYVAR
  2
AcDbDictionaryVar
  3
ObjectDBX Classes
 90
        0
280
     0
281
     0
  0
CLASS
  1
ACDBPLACEHOLDER
  2
AcDbPlaceHolder
  3
ObjectDBX Classes
 90
        0
280
     0
281
     0
  0
CLASS
  1
LAYOUT
  2
AcDbLayout
  3
ObjectDBX Classes
 90
        0
280
     0
281
     0
  0
ENDSEC
  0
SECTION
  2
TABLES
  0
TABLE
  2
VPORT
  5
8
330
0
100
AcDbSymbolTable
 70
     1
  0
VPORT
  5
29
330
8
100
AcDbSymbolTableRecord
100
AcDbViewportTableRecord
  2
*Active
 70
     0
 10
0.0
 20
0.0
 11
1.0
 21
1.0
 12
-4.199997350573543
 22
-11.69999826326965
 13
0.0
 23
0.0
 14
0.5
 24
0.5
 15
0.5
 25
0.5
 16
0.0
 26
0.0
 36
1.0
 17
0.0
 27
0.0
 37
0.0
 40
237.7620035429299
 41
1.525525525525525
 42
50.0
 43
0.0
 44
0.0
 50
0.0
 51
0.0
 71
     0
 72
  1000
 73
     1
 74
     1
 75
     0
 76
     0
 77
     0
 78
     0
281
     0
 65
     1
110
0.0
120
0.0
130
0.0
111
1.0
121
0.0
131
0.0
112
0.0
122
1.0
132
0.0
 79
     0
146
0.0
  0
ENDTAB
  0
TABLE
  2
LTYPE
  5
5
330
0
100
AcDbSymbolTable
 70
    53
  0
LTYPE
  5
14
330
5
100
AcDbSymbolTableRecord
100
AcDbLinetypeTableRecord
  2
ByBlock
 70
     0
  3

 72
    65
 73
     0
 40
0.0
  0
LTYPE
  5
15
330
5
100
AcDbSymbolTableRecord
100
AcDbLinetypeTableRecord
  2
ByLayer
 70
     0
  3

 72
    65
 73
     0
 40
0.0
  0
LTYPE
  5
16
330
5
100
AcDbSymbolTableRecord
100
AcDbLinetypeTableRecord
  2
Continuous
 70
     0
  3
Solid line
 72
    65
 73
     0
 40
0.0
  0
LTYPE
  5
40
330
5
100
AcDbSymbolTableRecord
100
AcDbLinetypeTableRecord
  2
HIDDENX2
 70
     0
  3
Hidden (2x) ____ ____ ____ ____ ____ ____ ____ 
 72
    65
 73
     2
 40
19.05
 49
12.7
 74
     0
 49
-6.35
 74
     0
  0
LTYPE
  5
41
330
5
100
AcDbSymbolTableRecord
100
AcDbLinetypeTableRecord
  2
HIDDEN
 70
     0
  3
Hidden __ __ __ __ __ __ __ __ __ __ __ __ __ __
 72
    65
 73
     2
 40
9.524999999999999
 49
6.35
 74
     0
 49
-3.175
 74
     0
  0
LTYPE
  5
42
330
5
100
AcDbSymbolTableRecord
100
AcDbLinetypeTableRecord
  2
HIDDEN2
 70
     0
  3
Hidden (.5x) _ _ _ _ _ _ _ _ _ _ _ _ _ _ _ _ _ 
 72
    65
 73
     2
 40
4.762499999999999
 49
3.175
 74
     0
 49
-1.5875
 74
     0
  0
LTYPE
  5
43
330
5
100
AcDbSymbolTableRecord
100
AcDbLinetypeTableRecord
  2
DASHED
 70
     0
  3
Dashed __ __ __ __ __ __ __ __ __ __ __ __ __ _
 72
    65
 73
     2
 40
19.05
 49
12.7
 74
     0
 49
-6.35
 74
     0
  0
LTYPE
  5
44
330
5
100
AcDbSymbolTableRecord
100
AcDbLinetypeTableRecord
  2
DASHED2
 70
     0
  3
Dashed (.5x) _ _ _ _ _ _ _ _ _ _ _ _ _ _ _ _ _ 
 72
    65
 73
     2
 40
9.524999999999999
 49
6.35
 74
     0
 49
-3.175
 74
     0
  0
LTYPE
  5
45
330
5
100
AcDbSymbolTableRecord
100
AcDbLinetypeTableRecord
  2
DASHEDX2
 70
     0
  3
Dashed (2x) ____  ____  ____  ____  ____  ___
 72
    65
 73
     2
 40
38.09999999999999
 49
25.4
 74
     0
 49
-12.7
 74
     0
  0
LTYPE
  5
46
330
5
100
AcDbSymbolTableRecord
100
AcDbLinetypeTableRecord
  2
DOTX2
 70
     0
  3
Dot (2x) .  .  .  .  .  .  .  .  .  .  .  .  .  .
 72
    65
 73
     2
 40
12.7
 49
0.0
 74
     0
 49
-12.7
 74
     0
  0
LTYPE
  5
47
330
5
100
AcDbSymbolTableRecord
100
AcDbLinetypeTableRecord
  2
DOT
 70
     0
  3
Dot . . . . . . . . . . . . . . . . . . . . . . . .
 72
    65
 73
     2
 40
6.35
 49
0.0
 74
     0
 49
-6.35
 74
     0
  0
LTYPE
  5
48
330
5
100
AcDbSymbolTableRecord
100
AcDbLinetypeTableRecord
  2
DOT2
 70
     0
  3
Dot (.5x) ........................................
 72
    65
 73
     2
 40
3.175
 49
0.0
 74
     0
 49
-3.175
 74
     0
  0
LTYPE
  5
49
330
5
100
AcDbSymbolTableRecord
100
AcDbLinetypeTableRecord
  2
CENTERX2
 70
     0
  3
Center (2x) ________  __  ________  __  _____
 72
    65
 73
     4
 40
101.6
 49
63.5
 74
     0
 49
-12.7
 74
     0
 49
12.7
 74
     0
 49
-12.7
 74
     0
  0
LTYPE
  5
4A
330
5
100
AcDbSymbolTableRecord
100
AcDbLinetypeTableRecord
  2
CENTER
 70
     0
  3
Center ____ _ ____ _ ____ _ ____ _ ____ _ ____
 72
    65
 73
     4
 40
50.8
 49
31.75
 74
     0
 49
-6.35
 74
     0
 49
6.35
 74
     0
 49
-6.35
 74
     0
  0
LTYPE
  5
4B
330
5
100
AcDbSymbolTableRecord
100
AcDbLinetypeTableRecord
  2
CENTER2
 70
     0
  3
Center (.5x) ___ _ ___ _ ___ _ ___ _ ___ _ ___
 72
    65
 73
     4
 40
28.575
 49
19.05
 74
     0
 49
-3.175
 74
     0
 49
3.175
 74
     0
 49
-3.175
 74
     0
  0
LTYPE
  5
4C
330
5
100
AcDbSymbolTableRecord
100
AcDbLinetypeTableRecord
  2
DASHDOTX2
 70
     0
  3
Dash dot (2x) ____  .  ____  .  ____  .  ___
 72
    65
 73
     4
 40
50.8
 49
25.4
 74
     0
 49
-12.7
 74
     0
 49
0.0
 74
     0
 49
-12.7
 74
     0
  0
LTYPE
  5
4D
330
5
100
AcDbSymbolTableRecord
100
AcDbLinetypeTableRecord
  2
DASHDOT
 70
     0
  3
Dash dot __ . __ . __ . __ . __ . __ . __ . __
 72
    65
 73
     4
 40
25.4
 49
12.7
 74
     0
 49
-6.35
 74
     0
 49
0.0
 74
     0
 49
-6.35
 74
     0
  0
LTYPE
  5
4E
330
5
100
AcDbSymbolTableRecord
100
AcDbLinetypeTableRecord
  2
DASHDOT2
 70
     0
  3
Dash dot (.5x) _._._._._._._._._._._._._._._.
 72
    65
 73
     4
 40
12.7
 49
6.35
 74
     0
 49
-3.175
 74
     0
 49
0.0
 74
     0
 49
-3.175
 74
     0
  0
LTYPE
  5
4F
330
5
100
AcDbSymbolTableRecord
100
AcDbLinetypeTableRecord
  2
DIVIDEX2
 70
     0
  3
Divide (2x) ________  .  .  ________  .  .  _
 72
    65
 73
     6
 40
63.5
 49
25.4
 74
     0
 49
-12.7
 74
     0
 49
0.0
 74
     0
 49
-12.7
 74
     0
 49
0.0
 74
     0
 49
-12.7
 74
     0
  0
LTYPE
  5
50
330
5
100
AcDbSymbolTableRecord
100
AcDbLinetypeTableRecord
  2
DIVIDE
 70
     0
  3
Divide ____ . . ____ . . ____ . . ____ . . ____
 72
    65
 73
     6
 40
31.75
 49
12.7
 74
     0
 49
-6.35
 74
     0
 49
0.0
 74
     0
 49
-6.35
 74
     0
 49
0.0
 74
     0
 49
-6.35
 74
     0
  0
LTYPE
  5
51
330
5
100
AcDbSymbolTableRecord
100
AcDbLinetypeTableRecord
  2
DIVIDE2
 70
     0
  3
Divide (.5x) __..__..__..__..__..__..__..__.._
 72
    65
 73
     6
 40
15.875
 49
6.35
 74
     0
 49
-3.175
 74
     0
 49
0.0
 74
     0
 49
-3.175
 74
     0
 49
0.0
 74
     0
 49
-3.175
 74
     0
  0
LTYPE
  5
52
330
5
100
AcDbSymbolTableRecord
100
AcDbLinetypeTableRecord
  2
BORDERX2
 70
     0
  3
Border (2x) ____  ____  .  ____  ____  .  ___
 72
    65
 73
     6
 40
88.89999999999999
 49
25.4
 74
     0
 49
-12.7
 74
     0
 49
25.4
 74
     0
 49
-12.7
 74
     0
 49
0.0
 74
     0
 49
-12.7
 74
     0
  0
LTYPE
  5
53
330
5
100
AcDbSymbolTableRecord
100
AcDbLinetypeTableRecord
  2
BORDER
 70
     0
  3
Border __ __ . __ __ . __ __ . __ __ . __ __ .
 72
    65
 73
     6
 40
44.45
 49
12.7
 74
     0
 49
-6.35
 74
     0
 49
12.7
 74
     0
 49
-6.35
 74
     0
 49
0.0
 74
     0
 49
-6.35
 74
     0
  0
LTYPE
  5
54
330
5
100
AcDbSymbolTableRecord
100
AcDbLinetypeTableRecord
  2
BORDER2
 70
     0
  3
Border (.5x) __.__.__.__.__.__.__.__.__.__.__.
 72
    65
 73
     6
 40
22.225
 49
6.35
 74
     0
 49
-3.175
 74
     0
 49
6.35
 74
     0
 49
-3.175
 74
     0
 49
0.0
 74
     0
 49
-3.175
 74
     0
  0
LTYPE
  5
55
330
5
100
AcDbSymbolTableRecord
100
AcDbLinetypeTableRecord
  2
PHANTOMX2
 70
     0
  3
Phantom (2x) ____________    ____    ____   _
 72
    65
 73
     6
 40
127.0
 49
63.5
 74
     0
 49
-12.7
 74
     0
 49
12.7
 74
     0
 49
-12.7
 74
     0
 49
12.7
 74
     0
 49
-12.7
 74
     0
  0
LTYPE
  5
56
330
5
100
AcDbSymbolTableRecord
100
AcDbLinetypeTableRecord
  2
PHANTOM
 70
     0
  3
Phantom ______  __  __  ______  __  __  ______ 
 72
    65
 73
     6
 40
63.5
 49
31.75
 74
     0
 49
-6.35
 74
     0
 49
6.35
 74
     0
 49
-6.35
 74
     0
 49
6.35
 74
     0
 49
-6.35
 74
     0
  0
LTYPE
  5
57
330
5
100
AcDbSymbolTableRecord
100
AcDbLinetypeTableRecord
  2
PHANTOM2
 70
     0
  3
Phantom (.5x) ___ _ _ ___ _ _ ___ _ _ ___ _ _
 72
    65
 73
     6
 40
31.75
 49
15.875
 74
     0
 49
-3.175
 74
     0
 49
3.175
 74
     0
 49
-3.175
 74
     0
 49
3.175
 74
     0
 49
-3.175
 74
     0
  0
LTYPE
  5
58
330
5
100
AcDbSymbolTableRecord
100
AcDbLinetypeTableRecord
  2
ACAD_ISO06W100
 70
     0
  3
ISO long-dash triple-dot ____ ... ____ ... ____
 72
    65
 73
     8
 40
36.0
 49
24.0
 74
     0
 49
-3.0
 74
     0
 49
0.0
 74
     0
 49
-3.0
 74
     0
 49
0.0
 74
     0
 49
-3.0
 74
     0
 49
0.0
 74
     0
 49
-3.0
 74
     0
  0
LTYPE
  5
59
330
5
100
AcDbSymbolTableRecord
100
AcDbLinetypeTableRecord
  2
ACAD_ISO13W100
 70
     0
  3
ISO double-dash double-dot __ __ . . __ __ . . _
 72
    65
 73
     8
 40
36.0
 49
12.0
 74
     0
 49
-3.0
 74
     0
 49
12.0
 74
     0
 49
-3.0
 74
     0
 49
0.0
 74
     0
 49
-3.0
 74
     0
 49
0.0
 74
     0
 49
-3.0
 74
     0
  0
LTYPE
  5
5A
330
5
100
AcDbSymbolTableRecord
100
AcDbLinetypeTableRecord
  2
ACAD_ISO14W100
 70
     0
  3
ISO dash triple-dot __ . . . __ . . . __ . . . _
 72
    65
 73
     8
 40
24.0
 49
12.0
 74
     0
 49
-3.0
 74
     0
 49
0.0
 74
     0
 49
-3.0
 74
     0
 49
0.0
 74
     0
 49
-3.0
 74
     0
 49
0.0
 74
     0
 49
-3.0
 74
     0
  0
LTYPE
  5
5B
330
5
100
AcDbSymbolTableRecord
100
AcDbLinetypeTableRecord
  2
ACAD_ISO02W100
 70
     0
  3
ISO dash __ __ __ __ __ __ __ __ __ __ __ __ __
 72
    65
 73
     2
 40
15.0
 49
12.0
 74
     0
 49
-3.0
 74
     0
  0
LTYPE
  5
5C
330
5
100
AcDbSymbolTableRecord
100
AcDbLinetypeTableRecord
  2
ACAD_ISO03W100
 70
     0
  3
ISO dash space __    __    __    __    __    __
 72
    65
 73
     2
 40
30.0
 49
12.0
 74
     0
 49
-18.0
 74
     0
  0
LTYPE
  5
5D
330
5
100
AcDbSymbolTableRecord
100
AcDbLinetypeTableRecord
  2
ACAD_ISO04W100
 70
     0
  3
ISO long-dash dot ____ . ____ . ____ . ____ . _
 72
    65
 73
     4
 40
30.0
 49
24.0
 74
     0
 49
-3.0
 74
     0
 49
0.0
 74
     0
 49
-3.0
 74
     0
  0
LTYPE
  5
5E
330
5
100
AcDbSymbolTableRecord
100
AcDbLinetypeTableRecord
  2
ACAD_ISO05W100
 70
     0
  3
ISO long-dash double-dot ____ .. ____ .. ____ . 
 72
    65
 73
     6
 40
33.0
 49
24.0
 74
     0
 49
-3.0
 74
     0
 49
0.0
 74
     0
 49
-3.0
 74
     0
 49
0.0
 74
     0
 49
-3.0
 74
     0
  0
LTYPE
  5
5F
330
5
100
AcDbSymbolTableRecord
100
AcDbLinetypeTableRecord
  2
ACAD_ISO07W100
 70
     0
  3
ISO dot . . . . . . . . . . . . . . . . . . . . 
 72
    65
 73
     2
 40
3.0
 49
0.0
 74
     0
 49
-3.0
 74
     0
  0
LTYPE
  5
60
330
5
100
AcDbSymbolTableRecord
100
AcDbLinetypeTableRecord
  2
ACAD_ISO08W100
 70
     0
  3
ISO long-dash short-dash ____ __ ____ __ ____ _
 72
    65
 73
     4
 40
36.0
 49
24.0
 74
     0
 49
-3.0
 74
     0
 49
6.0
 74
     0
 49
-3.0
 74
     0
  0
LTYPE
  5
61
330
5
100
AcDbSymbolTableRecord
100
AcDbLinetypeTableRecord
  2
ACAD_ISO09W100
 70
     0
  3
ISO long-dash double-short-dash ____ __ __ ____
 72
    65
 73
     6
 40
45.0
 49
24.0
 74
     0
 49
-3.0
 74
     0
 49
6.0
 74
     0
 49
-3.0
 74
     0
 49
6.0
 74
     0
 49
-3.0
 74
     0
  0
LTYPE
  5
62
330
5
100
AcDbSymbolTableRecord
100
AcDbLinetypeTableRecord
  2
ACAD_ISO10W100
 70
     0
  3
ISO dash dot __ . __ . __ . __ . __ . __ . __ . 
 72
    65
 73
     4
 40
18.0
 49
12.0
 74
     0
 49
-3.0
 74
     0
 49
0.0
 74
     0
 49
-3.0
 74
     0
  0
LTYPE
  5
63
330
5
100
AcDbSymbolTableRecord
100
AcDbLinetypeTableRecord
  2
ACAD_ISO11W100
 70
     0
  3
ISO double-dash dot __ __ . __ __ . __ __ . __ _
 72
    65
 73
     6
 40
33.0
 49
12.0
 74
     0
 49
-3.0
 74
     0
 49
12.0
 74
     0
 49
-3.0
 74
     0
 49
0.0
 74
     0
 49
-3.0
 74
     0
  0
LTYPE
  5
64
330
5
100
AcDbSymbolTableRecord
100
AcDbLinetypeTableRecord
  2
ACAD_ISO12W100
 70
     0
  3
ISO dash double-dot __ . . __ . . __ . . __ . . 
 72
    65
 73
     6
 40
21.0
 49
12.0
 74
     0
 49
-3.0
 74
     0
 49
0.0
 74
     0
 49
-3.0
 74
     0
 49
0.0
 74
     0
 49
-3.0
 74
     0
  0
LTYPE
  5
65
330
5
100
AcDbSymbolTableRecord
100
AcDbLinetypeTableRecord
  2
ACAD_ISO15W100
 70
     0
  3
ISO double-dash triple-dot __ __ . . . __ __ . .
 72
    65
 73
    10
 40
39.0
 49
12.0
 74
     0
 49
-3.0
 74
     0
 49
12.0
 74
     0
 49
-3.0
 74
     0
 49
0.0
 74
     0
 49
-3.0
 74
     0
 49
0.0
 74
     0
 49
-3.0
 74
     0
 49
0.0
 74
     0
 49
-3.0
 74
     0
  0
LTYPE
  5
66
330
5
100
AcDbSymbolTableRecord
100
AcDbLinetypeTableRecord
  2
JIS_02_0.7
 70
     0
  3
HIDDEN0.75 _ _ _ _ _ _ _ _ _ _ _ _ _ _ _ _ _ 
 72
    65
 73
     2
 40
1.35
 49
0.75
 74
     0
 49
-0.6
 74
     0
  0
LTYPE
  5
67
330
5
100
AcDbSymbolTableRecord
100
AcDbLinetypeTableRecord
  2
JIS_02_1.0
 70
     0
  3
HIDDEN01 _ _ _ _ _ _ _ _ _ _ _ _ _ _ _ _ _ 
 72
    65
 73
     2
 40
2.0
 49
1.0
 74
     0
 49
-1.0
 74
     0
  0
LTYPE
  5
68
330
5
100
AcDbSymbolTableRecord
100
AcDbLinetypeTableRecord
  2
JIS_02_1.2
 70
     0
  3
HIDDEN01.25  _ _ _ _ _ _ _ _ _ _ _ _ _ _ _ _ _ 
 72
    65
 73
     2
 40
2.5
 49
1.25
 74
     0
 49
-1.25
 74
     0
  0
LTYPE
  5
69
330
5
100
AcDbSymbolTableRecord
100
AcDbLinetypeTableRecord
  2
JIS_02_2.0
 70
     0
  3
HIDDEN02 __ __ __ __ __ __ __ __ __ __ __ 
 72
    65
 73
     2
 40
3.0
 49
2.0
 74
     0
 49
-1.0
 74
     0
  0
LTYPE
  5
6A
330
5
100
AcDbSymbolTableRecord
100
AcDbLinetypeTableRecord
  2
JIS_02_4.0
 70
     0
  3
HIDDEN04 ____ ____ ____ ____ ____ ____ ____ 
 72
    65
 73
     2
 40
5.5
 49
4.0
 74
     0
 49
-1.5
 74
     0
  0
LTYPE
  5
6B
330
5
100
AcDbSymbolTableRecord
100
AcDbLinetypeTableRecord
  2
JIS_08_11
 70
     0
  3
1SASEN11 ___ _ ___ _ ___ _ ___ _ ___ _ ___
 72
    65
 73
     4
 40
12.8
 49
11.0
 74
     0
 49
-0.6
 74
     0
 49
0.6
 74
     0
 49
-0.6
 74
     0
  0
LTYPE
  5
6C
330
5
100
AcDbSymbolTableRecord
100
AcDbLinetypeTableRecord
  2
JIS_08_15
 70
     0
  3
1SASEN15 ____ _ ____ _ ____ _ ____ _ ____ 
 72
    65
 73
     4
 40
17.25
 49
15.0
 74
     0
 49
-0.75
 74
     0
 49
0.75
 74
     0
 49
-0.75
 74
     0
  0
LTYPE
  5
6D
330
5
100
AcDbSymbolTableRecord
100
AcDbLinetypeTableRecord
  2
JIS_08_25
 70
     0
  3
1SASEN25 ________  __  ________  __  _____
 72
    65
 73
     4
 40
28.0
 49
25.0
 74
     0
 49
-1.125
 74
     0
 49
0.75
 74
     0
 49
-1.125
 74
     0
  0
LTYPE
  5
6E
330
5
100
AcDbSymbolTableRecord
100
AcDbLinetypeTableRecord
  2
JIS_08_37
 70
     0
  3
1SASEN37 ________  __  ________  __  _____
 72
    65
 73
     4
 40
40.5
 49
37.5
 74
     0
 49
-1.125
 74
     0
 49
0.75
 74
     0
 49
-1.125
 74
     0
  0
LTYPE
  5
6F
330
5
100
AcDbSymbolTableRecord
100
AcDbLinetypeTableRecord
  2
JIS_08_50
 70
     0
  3
1SASEN50 _______________  __  ____________
 72
    65
 73
     4
 40
53.0
 49
50.0
 74
     0
 49
-1.125
 74
     0
 49
0.75
 74
     0
 49
-1.125
 74
     0
  0
LTYPE
  5
70
330
5
100
AcDbSymbolTableRecord
100
AcDbLinetypeTableRecord
  2
JIS_09_08
 70
     0
  3
2SASEN8 __ _ _ __ _ _ __ _ _ __ _ _ __ _ _ 
 72
    65
 73
     6
 40
10.75
 49
8.0
 74
     0
 49
-0.55
 74
     0
 49
0.55
 74
     0
 49
-0.55
 74
     0
 49
0.55
 74
     0
 49
-0.55
 74
     0
  0
LTYPE
  5
71
330
5
100
AcDbSymbolTableRecord
100
AcDbLinetypeTableRecord
  2
JIS_09_15
 70
     0
  3
2SASEN15 ___ _ _ ___ _ _ ___ _ _ ___ _ _ ___ 
 72
    65
 73
     6
 40
18.9
 49
15.0
 74
     0
 49
-0.9
 74
     0
 49
0.6
 74
     0
 49
-0.9
 74
     0
 49
0.6
 74
     0
 49
-0.9
 74
     0
  0
LTYPE
  5
72
330
5
100
AcDbSymbolTableRecord
100
AcDbLinetypeTableRecord
  2
JIS_09_29
 70
     0
  3
2SASEN29 ______　__  __  ______　__  __  ___
 72
    65
 73
     6
 40
34.0
 49
29.0
 74
     0
 49
-1.2
 74
     0
 49
0.7
 74
     0
 49
-1.2
 74
     0
 49
0.7
 74
     0
 49
-1.2
 74
     0
  0
LTYPE
  5
73
330
5
100
AcDbSymbolTableRecord
100
AcDbLinetypeTableRecord
  2
JIS_09_50
 70
     0
  3
2SASEN50 ____________　__  __  _____________
 72
    65
 73
     6
 40
55.0
 49
50.0
 74
     0
 49
-1.2
 74
     0
 49
0.7
 74
     0
 49
-1.2
 74
     0
 49
0.7
 74
     0
 49
-1.2
 74
     0
  0
ENDTAB
  0
TABLE
  2
LAYER
  5
2
330
0
100
AcDbSymbolTable
 70
     5
  0
LAYER
  5
10
330
2
100
AcDbSymbolTableRecord
100
AcDbLayerTableRecord
  2
0
 70
     0
 62
     7
  6
Continuous
370
    -3
390
F
  0
LAYER
  5
74
330
2
100
AcDbSymbolTableRecord
100
AcDbLayerTableRecord
  2
16
 70
     0
 62
     7
  6
Continuous
370
    -3
390
F
  0
LAYER
  5
75
330
2
100
AcDbSymbolTableRecord
100
AcDbLayerTableRecord
  2
22
 70
     0
 62
     7
  6
Continuous
370
    -3
390
F
  0
LAYER
  5
76
330
2
100
AcDbSymbolTableRecord
100
AcDbLayerTableRecord
  2
24
 70
     0
 62
     7
  6
Continuous
370
    -3
390
F
  0
LAYER
  5
77
330
2
100
AcDbSymbolTableRecord
100
AcDbLayerTableRecord
  2
32
 70
     0
 62
     7
  6
Continuous
370
    -3
390
F
  0
ENDTAB
  0
TABLE
  2
STYLE
  5
3
330
0
100
AcDbSymbolTable
 70
     2
  0
STYLE
  5
11
330
3
100
AcDbSymbolTableRecord
100
AcDbTextStyleTableRecord
  2
Standard
 70
     0
 40
0.0
 41
1.0
 50
0.0
 71
     0
 42
0.2
  3
txt.shx
  4
bigfont.shx
  0
STYLE
  5
9B
330
3
100
AcDbSymbolTableRecord
100
AcDbTextStyleTableRecord
  2
dcStyle0
 70
     0
 40
0.0
 41
0.833333335493827
 50
0.0
 71
     0
 42
0.2
  3
txt.shx
  4
bigfont
  0
ENDTAB
  0
TABLE
  2
VIEW
  5
6
330
0
100
AcDbSymbolTable
 70
     0
  0
ENDTAB
  0
TABLE
  2
UCS
  5
7
330
0
100
AcDbSymbolTable
 70
     0
  0
ENDTAB
  0
TABLE
  2
APPID
  5
9
330
0
100
AcDbSymbolTable
 70
     2
  0
APPID
  5
12
330
9
100
AcDbSymbolTableRecord
100
AcDbRegAppTableRecord
  2
ACAD
 70
     0
  0
APPID
  5
3F
330
9
100
AcDbSymbolTableRecord
100
AcDbRegAppTableRecord
  2
DaFusionOut
 70
     0
  0
ENDTAB
  0
TABLE
  2
DIMSTYLE
  5
A
330
0
100
AcDbSymbolTable
 70
     1
100
AcDbDimStyleTable
  0
DIMSTYLE
105
27
330
A
100
AcDbSymbolTableRecord
100
AcDbDimStyleTableRecord
  2
Standard
 70
     0
178
     0
340
11
  0
ENDTAB
  0
TABLE
  2
BLOCK_RECORD
  5
1
330
0
100
AcDbSymbolTable
 70
     1
  0
BLOCK_RECORD
  5
1F
330
1
100
AcDbSymbolTableRecord
100
AcDbBlockTableRecord
  2
*Model_Space
340
22
  0
BLOCK_RECORD
  5
1B
330
1
100
AcDbSymbolTableRecord
100
AcDbBlockTableRecord
  2
*Paper_Space
340
1E
  0
BLOCK_RECORD
  5
23
330
1
100
AcDbSymbolTableRecord
100
AcDbBlockTableRecord
  2
*Paper_Space0
340
26
  0
ENDTAB
  0
ENDSEC
  0
SECTION
  2
BLOCKS
  0
BLOCK
  5
20
330
1F
100
AcDbEntity
  8
0
100
AcDbBlockBegin
  2
*Model_Space
 70
     0
 10
0.0
 20
0.0
 30
0.0
  3
*Model_Space
  1

  0
ENDBLK
  5
21
330
1F
100
AcDbEntity
  8
0
100
AcDbBlockEnd
  0
BLOCK
  5
1C
330
1B
100
AcDbEntity
 67
     1
  8
0
100
AcDbBlockBegin
  2
*Paper_Space
 70
     0
 10
0.0
 20
0.0
 30
0.0
  3
*Paper_Space
  1

  0
ENDBLK
  5
1D
330
1B
100
AcDbEntity
 67
     1
  8
0
100
AcDbBlockEnd
  0
BLOCK
  5
24
330
23
100
AcDbEntity
  8
0
100
AcDbBlockBegin
  2
*Paper_Space0
 70
     0
 10
0.0
 20
0.0
 30
0.0
  3
*Paper_Space0
  1

  0
ENDBLK
  5
25
330
23
100
AcDbEntity
  8
0
100
AcDbBlockEnd
  0
ENDSEC
  0
SECTION
  2
ENTITIES
  0
LINE
  5
79
330
1F
100
AcDbEntity
  8
0
  6
Continuous
 62
   150
370
    25
100
AcDbLine
 10
-172.3999998569489
 20
-115.1499998047948
 30
0.0
 11
-172.3999998569489
 21
104.8500034734607
 31
0.0
  0
LINE
  5
7A
330
1F
100
AcDbEntity
  8
0
  6
Continuous
 62
   150
370
    25
100
AcDbLine
 10
-172.3999998569489
 20
104.8500034734607
 30
0.0
 11
173.6000052988529
 21
104.8500034734607
 31
0.0
  0
LINE
  5
7B
330
1F
100
AcDbEntity
  8
0
  6
Continuous
 62
   150
370
    25
100
AcDbLine
 10
173.6000052988529
 20
104.8500034734607
 30
0.0
 11
173.6000052988529
 21
-115.1499998047948
 31
0.0
  0
LINE
  5
7C
330
1F
100
AcDbEntity
  8
0
  6
Continuous
 62
   150
370
    25
100
AcDbLine
 10
173.6000052988529
 20
-115.1499998047948
 30
0.0
 11
-172.3999998569489
 21
-115.1499998047948
 31
0.0
  0
LINE
  5
7D
330
1F
100
AcDbEntity
  8
0
  6
Continuous
 62
   150
370
    25
100
AcDbLine
 10
173.6000052988529
 20
-85.14999935775995
 30
0.0
 11
11.60000288486481
 21
-85.14999935775995
 31
0.0
  0
LINE
  5
7E
330
1F
100
AcDbEntity
  8
0
  6
Continuous
 62
   150
370
    25
100
AcDbLine
 10
11.60000288486481
 20
-85.14999935775995
 30
0.0
 11
11.60000288486481
 21
-115.1499998047948
 31
0.0
  0
LINE
  5
7F
330
1F
100
AcDbEntity
  8
0
  6
Continuous
 62
   150
370
    25
100
AcDbLine
 10
11.60000288486481
 20
-98.14999955147505
 30
0.0
 11
97.60000416636467
 21
-98.14999955147505
 31
0.0
  0
LINE
  5
80
330
1F
100
AcDbEntity
  8
0
  6
Continuous
 62
   150
370
    25
100
AcDbLine
 10
97.60000416636467
 20
-89.64999942481518
 30
0.0
 11
11.60000288486481
 21
-89.64999942481518
 31
0.0
  0
LINE
  5
81
330
1F
100
AcDbEntity
  8
0
  6
Continuous
 62
   150
370
    25
100
AcDbLine
 10
24.6000030785799
 20
-85.14999935775995
 30
0.0
 11
24.6000030785799
 21
-98.14999955147505
 31
0.0
  0
LINE
  5
82
330
1F
100
AcDbEntity
  8
0
  6
Continuous
 62
   150
370
    25
100
AcDbLine
 10
37.600003272295
 20
-98.14999955147505
 30
0.0
 11
37.600003272295
 21
-85.14999935775995
 31
0.0
  0
LINE
  5
83
330
1F
100
AcDbEntity
  8
0
  6
Continuous
 62
   150
370
    25
100
AcDbLine
 10
50.60000346601009
 20
-85.14999935775995
 30
0.0
 11
50.60000346601009
 21
-98.14999955147505
 31
0.0
  0
LINE
  5
84
330
1F
100
AcDbEntity
  8
0
  6
Continuous
 62
   150
370
    25
100
AcDbLine
 10
76.60000385344028
 20
-98.14999955147505
 30
0.0
 11
76.60000385344028
 21
-85.14999935775995
 31
0.0
  0
LINE
  5
85
330
1F
100
AcDbEntity
  8
0
  6
Continuous
 62
   150
370
    25
100
AcDbLine
 10
97.60000416636467
 20
-85.14999935775995
 30
0.0
 11
97.60000416636467
 21
-115.1499998047948
 31
0.0
  0
LINE
  5
86
330
1F
100
AcDbEntity
  8
0
  6
Continuous
 62
   150
370
    25
100
AcDbLine
 10
102.6000042408705
 20
-115.1499998047948
 30
0.0
 11
102.6000042408705
 21
-101.6499996036291
 31
0.0
  0
LINE
  5
87
330
1F
100
AcDbEntity
  8
0
  6
Continuous
 62
   150
370
    25
100
AcDbLine
 10
97.60000416636467
 20
-101.6499996036291
 30
0.0
 11
173.6000052988529
 21
-101.6499996036291
 31
0.0
  0
LINE
  5
88
330
1F
100
AcDbEntity
  8
0
  6
Continuous
 62
   150
370
    25
100
AcDbLine
 10
169.6000052392483
 20
-95.64999951422215
 30
0.0
 11
101.6000042259693
 21
-95.64999951422215
 31
0.0
  0
LINE
  5
89
330
1F
100
AcDbEntity
  8
0
  6
Continuous
 62
   150
370
    25
100
AcDbLine
 10
20.60000301897526
 20
-110.2499997317791
 30
0.0
 11
25.10000308603048
 21
-107.7499996945262
 31
0.0
  0
LINE
  5
8A
330
1F
100
AcDbEntity
  8
0
  6
Continuous
 62
   150
370
    25
100
AcDbLine
 10
25.10000308603048
 20
-107.7499996945262
 30
0.0
 11
29.60000315308571
 21
-110.2499997317791
 31
0.0
  0
LINE
  5
8B
330
1F
100
AcDbEntity
  8
0
  6
Continuous
 62
   150
370
    25
100
AcDbLine
 10
29.60000315308571
 20
-110.2499997317791
 30
0.0
 11
25.10000308603048
 21
-112.749999769032
 31
0.0
  0
LINE
  5
8C
330
1F
100
AcDbEntity
  8
0
  6
Continuous
 62
   150
370
    25
100
AcDbLine
 10
25.10000308603048
 20
-112.749999769032
 30
0.0
 11
20.60000301897526
 21
-110.2499997317791
 31
0.0
  0
LINE
  5
8D
330
1F
100
AcDbEntity
  8
0
  6
Continuous
 62
   150
370
    25
100
AcDbLine
 10
24.6000030785799
 20
-108.7499997094274
 30
0.0
 11
25.60000309348106
 21
-108.7499997094274
 31
0.0
  0
LINE
  5
8E
330
1F
100
AcDbEntity
  8
0
  6
Continuous
 62
   150
370
    25
100
AcDbLine
 10
25.60000309348106
 20
-108.7499997094274
 30
0.0
 11
25.60000309348106
 21
-111.7499997541308
 31
0.0
  0
LINE
  5
8F
330
1F
100
AcDbEntity
  8
0
  6
Continuous
 62
   150
370
    25
100
AcDbLine
 10
25.60000309348106
 20
-111.7499997541308
 30
0.0
 11
24.6000030785799
 21
-111.7499997541308
 31
0.0
  0
LINE
  5
90
330
1F
100
AcDbEntity
  8
0
  6
Continuous
 62
   150
370
    25
100
AcDbLine
 10
24.6000030785799
 20
-111.7499997541308
 30
0.0
 11
24.6000030785799
 21
-108.7499997094274
 31
0.0
  0
LINE
  5
91
330
1F
100
AcDbEntity
  8
0
  6
Continuous
 62
   150
370
    25
100
AcDbLine
 10
24.6000030785799
 20
-108.7499997094274
 30
0.0
 11
24.80000308156013
 21
-108.7499997094274
 31
0.0
  0
LINE
  5
92
330
1F
100
AcDbEntity
  8
0
  6
Continuous
 62
   150
370
    25
100
AcDbLine
 10
24.80000308156013
 20
-108.7499997094274
 30
0.0
 11
24.80000308156013
 21
-111.7499997541308
 31
0.0
  0
LINE
  5
93
330
1F
100
AcDbEntity
  8
0
  6
Continuous
 62
   150
370
    25
100
AcDbLine
 10
24.80000308156013
 20
-111.7499997541308
 30
0.0
 11
25.00000308454037
 21
-111.7499997541308
 31
0.0
  0
LINE
  5
94
330
1F
100
AcDbEntity
  8
0
  6
Continuous
 62
   150
370
    25
100
AcDbLine
 10
25.00000308454037
 20
-111.7499997541308
 30
0.0
 11
25.00000308454037
 21
-108.7499997094274
 31
0.0
  0
LINE
  5
95
330
1F
100
AcDbEntity
  8
0
  6
Continuous
 62
   150
370
    25
100
AcDbLine
 10
25.00000308454037
 20
-108.7499997094274
 30
0.0
 11
25.2000030875206
 21
-108.7499997094274
 31
0.0
  0
LINE
  5
96
330
1F
100
AcDbEntity
  8
0
  6
Continuous
 62
   150
370
    25
100
AcDbLine
 10
25.2000030875206
 20
-108.7499997094274
 30
0.0
 11
25.2000030875206
 21
-111.7499997541308
 31
0.0
  0
LINE
  5
97
330
1F
100
AcDbEntity
  8
0
  6
Continuous
 62
   150
370
    25
100
AcDbLine
 10
25.2000030875206
 20
-111.7499997541308
 30
0.0
 11
25.40000309050083
 21
-111.7499997541308
 31
0.0
  0
LINE
  5
98
330
1F
100
AcDbEntity
  8
0
  6
Continuous
 62
   150
370
    25
100
AcDbLine
 10
25.40000309050083
 20
-111.7499997541308
 30
0.0
 11
25.40000309050083
 21
-108.7499997094274
 31
0.0
  0
LINE
  5
99
330
1F
100
AcDbEntity
  8
0
  6
Continuous
 62
   150
370
    25
100
AcDbLine
 10
25.40000309050083
 20
-108.7499997094274
 30
0.0
 11
25.60000309348106
 21
-108.7499997094274
 31
0.0
  0
LINE
  5
9A
330
1F
100
AcDbEntity
  8
0
  6
Continuous
 62
   150
370
    25
100
AcDbLine
 10
25.60000309348106
 20
-108.7499997094274
 30
0.0
 11
25.60000309348106
 21
-111.7499997541308
 31
0.0
  0
TEXT
  5
9C
330
1F
100
AcDbEntity
  8
0
 62
   150
100
AcDbText
 10
13.60000291
 20
-88.94999941
 30
0.0
 40
3.0
  1
担　当
 41
0.833333335493827
  7
dcStyle0
 72
     5
 11
22.60000305
 21
-88.94999941
 31
0.0
100
AcDbText
  0
TEXT
  5
9D
330
1F
100
AcDbEntity
  8
0
 62
   150
100
AcDbText
 10
26.60000311
 20
-88.94999941
 30
0.0
 40
3.0
  1
製　図
 41
0.8333333354938274
  7
dcStyle0
 72
     5
 11
35.60000325
 21
-88.94999941
 31
0.0
100
AcDbText
  0
TEXT
  5
9E
330
1F
100
AcDbEntity
  8
0
 62
   150
100
AcDbText
 10
39.6000033
 20
-88.94999941
 30
0.0
 40
3.0
  1
検　図
 41
0.833333335493827
  7
dcStyle0
 72
     5
 11
48.60000343999999
 21
-88.94999941
 31
0.0
100
AcDbText
  0
TEXT
  5
9F
330
1F
100
AcDbEntity
  8
0
 62
   150
100
AcDbText
 10
57.60000357
 20
-88.94999941
 30
0.0
 40
3.0
  1
尺　　度
 41
0.8333333354166668
  7
dcStyle0
 72
     5
 11
69.60000375
 21
-88.94999941
 31
0.0
100
AcDbText
  0
TEXT
  5
A0
330
1F
100
AcDbEntity
  8
0
 62
   150
100
AcDbText
 10
82.60000394
 20
-88.94999941
 30
0.0
 40
3.0
  1
作図日
 41
0.833333335493827
  7
dcStyle0
 72
     5
 11
91.60000407999999
 21
-88.94999941
 31
0.0
100
AcDbText
  0
TEXT
  5
A1
330
1F
100
AcDbEntity
  8
0
 62
   150
100
AcDbText
 10
98.60000418
 20
-88.94999941
 30
0.0
 40
3.0
  1
工事名
 41
0.833333335493827
  7
dcStyle0
 72
     5
 11
107.60000432
 21
-88.94999941
 31
0.0
100
AcDbText
  0
TEXT
  5
A2
330
1F
100
AcDbEntity
  8
0
 62
   150
100
AcDbText
 10
98.60000418
 20
-100.44999959
 30
0.0
 40
2.5
  1
図面番号
 41
0.8333333354166671
  7
dcStyle0
 72
     5
 11
108.60000433
 21
-100.44999959
 31
0.0
100
AcDbText
  0
TEXT
  5
A3
330
1F
100
AcDbEntity
  8
0
 62
   150
100
AcDbText
 10
98.60000418
 20
-105.14999966
 30
0.0
 40
2.5
  1
図
 41
0.8333333333333334
  7
dcStyle0
 72
     5
 11
101.10000418
 21
-105.14999966
 31
0.0
100
AcDbText
  0
TEXT
  5
A4
330
1F
100
AcDbEntity
  8
0
 62
   150
100
AcDbText
 10
98.60000418
 20
-108.1499997
 30
0.0
 40
2.5
  1
面
 41
0.8333333333333334
  7
dcStyle0
 72
     5
 11
101.10000418
 21
-108.1499997
 31
0.0
100
AcDbText
  0
TEXT
  5
A5
330
1F
100
AcDbEntity
  8
0
 62
   150
100
AcDbText
 10
98.60000418
 20
-111.14999975
 30
0.0
 40
2.5
  1
名
 41
0.8333333333333334
  7
dcStyle0
 72
     5
 11
101.10000418
 21
-111.14999975
 31
0.0
100
AcDbText
  0
TEXT
  5
A6
330
1F
100
AcDbEntity
  8
0
 62
   150
100
AcDbText
 10
98.60000418
 20
-114.14999979
 30
0.0
 40
2.5
  1
称
 41
0.8333333333333334
  7
dcStyle0
 72
     5
 11
101.10000418
 21
-114.14999979
 31
0.0
100
AcDbText
  0
TEXT
  5
A7
330
1F
100
AcDbEntity
  8
0
 62
   150
100
AcDbText
 10
81.80000393
 20
-95.14999951
 30
0.0
 40
2.5
  1
年
 41
0.8333333333333334
  7
dcStyle0
 72
     5
 11
84.30000393
 21
-95.14999951
 31
0.0
100
AcDbText
  0
TEXT
  5
A8
330
1F
100
AcDbEntity
  8
0
 62
   150
100
AcDbText
 10
88.30000403
 20
-95.14999951
 30
0.0
 40
2.5
  1
月
 41
0.8333333333333334
  7
dcStyle0
 72
     5
 11
90.80000403
 21
-95.14999951
 31
0.0
100
AcDbText
  0
TEXT
  5
A9
330
1F
100
AcDbEntity
  8
0
 62
   150
100
AcDbText
 10
94.80000412
 20
-95.14999951
 30
0.0
 40
2.5
  1
日
 41
0.8333333333333334
  7
dcStyle0
 72
     5
 11
97.30000412
 21
-95.14999951
 31
0.0
100
AcDbText
  0
TEXT
  5
AA
330
1F
100
AcDbEntity
  8
0
 62
   222
100
AcDbText
 10
26.1000031
 20
-104.94999965
 30
0.0
 40
4.0
  1
タイヘイグレーチング
 41
1.041666666041667
  7
dcStyle0
 72
     5
 11
76.10000382
 21
-104.94999965
 31
0.0
100
AcDbText
  0
TEXT
  5
AB
330
1F
100
AcDbEntity
  8
0
 62
   222
100
AcDbText
 10
31.35000318
 20
-112.44999976
 30
0.0
 40
5.0
  1
石田鉄工株式会社
 41
0.8461538481952661
  7
dcStyle0
 72
     5
 11
75.35000387
 21
-112.44999976
 31
0.0
100
AcDbText
  0
LINE
  5
AC
330
1F
100
AcDbEntity
  8
22
  6
Continuous
 62
     2
370
    25
100
AcDbLine
 10
-182.0
 20
-128.25
 30
0.0
 11
-178.9999999552965
 21
-128.25
 31
0.0
  0
LINE
  5
AD
330
1F
100
AcDbEntity
  8
22
  6
Continuous
 62
     2
370
    25
100
AcDbLine
 10
-178.9999999552965
 20
-128.25
 30
0.0
 11
-178.9999999552965
 21
-125.2499999552965
 31
0.0
  0
LINE
  5
AE
330
1F
100
AcDbEntity
  8
22
  6
Continuous
 62
     2
370
    25
100
AcDbLine
 10
-178.9999999552965
 20
-125.2499999552965
 30
0.0
 11
-182.0
 21
-125.2499999552965
 31
0.0
  0
LINE
  5
AF
330
1F
100
AcDbEntity
  8
22
  6
Continuous
 62
     2
370
    25
100
AcDbLine
 10
-182.0
 20
-125.2499999552965
 30
0.0
 11
-182.0
 21
-128.25
 31
0.0
  0
LINE
  5
B0
330
1F
100
AcDbEntity
  8
22
  6
Continuous
 62
     2
370
    25
100
AcDbLine
 10
-182.0
 20
-128.25
 30
0.0
 11
-178.9999999552965
 21
-128.25
 31
0.0
  0
LINE
  5
B1
330
1F
100
AcDbEntity
  8
22
  6
Continuous
 62
     2
370
    25
100
AcDbLine
 10
-178.9999999552965
 20
-128.25
 30
0.0
 11
-178.9999999552965
 21
-125.2499999552965
 31
0.0
  0
LINE
  5
B2
330
1F
100
AcDbEntity
  8
22
  6
Continuous
 62
     2
370
    25
100
AcDbLine
 10
-178.9999999552965
 20
-125.2499999552965
 30
0.0
 11
-182.0
 21
-125.2499999552965
 31
0.0
  0
LINE
  5
B3
330
1F
100
AcDbEntity
  8
22
  6
Continuous
 62
     2
370
    25
100
AcDbLine
 10
-182.0
 20
-125.2499999552965
 30
0.0
 11
-182.0
 21
-128.25
 31
0.0
  0
LINE
  5
B4
330
1F
100
AcDbEntity
  8
22
  6
Continuous
 62
     2
370
    25
100
AcDbLine
 10
-182.0
 20
-128.25
 30
0.0
 11
-178.9999999552965
 21
-128.25
 31
0.0
  0
LINE
  5
B5
330
1F
100
AcDbEntity
  8
22
  6
Continuous
 62
     2
370
    25
100
AcDbLine
 10
-178.9999999552965
 20
-128.25
 30
0.0
 11
-178.9999999552965
 21
-125.2499999552965
 31
0.0
  0
LINE
  5
B6
330
1F
100
AcDbEntity
  8
22
  6
Continuous
 62
     2
370
    25
100
AcDbLine
 10
-178.9999999552965
 20
-125.2499999552965
 30
0.0
 11
-182.0
 21
-125.2499999552965
 31
0.0
  0
LINE
  5
B7
330
1F
100
AcDbEntity
  8
22
  6
Continuous
 62
     2
370
    25
100
AcDbLine
 10
-182.0
 20
-125.2499999552965
 30
0.0
 11
-182.0
 21
-128.25
 31
0.0
  0
TEXT
  5
B8
330
1F
100
AcDbEntity
  8
22
 62
     2
100
AcDbText
 10
103.60000426
 20
-106.24999967
 30
0.0
 40
3.2
  1
GTU
 41
0.937500000911458
  7
dcStyle0
 72
     5
 11
112.6000044
 21
-106.24999967
 31
0.0
100
AcDbText
  0
TEXT
  5
B9
330
1F
100
AcDbEntity
  8
22
 62
     2
100
AcDbText
 10
112.60000439
 20
-106.24999967
 30
0.0
 40
3.0
  1
 100 
 41
0.8333333355555557
  7
dcStyle0
 72
     5
 11
125.10000459
 21
-106.24999967
 31
0.0
100
AcDbText
  0
TEXT
  5
BA
330
1F
100
AcDbEntity
  8
22
 62
     2
100
AcDbText
 10
122.60000454
 20
-106.24999967
 30
0.0
 40
3.0
  1
×
 41
0.6944444444444445
  7
dcStyle0
 72
     5
 11
125.10000454
 21
-106.24999967
 31
0.0
100
AcDbText
  0
TEXT
  5
BB
330
1F
100
AcDbEntity
  8
22
 62
     2
100
AcDbText
 10
122.60000454
 20
-106.24999967
 30
0.0
 40
3.0
  1
 995 
 41
0.8333333355555547
  7
dcStyle0
 72
     5
 11
135.10000474
 21
-106.24999967
 31
0.0
100
AcDbText
  0
TEXT
  5
BC
330
1F
100
AcDbEntity
  8
22
 62
     2
100
AcDbText
 10
132.60000469
 20
-106.24999967
 30
0.0
 40
3.0
  1
×
 41
0.6944444444444445
  7
dcStyle0
 72
     5
 11
135.10000469
 21
-106.24999967
 31
0.0
100
AcDbText
  0
TEXT
  5
BD
330
1F
100
AcDbEntity
  8
22
 62
     2
100
AcDbText
 10
132.60000469
 20
-106.24999967
 30
0.0
 40
3.0
  1
 25 
 41
0.8333333354166671
  7
dcStyle0
 72
     5
 11
142.60000484
 21
-106.24999967
 31
0.0
100
AcDbText
  0
TEXT
  5
BE
330
1F
100
AcDbEntity
  8
22
 62
     2
100
AcDbText
 10
130.60000466
 20
-109.74999972
 30
0.0
 40
2.5
  1
Ｃ寸法：
 41
0.6666666700000008
  7
dcStyle0
 72
     5
 11
138.60000478
 21
-109.74999972
 31
0.0
100
AcDbText
  0
TEXT
  5
BF
330
1F
100
AcDbEntity
  8
22
 62
     2
100
AcDbText
 10
136.10000474
 20
-109.74999972
 30
0.0
 40
2.5
  1
 81 
 41
0.800000002400001
  7
dcStyle0
 72
     5
 11
144.10000486
 21
-109.74999972
 31
0.0
100
AcDbText
  0
TEXT
  5
C0
330
1F
100
AcDbEntity
  8
22
 62
     2
100
AcDbText
 10
27.10000312
 20
-95.14999951
 30
0.0
 40
3.0
  1
カビル
 41
0.833333335493827
  7
dcStyle0
 72
     5
 11
36.10000326
 21
-95.14999951
 31
0.0
100
AcDbText
  0
TEXT
  5
C1
330
1F
100
AcDbEntity
  8
22
 62
     2
100
AcDbText
 10
39.6000033
 20
-95.14999951
 30
0.0
 40
3.0
  1
伊藤
 41
0.8333333354166668
  7
dcStyle0
 72
     5
 11
45.60000339
 21
-95.14999951
 31
0.0
100
AcDbText
  0
TEXT
  5
C2
330
1F
100
AcDbEntity
  8
22
 62
     2
100
AcDbText
 10
57.90000357
 20
-95.14999951
 30
0.0
 40
3.0
  1
1/
 41
1.000000000000001
  7
dcStyle0
 72
     5
 11
63.90000366000001
 21
-95.14999951
 31
0.0
100
AcDbText
  0
TEXT
  5
C3
330
1F
100
AcDbEntity
  8
22
 62
     2
100
AcDbText
 10
60.90000362
 20
-95.14999951
 30
0.0
 40
3.0
  1
 10 
 41
1.000000000000001
  7
dcStyle0
 72
     5
 11
72.90000380000001
 21
-95.14999951
 31
0.0
100
AcDbText
  0
TEXT
  5
C4
330
1F
100
AcDbEntity
  8
22
 62
     2
100
AcDbText
 10
77.10000386000002
 20
-95.14999951
 30
0.0
 40
2.5
  1
'
 41
0.6
  7
dcStyle0
 72
     5
 11
78.60000386000002
 21
-95.14999951
 31
0.0
100
AcDbText
  0
TEXT
  5
C5
330
1F
100
AcDbEntity
  8
22
 62
     2
100
AcDbText
 10
78.60000388000002
 20
-95.14999951
 30
0.0
 40
2.5
  1
21
 41
0.6000000032000007
  7
dcStyle0
 72
     5
 11
81.60000392000002
 21
-95.14999951
 31
0.0
100
AcDbText
  0
TEXT
  5
C6
330
1F
100
AcDbEntity
  8
22
 62
     2
100
AcDbText
 10
85.00000398
 20
-95.14999951
 30
0.0
 40
2.5
  1
 2
 41
0.6000000032000007
  7
dcStyle0
 72
     5
 11
88.00000402
 21
-95.14999951
 31
0.0
100
AcDbText
  0
TEXT
  5
C7
330
1F
100
AcDbEntity
  8
22
 62
     2
100
AcDbText
 10
91.60000408000002
 20
-95.14999951
 30
0.0
 40
2.5
  1
26
 41
0.6000000032000007
  7
dcStyle0
 72
     5
 11
94.60000412000002
 21
-95.14999951
 31
0.0
100
AcDbText
  0
TEXT
  5
C8
330
1F
100
AcDbEntity
  8
22
 62
     2
100
AcDbText
 10
110.00000435
 20
-100.64999959
 30
0.0
 40
3.0
  1
GTU25-9 歩                  
 41
1.0
  7
dcStyle0
 72
     5
 11
177.50000539
 21
-100.64999959
 31
0.0
100
AcDbText
  0
TEXT
  5
C9
330
1F
100
AcDbEntity
  8
22
 62
     2
100
AcDbText
 10
68.00000373
 20
-73.24999918000002
 30
0.0
 40
3.0
  1
＜表面処理＞
 41
0.8333333352623458
  7
dcStyle0
 72
     5
 11
86.00000398
 21
-73.24999918000002
 31
0.0
100
AcDbText
  0
TEXT
  5
CA
330
1F
100
AcDbEntity
  8
22
 62
     2
100
AcDbText
 10
73.0000038
 20
-78.24999925
 30
0.0
 40
3.0
  1
本体：
 41
0.833333335493827
  7
dcStyle0
 72
     5
 11
82.00000394
 21
-78.24999925
 31
0.0
100
AcDbText
  0
TEXT
  5
CB
330
1F
100
AcDbEntity
  8
22
 62
     2
100
AcDbText
 10
82.00000393
 20
-78.24999925
 30
0.0
 40
3.0
  1
溶融亜鉛めっき
 41
0.8333333353174601
  7
dcStyle0
 72
     5
 11
103.00000423
 21
-78.24999925
 31
0.0
100
AcDbText
  0
TEXT
  5
CC
330
1F
100
AcDbEntity
  8
22
 62
     2
100
AcDbText
 10
18.00000298
 20
-78.24999925
 30
0.0
 40
3.0
  1
本体重量：
 41
0.6944444478395063
  7
dcStyle0
 72
     5
 11
30.50000318000001
 21
-78.24999925
 31
0.0
100
AcDbText
  0
TEXT
  5
CD
330
1F
100
AcDbEntity
  8
22
 62
     2
100
AcDbText
 10
30.50000317
 20
-78.24999925
 30
0.0
 40
3.0
  1
  4.8
 41
0.6666666702222224
  7
dcStyle0
 72
     5
 11
40.50000333000001
 21
-78.24999925
 31
0.0
100
AcDbText
  0
TEXT
  5
CE
330
1F
100
AcDbEntity
  8
22
 62
     2
100
AcDbText
 10
40.50000332
 20
-78.24999925
 30
0.0
 40
3.0
  1
Kg
 41
0.6666666699999997
  7
dcStyle0
 72
     5
 11
44.50000338
 21
-78.24999925
 31
0.0
100
AcDbText
  0
TEXT
  5
CF
330
1F
100
AcDbEntity
  8
22
 62
     2
100
AcDbText
 10
-109.78749892
 20
49.45000265
 30
0.0
 40
2.5
  1
ベアリングバー：
 41
0.8333333352777776
  7
dcStyle0
 72
     5
 11
-89.78749864000002
 21
49.45000265
 31
0.0
100
AcDbText
  0
TEXT
  5
D0
330
1F
100
AcDbEntity
  8
22
 62
     2
100
AcDbText
 10
-89.78749863000002
 20
49.45000265
 30
0.0
 40
2.5
  1
GI-
 41
0.9999999999999994
  7
dcStyle0
 72
     5
 11
-82.28749851000002
 21
49.45000265
 31
0.0
100
AcDbText
  0
TEXT
  5
D1
330
1F
100
AcDbEntity
  8
22
 62
     2
100
AcDbText
 10
-84.28749854
 20
49.45000265
 30
0.0
 40
2.5
  1
 5 
 41
0.9999999999999994
  7
dcStyle0
 72
     5
 11
-76.78749842
 21
49.45000265
 31
0.0
100
AcDbText
  0
TEXT
  5
D2
330
1F
100
AcDbEntity
  8
22
 62
     2
100
AcDbText
 10
-79.28749847
 20
49.45000265
 30
0.0
 40
2.5
  1
×
 41
0.8333333333333334
  7
dcStyle0
 72
     5
 11
-76.78749847
 21
49.45000265
 31
0.0
100
AcDbText
  0
TEXT
  5
D3
330
1F
100
AcDbEntity
  8
22
 62
     2
100
AcDbText
 10
-78.78749846
 20
49.45000265
 30
0.0
 40
2.5
  1
 3 
 41
0.9999999999999994
  7
dcStyle0
 72
     5
 11
-71.28749834
 21
49.45000265
 31
0.0
100
AcDbText
  0
TEXT
  5
D4
330
1F
100
AcDbEntity
  8
22
 62
     2
100
AcDbText
 10
-73.78749839
 20
49.45000265
 30
0.0
 40
2.5
  1
×
 41
0.8333333333333334
  7
dcStyle0
 72
     5
 11
-71.28749839
 21
49.45000265
 31
0.0
100
AcDbText
  0
TEXT
  5
D5
330
1F
100
AcDbEntity
  8
22
 62
     2
100
AcDbText
 10
-73.28749838
 20
49.45000265
 30
0.0
 40
2.5
  1
 25 
 41
0.9999999999999998
  7
dcStyle0
 72
     5
 11
-63.28749823
 21
49.45000265
 31
0.0
100
AcDbText
  0
TEXT
  5
D6
330
1F
100
AcDbEntity
  8
22
 62
     2
100
AcDbText
 10
-105.82499886
 20
44.75000258
 30
0.0
 40
2.5
  1
ツイストバー：
 41
0.8333333352380955
  7
dcStyle0
 72
     5
 11
-88.32499862
 21
44.75000258
 31
0.0
100
AcDbText
  0
TEXT
  5
D7
330
1F
100
AcDbEntity
  8
22
 62
     2
100
AcDbText
 10
-86.82494375
 20
44.76047305
 30
0.0
 40
2.5
  1
 6 
 41
0.9999999999999994
  7
dcStyle0
 72
     5
 11
-79.32494363
 21
44.76047305
 31
0.0
100
AcDbText
  0
TEXT
  5
D8
330
1F
100
AcDbEntity
  8
22
 62
     2
100
AcDbText
 10
-102.54999882
 20
39.7500025
 30
0.0
 40
2.5
  1
エンドアングル：
 41
0.8333333352777776
  7
dcStyle0
 72
     5
 11
-82.54999854
 21
39.7500025
 31
0.0
100
AcDbText
  0
TEXT
  5
D9
330
1F
100
AcDbEntity
  8
22
 62
     2
100
AcDbText
 10
-82.54999852000002
 20
39.7500025
 30
0.0
 40
2.5
  1
L
  7
dcStyle0
 72
     5
 11
-80.04999852000002
 21
39.7500025
 31
0.0
100
AcDbText
  0
TEXT
  5
DA
330
1F
100
AcDbEntity
  8
22
 62
     2
100
AcDbText
 10
-82.04999851000001
 20
39.7500025
 30
0.0
 40
2.5
  1
 3 
 41
0.9999999999999994
  7
dcStyle0
 72
     5
 11
-74.54999839000001
 21
39.7500025
 31
0.0
100
AcDbText
  0
TEXT
  5
DB
330
1F
100
AcDbEntity
  8
22
 62
     2
100
AcDbText
 10
-77.04999844
 20
39.7500025
 30
0.0
 40
2.5
  1
×
 41
0.8333333333333334
  7
dcStyle0
 72
     5
 11
-74.54999844
 21
39.7500025
 31
0.0
100
AcDbText
  0
TEXT
  5
DC
330
1F
100
AcDbEntity
  8
22
 62
     2
100
AcDbText
 10
-76.54999843
 20
39.7500025
 30
0.0
 40
2.5
  1
 30 
 41
1.0
  7
dcStyle0
 72
     5
 11
-66.54999828
 21
39.7500025
 31
0.0
100
AcDbText
  0
TEXT
  5
DD
330
1F
100
AcDbEntity
  8
22
 62
     2
100
AcDbText
 10
-69.04999832
 20
39.7500025
 30
0.0
 40
2.5
  1
×
 41
0.8333333333333334
  7
dcStyle0
 72
     5
 11
-66.54999832
 21
39.7500025
 31
0.0
100
AcDbText
  0
TEXT
  5
DE
330
1F
100
AcDbEntity
  8
22
 62
     2
100
AcDbText
 10
-68.54999831
 20
39.7500025
 30
0.0
 40
2.5
  1
 30 
 41
0.9999999999999998
  7
dcStyle0
 72
     5
 11
-58.54999816000001
 21
39.7500025
 31
0.0
100
AcDbText
  0
TEXT
  5
DF
330
1F
100
AcDbEntity
  8
22
 62
     2
100
AcDbText
 10
-99.54999877
 20
-27.94999851
 30
0.0
 40
3.0
  1
 30 
 41
0.8333333354166671
  7
dcStyle0
 72
     5
 11
-89.54999862
 21
-27.94999851
 31
0.0
100
AcDbText
  0
TEXT
  5
E0
330
1F
100
AcDbEntity
  8
22
 62
     2
100
AcDbText
 10
-91.29999865000002
 20
-20.9499984
 30
0.0
 40
3.0
  1
 995 
 41
0.8333333355555557
  7
dcStyle0
 72
     5
 11
-78.79999845000002
 21
-20.9499984
 31
0.0
100
AcDbText
  0
TEXT
  5
E1
330
1F
100
AcDbEntity
  8
22
 62
     2
100
AcDbText
 10
-1.599997305993621
 20
21.05000222480765
 30
0.0
 40
3.0
  1
 30 
 50
90.0000001836389
 41
0.8333333354166668
  7
dcStyle0
 72
     5
 11
-1.599997338044656
 21
31.05000237480765
 31
0.0
100
AcDbText
  0
TEXT
  5
E2
330
1F
100
AcDbEntity
  8
22
 62
     2
100
AcDbText
 10
-1.599997305993621
 20
10.30000206480766
 30
0.0
 40
3.0
  1
 75 
 50
90.0000001836389
 41
0.8333333354166667
  7
dcStyle0
 72
     5
 11
-1.599997338044656
 21
20.30000221480766
 31
0.0
100
AcDbText
  0
TEXT
  5
E3
330
1F
100
AcDbEntity
  8
22
 62
     2
100
AcDbText
 10
-1.599997305993621
 20
-0.4499980951923455
 30
0.0
 40
3.0
  1
 30 
 50
90.0000001836389
 41
0.8333333354166667
  7
dcStyle0
 72
     5
 11
-1.599997338044656
 21
9.550002054807655
 31
0.0
100
AcDbText
  0
TEXT
  5
E4
330
1F
100
AcDbEntity
  8
22
 62
     2
100
AcDbText
 10
-8.599997415993622
 20
9.050002054807656
 30
0.0
 40
3.0
  1
 135 
 50
90.0000001836389
 41
0.8333333355555557
  7
dcStyle0
 72
     5
 11
-8.599997456057416
 21
21.55000225480766
 31
0.0
100
AcDbText
  0
TEXT
  5
E5
330
1F
100
AcDbEntity
  8
22
 62
     2
100
AcDbText
 10
20.70000302400638
 20
10.30000206480766
 30
0.0
 40
3.0
  1
 81 
 50
90.0000001836389
 41
0.8333333354166667
  7
dcStyle0
 72
     5
 11
20.70000299195534
 21
20.30000221480766
 31
0.0
100
AcDbText
  0
TEXT
  5
E6
330
1F
100
AcDbEntity
  8
22
 62
     2
100
AcDbText
 10
27.70000312400638
 20
10.30000206480766
 30
0.0
 40
3.0
  1
 90 
 50
90.0000001836389
 41
0.8333333354166667
  7
dcStyle0
 72
     5
 11
27.70000309195535
 21
20.30000221480766
 31
0.0
100
AcDbText
  0
TEXT
  5
E7
330
1F
100
AcDbEntity
  8
22
 62
     2
100
AcDbText
 10
32.70000320480766
 20
10.80000207480765
 30
0.0
 40
3.0
  1
溝幅
 50
90.0000001836389
 41
0.8695652190926281
  7
dcStyle0
 72
     5
 11
32.70000317916683
 21
18.80000219480766
 31
0.0
100
AcDbText
  0
TEXT
  5
E8
330
1F
100
AcDbEntity
  8
22
 62
     2
100
AcDbText
 10
2.20000274
 20
-6.54999819
 30
0.0
 40
3.0
  1
 25 
 41
0.8333333354166667
  7
dcStyle0
 72
     5
 11
12.20000289
 21
-6.54999819
 31
0.0
100
AcDbText
  0
LINE
  5
E9
330
1F
100
AcDbEntity
  8
32
  6
Continuous
 62
     4
370
    25
100
AcDbLine
 10
-2.599997326731682
 20
-88.14999940246344
 30
0.0
 11
-0.0999973267316818
 21
-88.14999940246344
 31
0.0
  0
LINE
  5
EA
330
1F
100
AcDbEntity
  8
32
  6
Continuous
 62
     4
370
    25
100
AcDbLine
 10
-0.0999973267316818
 20
-88.14999940246344
 30
0.0
 11
-0.0999973267316818
 21
-106.1499994024634
 31
0.0
  0
LINE
  5
EB
330
1F
100
AcDbEntity
  8
32
  6
Continuous
 62
     4
370
    25
100
AcDbLine
 10
-2.599997326731682
 20
-106.1499994024634
 30
0.0
 11
-2.599997326731682
 21
-88.14999940246344
 31
0.0
  0
LINE
  5
EC
330
1F
100
AcDbEntity
  8
32
  6
Continuous
 62
     4
370
    25
100
AcDbLine
 10
-0.0999973267316818
 20
-88.14999940246344
 30
0.0
 11
-1.099997326731682
 21
-88.7499994263053
 31
0.0
  0
LINE
  5
ED
330
1F
100
AcDbEntity
  8
32
  6
Continuous
 62
     4
370
    25
100
AcDbLine
 10
-1.099997326731682
 20
-88.7499994263053
 30
0.0
 11
-1.099997326731682
 21
-90.54999937862158
 31
0.0
  0
LINE
  5
EE
330
1F
100
AcDbEntity
  8
32
  6
Continuous
 62
     4
370
    25
100
AcDbLine
 10
-1.099997326731682
 20
-90.54999937862158
 30
0.0
 11
-0.0999973267316818
 21
-91.14999940246344
 31
0.0
  0
LINE
  5
EF
330
1F
100
AcDbEntity
  8
32
  6
Continuous
 62
     4
370
    25
100
AcDbLine
 10
-0.0999973267316818
 20
-91.14999940246344
 30
0.0
 11
-1.099997326731682
 21
-91.7499994263053
 31
0.0
  0
LINE
  5
F0
330
1F
100
AcDbEntity
  8
32
  6
Continuous
 62
     4
370
    25
100
AcDbLine
 10
-1.099997326731682
 20
-91.7499994263053
 30
0.0
 11
-1.099997326731682
 21
-93.54999937862158
 31
0.0
  0
LINE
  5
F1
330
1F
100
AcDbEntity
  8
32
  6
Continuous
 62
     4
370
    25
100
AcDbLine
 10
-1.099997326731682
 20
-93.54999937862158
 30
0.0
 11
-0.0999973267316818
 21
-94.14999940246344
 31
0.0
  0
LINE
  5
F2
330
1F
100
AcDbEntity
  8
32
  6
Continuous
 62
     4
370
    25
100
AcDbLine
 10
-0.0999973267316818
 20
-94.14999940246344
 30
0.0
 11
-1.099997326731682
 21
-94.7499994263053
 31
0.0
  0
LINE
  5
F3
330
1F
100
AcDbEntity
  8
32
  6
Continuous
 62
     4
370
    25
100
AcDbLine
 10
-1.099997326731682
 20
-94.7499994263053
 30
0.0
 11
-1.099997326731682
 21
-96.54999937862158
 31
0.0
  0
LINE
  5
F4
330
1F
100
AcDbEntity
  8
32
  6
Continuous
 62
     4
370
    25
100
AcDbLine
 10
-1.099997326731682
 20
-96.54999937862158
 30
0.0
 11
-0.0999973267316818
 21
-97.14999940246344
 31
0.0
  0
LINE
  5
F5
330
1F
100
AcDbEntity
  8
32
  6
Continuous
 62
     4
370
    25
100
AcDbLine
 10
-0.0999973267316818
 20
-97.14999940246344
 30
0.0
 11
-1.099997326731682
 21
-97.7499994263053
 31
0.0
  0
LINE
  5
F6
330
1F
100
AcDbEntity
  8
32
  6
Continuous
 62
     4
370
    25
100
AcDbLine
 10
-1.099997326731682
 20
-97.7499994263053
 30
0.0
 11
-1.099997326731682
 21
-99.54999937862158
 31
0.0
  0
LINE
  5
F7
330
1F
100
AcDbEntity
  8
32
  6
Continuous
 62
     4
370
    25
100
AcDbLine
 10
-1.099997326731682
 20
-99.54999937862158
 30
0.0
 11
-0.0999973267316818
 21
-100.1499994024634
 31
0.0
  0
LINE
  5
F8
330
1F
100
AcDbEntity
  8
32
  6
Continuous
 62
     4
370
    25
100
AcDbLine
 10
-0.0999973267316818
 20
-100.1499994024634
 30
0.0
 11
-1.099997326731682
 21
-100.7499994263053
 31
0.0
  0
LINE
  5
F9
330
1F
100
AcDbEntity
  8
32
  6
Continuous
 62
     4
370
    25
100
AcDbLine
 10
-1.099997326731682
 20
-100.7499994263053
 30
0.0
 11
-1.099997326731682
 21
-102.5499993786216
 31
0.0
  0
LINE
  5
FA
330
1F
100
AcDbEntity
  8
32
  6
Continuous
 62
     4
370
    25
100
AcDbLine
 10
-1.099997326731682
 20
-102.5499993786216
 30
0.0
 11
-0.0999973267316818
 21
-103.1499994024634
 31
0.0
  0
LINE
  5
FB
330
1F
100
AcDbEntity
  8
32
  6
Continuous
 62
     4
370
    25
100
AcDbLine
 10
-0.0999973267316818
 20
-103.1499994024634
 30
0.0
 11
-1.099997326731682
 21
-103.7499994263053
 31
0.0
  0
LINE
  5
FC
330
1F
100
AcDbEntity
  8
32
  6
Continuous
 62
     4
370
    25
100
AcDbLine
 10
-1.099997326731682
 20
-103.7499994263053
 30
0.0
 11
-1.099997326731682
 21
-105.5499993786216
 31
0.0
  0
LINE
  5
FD
330
1F
100
AcDbEntity
  8
32
  6
Continuous
 62
     4
370
    25
100
AcDbLine
 10
-1.099997326731682
 20
-105.5499993786216
 30
0.0
 11
-0.0999973267316818
 21
-106.1499994024634
 31
0.0
  0
LINE
  5
FE
330
1F
100
AcDbEntity
  8
32
  6
Continuous
 62
     4
370
    25
100
AcDbLine
 10
-1.599997326731682
 20
-88.14999940246344
 30
0.0
 11
-1.599997326731682
 21
-89.04999937862158
 31
0.0
  0
LINE
  5
FF
330
1F
100
AcDbEntity
  8
32
  6
Continuous
 62
     4
370
    25
100
AcDbLine
 10
-1.599997326731682
 20
-89.04999937862158
 30
0.0
 11
-2.599997326731682
 21
-89.64999940246344
 31
0.0
  0
LINE
  5
100
330
1F
100
AcDbEntity
  8
32
  6
Continuous
 62
     4
370
    25
100
AcDbLine
 10
-2.599997326731682
 20
-89.64999940246344
 30
0.0
 11
-1.599997326731682
 21
-90.2499994263053
 31
0.0
  0
LINE
  5
101
330
1F
100
AcDbEntity
  8
32
  6
Continuous
 62
     4
370
    25
100
AcDbLine
 10
-1.599997326731682
 20
-90.2499994263053
 30
0.0
 11
-1.599997326731682
 21
-92.04999937862158
 31
0.0
  0
LINE
  5
102
330
1F
100
AcDbEntity
  8
32
  6
Continuous
 62
     4
370
    25
100
AcDbLine
 10
-1.599997326731682
 20
-92.04999937862158
 30
0.0
 11
-2.599997326731682
 21
-92.64999940246344
 31
0.0
  0
LINE
  5
103
330
1F
100
AcDbEntity
  8
32
  6
Continuous
 62
     4
370
    25
100
AcDbLine
 10
-2.599997326731682
 20
-92.64999940246344
 30
0.0
 11
-1.599997326731682
 21
-93.2499994263053
 31
0.0
  0
LINE
  5
104
330
1F
100
AcDbEntity
  8
32
  6
Continuous
 62
     4
370
    25
100
AcDbLine
 10
-1.599997326731682
 20
-93.2499994263053
 30
0.0
 11
-1.599997326731682
 21
-95.04999937862158
 31
0.0
  0
LINE
  5
105
330
1F
100
AcDbEntity
  8
32
  6
Continuous
 62
     4
370
    25
100
AcDbLine
 10
-1.599997326731682
 20
-95.04999937862158
 30
0.0
 11
-2.599997326731682
 21
-95.64999940246344
 31
0.0
  0
LINE
  5
106
330
1F
100
AcDbEntity
  8
32
  6
Continuous
 62
     4
370
    25
100
AcDbLine
 10
-2.599997326731682
 20
-95.64999940246344
 30
0.0
 11
-1.599997326731682
 21
-96.2499994263053
 31
0.0
  0
LINE
  5
107
330
1F
100
AcDbEntity
  8
32
  6
Continuous
 62
     4
370
    25
100
AcDbLine
 10
-1.599997326731682
 20
-96.2499994263053
 30
0.0
 11
-1.599997326731682
 21
-98.04999937862158
 31
0.0
  0
LINE
  5
108
330
1F
100
AcDbEntity
  8
32
  6
Continuous
 62
     4
370
    25
100
AcDbLine
 10
-1.599997326731682
 20
-98.04999937862158
 30
0.0
 11
-2.599997326731682
 21
-98.64999940246344
 31
0.0
  0
LINE
  5
109
330
1F
100
AcDbEntity
  8
32
  6
Continuous
 62
     4
370
    25
100
AcDbLine
 10
-2.599997326731682
 20
-98.64999940246344
 30
0.0
 11
-1.599997326731682
 21
-99.2499994263053
 31
0.0
  0
LINE
  5
10A
330
1F
100
AcDbEntity
  8
32
  6
Continuous
 62
     4
370
    25
100
AcDbLine
 10
-1.599997326731682
 20
-99.2499994263053
 30
0.0
 11
-1.599997326731682
 21
-101.0499993786216
 31
0.0
  0
LINE
  5
10B
330
1F
100
AcDbEntity
  8
32
  6
Continuous
 62
     4
370
    25
100
AcDbLine
 10
-1.599997326731682
 20
-101.0499993786216
 30
0.0
 11
-2.599997326731682
 21
-101.6499994024634
 31
0.0
  0
LINE
  5
10C
330
1F
100
AcDbEntity
  8
32
  6
Continuous
 62
     4
370
    25
100
AcDbLine
 10
-2.599997326731682
 20
-101.6499994024634
 30
0.0
 11
-1.599997326731682
 21
-102.2499994263053
 31
0.0
  0
LINE
  5
10D
330
1F
100
AcDbEntity
  8
32
  6
Continuous
 62
     4
370
    25
100
AcDbLine
 10
-1.599997326731682
 20
-102.2499994263053
 30
0.0
 11
-1.599997326731682
 21
-104.0499993786216
 31
0.0
  0
LINE
  5
10E
330
1F
100
AcDbEntity
  8
32
  6
Continuous
 62
     4
370
    25
100
AcDbLine
 10
-1.599997326731682
 20
-104.0499993786216
 30
0.0
 11
-2.599997326731682
 21
-104.6499994024634
 31
0.0
  0
LINE
  5
10F
330
1F
100
AcDbEntity
  8
32
  6
Continuous
 62
     4
370
    25
100
AcDbLine
 10
-2.599997326731682
 20
-104.6499994024634
 30
0.0
 11
-1.599997326731682
 21
-105.2499994263053
 31
0.0
  0
LINE
  5
110
330
1F
100
AcDbEntity
  8
32
  6
Continuous
 62
     4
370
    25
100
AcDbLine
 10
-1.599997326731682
 20
-105.2499994263053
 30
0.0
 11
-1.599997326731682
 21
-106.1499994024634
 31
0.0
  0
LINE
  5
111
330
1F
100
AcDbEntity
  8
32
  6
Continuous
 62
     4
370
    25
100
AcDbLine
 10
-2.599997326731682
 20
-87.64999939501286
 30
0.0
 11
-2.599997326731682
 21
-83.64999933540821
 31
0.0
  0
LINE
  5
112
330
1F
100
AcDbEntity
  8
32
  6
Continuous
 62
     4
370
    25
100
AcDbLine
 10
-2.599997326731682
 20
-84.14999934285879
 30
0.0
 11
-4.099997349083424
 21
-83.74999933689833
 31
0.0
  0
LINE
  5
113
330
1F
100
AcDbEntity
  8
32
  6
Continuous
 62
     4
370
    25
100
AcDbLine
 10
-4.099997349083424
 20
-84.54999934881926
 30
0.0
 11
-2.599997326731682
 21
-84.14999934285879
 31
0.0
  0
LINE
  5
114
330
1F
100
AcDbEntity
  8
32
  6
Continuous
 62
     4
370
    25
100
AcDbLine
 10
-2.599997326731682
 20
-84.14999934285879
 30
0.0
 11
-5.599997371435165
 21
-84.14999934285879
 31
0.0
  0
LINE
  5
115
330
1F
100
AcDbEntity
  8
32
  6
Continuous
 62
     4
370
    25
100
AcDbLine
 10
-2.599997326731682
 20
-84.14999934285879
 30
0.0
 11
-0.0999972894787788
 21
-84.14999934285879
 31
0.0
  0
LINE
  5
116
330
1F
100
AcDbEntity
  8
32
  6
Continuous
 62
     4
370
    25
100
AcDbLine
 10
-0.0999972894787788
 20
-84.14999934285879
 30
0.0
 11
1.400002732872963
 21
-83.74999933689833
 31
0.0
  0
LINE
  5
117
330
1F
100
AcDbEntity
  8
32
  6
Continuous
 62
     4
370
    25
100
AcDbLine
 10
1.400002732872963
 20
-84.54999934881926
 30
0.0
 11
-0.0999972894787788
 21
-84.14999934285879
 31
0.0
  0
LINE
  5
118
330
1F
100
AcDbEntity
  8
32
  6
Continuous
 62
     4
370
    25
100
AcDbLine
 10
-0.0999972894787788
 20
-84.14999934285879
 30
0.0
 11
2.900002755224705
 21
-84.14999934285879
 31
0.0
  0
LINE
  5
119
330
1F
100
AcDbEntity
  8
32
  6
Continuous
 62
     4
370
    25
100
AcDbLine
 10
-0.0999972894787788
 20
-83.64999933540821
 30
0.0
 11
-0.0999972894787788
 21
-87.64999939501286
 31
0.0
  0
LINE
  5
11A
330
1F
100
AcDbEntity
  8
32
  6
Continuous
 62
     4
370
    25
100
AcDbLine
 10
6.900003038346767
 20
-111.649999409914
 30
0.0
 11
-18.59999734163284
 21
-111.649999409914
 31
0.0
  0
TEXT
  5
11B
330
1F
100
AcDbEntity
  8
32
 62
     2
100
AcDbText
 10
-4.349997350000001
 20
-83.64999934
 30
0.0
 40
2.5
  1
 5 
 41
0.8000000021333334
  7
dcStyle0
 72
     5
 11
1.65000273
 21
-83.64999934
 31
0.0
100
AcDbText
  0
TEXT
  5
11C
330
1F
100
AcDbEntity
  8
32
 62
     2
100
AcDbText
 10
-17.59999733
 20
-111.1499994
 30
0.0
 40
2.5
  1
主部材ノンスリップ部詳細
 41
0.6666666697222222
  7
dcStyle0
 72
     5
 11
6.400002999999998
 21
-111.1499994
 31
0.0
100
AcDbText
  0
LINE
  5
11D
330
1F
100
AcDbEntity
  8
16
  6
Continuous
 62
     3
370
    25
100
AcDbLine
 10
-182.0
 20
-128.25
 30
0.0
 11
-178.9999999552965
 21
-128.25
 31
0.0
  0
LINE
  5
11E
330
1F
100
AcDbEntity
  8
16
  6
Continuous
 62
     3
370
    25
100
AcDbLine
 10
-178.9999999552965
 20
-128.25
 30
0.0
 11
-178.9999999552965
 21
-125.2499999552965
 31
0.0
  0
LINE
  5
11F
330
1F
100
AcDbEntity
  8
16
  6
Continuous
 62
     3
370
    25
100
AcDbLine
 10
-178.9999999552965
 20
-125.2499999552965
 30
0.0
 11
-182.0
 21
-125.2499999552965
 31
0.0
  0
LINE
  5
120
330
1F
100
AcDbEntity
  8
16
  6
Continuous
 62
     3
370
    25
100
AcDbLine
 10
-182.0
 20
-125.2499999552965
 30
0.0
 11
-182.0
 21
-128.25
 31
0.0
  0
LINE
  5
121
330
1F
100
AcDbEntity
  8
16
  6
Continuous
 62
     3
370
    25
100
AcDbLine
 10
-182.0
 20
-128.25
 30
0.0
 11
-178.9999999552965
 21
-128.25
 31
0.0
  0
LINE
  5
122
330
1F
100
AcDbEntity
  8
16
  6
Continuous
 62
     3
370
    25
100
AcDbLine
 10
-178.9999999552965
 20
-128.25
 30
0.0
 11
-178.9999999552965
 21
-125.2499999552965
 31
0.0
  0
LINE
  5
123
330
1F
100
AcDbEntity
  8
16
  6
Continuous
 62
     3
370
    25
100
AcDbLine
 10
-178.9999999552965
 20
-125.2499999552965
 30
0.0
 11
-182.0
 21
-125.2499999552965
 31
0.0
  0
LINE
  5
124
330
1F
100
AcDbEntity
  8
16
  6
Continuous
 62
     3
370
    25
100
AcDbLine
 10
-182.0
 20
-125.2499999552965
 30
0.0
 11
-182.0
 21
-128.25
 31
0.0
  0
LINE
  5
125
330
1F
100
AcDbEntity
  8
16
  6
Continuous
 62
     3
370
    25
100
AcDbLine
 10
-182.0
 20
-128.25
 30
0.0
 11
-178.9999999552965
 21
-128.25
 31
0.0
  0
LINE
  5
126
330
1F
100
AcDbEntity
  8
16
  6
Continuous
 62
     3
370
    25
100
AcDbLine
 10
-178.9999999552965
 20
-128.25
 30
0.0
 11
-178.9999999552965
 21
-125.2499999552965
 31
0.0
  0
LINE
  5
127
330
1F
100
AcDbEntity
  8
16
  6
Continuous
 62
     3
370
    25
100
AcDbLine
 10
-178.9999999552965
 20
-125.2499999552965
 30
0.0
 11
-182.0
 21
-125.2499999552965
 31
0.0
  0
LINE
  5
128
330
1F
100
AcDbEntity
  8
16
  6
Continuous
 62
     3
370
    25
100
AcDbLine
 10
-182.0
 20
-125.2499999552965
 30
0.0
 11
-182.0
 21
-128.25
 31
0.0
  0
LINE
  5
129
330
1F
100
AcDbEntity
  8
16
  6
Continuous
 62
     3
370
    25
100
AcDbLine
 10
-182.0
 20
-128.25
 30
0.0
 11
-178.9999999552965
 21
-128.25
 31
0.0
  0
LINE
  5
12A
330
1F
100
AcDbEntity
  8
16
  6
Continuous
 62
     3
370
    25
100
AcDbLine
 10
-178.9999999552965
 20
-128.25
 30
0.0
 11
-178.9999999552965
 21
-125.2499999552965
 31
0.0
  0
LINE
  5
12B
330
1F
100
AcDbEntity
  8
16
  6
Continuous
 62
     3
370
    25
100
AcDbLine
 10
-178.9999999552965
 20
-125.2499999552965
 30
0.0
 11
-182.0
 21
-125.2499999552965
 31
0.0
  0
LINE
  5
12C
330
1F
100
AcDbEntity
  8
16
  6
Continuous
 62
     3
370
    25
100
AcDbLine
 10
-182.0
 20
-125.2499999552965
 30
0.0
 11
-182.0
 21
-128.25
 31
0.0
  0
LINE
  5
12D
330
1F
100
AcDbEntity
  8
16
  6
Continuous
 62
     3
370
    25
100
AcDbLine
 10
-182.0
 20
-128.25
 30
0.0
 11
-178.9999999552965
 21
-128.25
 31
0.0
  0
LINE
  5
12E
330
1F
100
AcDbEntity
  8
16
  6
Continuous
 62
     3
370
    25
100
AcDbLine
 10
-178.9999999552965
 20
-128.25
 30
0.0
 11
-178.9999999552965
 21
-125.2499999552965
 31
0.0
  0
LINE
  5
12F
330
1F
100
AcDbEntity
  8
16
  6
Continuous
 62
     3
370
    25
100
AcDbLine
 10
-178.9999999552965
 20
-125.2499999552965
 30
0.0
 11
-182.0
 21
-125.2499999552965
 31
0.0
  0
LINE
  5
130
330
1F
100
AcDbEntity
  8
16
  6
Continuous
 62
     3
370
    25
100
AcDbLine
 10
-182.0
 20
-125.2499999552965
 30
0.0
 11
-182.0
 21
-128.25
 31
0.0
  0
LINE
  5
131
330
1F
100
AcDbEntity
  8
16
  6
Continuous
 62
     3
370
    25
100
AcDbLine
 10
-134.7999992966652
 20
22.05000223964453
 30
0.0
 11
-35.29999781399965
 21
22.05000223964453
 31
0.0
  0
LINE
  5
132
330
1F
100
AcDbEntity
  8
16
  6
Continuous
 62
     3
370
    25
100
AcDbLine
 10
-35.29999781399965
 20
22.05000223964453
 30
0.0
 11
-35.29999781399965
 21
19.05000219494104
 31
0.0
  0
LINE
  5
133
330
1F
100
AcDbEntity
  8
16
  6
Continuous
 62
     3
370
    25
100
AcDbLine
 10
-35.29999781399965
 20
19.05000219494104
 30
0.0
 11
-134.7999992966652
 21
19.05000219494104
 31
0.0
  0
LINE
  5
134
330
1F
100
AcDbEntity
  8
16
  6
Continuous
 62
     3
370
    25
100
AcDbLine
 10
-134.7999992966652
 20
19.05000219494104
 30
0.0
 11
-134.7999992966652
 21
22.05000223964453
 31
0.0
  0
LINE
  5
135
330
1F
100
AcDbEntity
  8
16
  6
Continuous
 62
     3
370
    25
100
AcDbLine
 10
-134.7999992966652
 20
11.55000208318233
 30
0.0
 11
-35.29999781399965
 21
11.55000208318233
 31
0.0
  0
LINE
  5
136
330
1F
100
AcDbEntity
  8
16
  6
Continuous
 62
     3
370
    25
100
AcDbLine
 10
-35.29999781399965
 20
11.55000208318233
 30
0.0
 11
-35.29999781399965
 21
8.550002038478851
 31
0.0
  0
LINE
  5
137
330
1F
100
AcDbEntity
  8
16
  6
Continuous
 62
     3
370
    25
100
AcDbLine
 10
-35.29999781399965
 20
8.550002038478851
 30
0.0
 11
-134.7999992966652
 21
8.550002038478851
 31
0.0
  0
LINE
  5
138
330
1F
100
AcDbEntity
  8
16
  6
Continuous
 62
     3
370
    25
100
AcDbLine
 10
-134.7999992966652
 20
8.550002038478851
 30
0.0
 11
-134.7999992966652
 21
11.55000208318233
 31
0.0
  0
LINE
  5
139
330
1F
100
AcDbEntity
  8
16
  6
Continuous
 62
     3
370
    25
100
AcDbLine
 10
-134.7999992966652
 20
15.60000214353204
 30
0.0
 11
-35.29999781399965
 21
15.60000214353204
 31
0.0
  0
LINE
  5
13A
330
1F
100
AcDbEntity
  8
16
  6
Continuous
 62
     3
370
    25
100
AcDbLine
 10
-35.29999781399965
 20
15.00000213459134
 30
0.0
 11
-35.29999781399965
 21
15.60000214353204
 31
0.0
  0
LINE
  5
13B
330
1F
100
AcDbEntity
  8
16
  6
Continuous
 62
     3
370
    25
100
AcDbLine
 10
-134.7999992966652
 20
15.00000213459134
 30
0.0
 11
-35.29999781399965
 21
15.00000213459134
 31
0.0
  0
LINE
  5
13C
330
1F
100
AcDbEntity
  8
16
  6
Continuous
 62
     3
370
    25
100
AcDbLine
 10
-134.7999992966652
 20
15.00000213459134
 30
0.0
 11
-134.7999992966652
 21
15.60000214353204
 31
0.0
  0
LINE
  5
13D
330
1F
100
AcDbEntity
  8
16
  6
Continuous
 62
     3
370
    25
100
AcDbLine
 10
-134.2999992892146
 20
15.00000213459134
 30
0.0
 11
-131.7999992519617
 21
15.60000214353204
 31
0.0
  0
LINE
  5
13E
330
1F
100
AcDbEntity
  8
16
  6
Continuous
 62
     3
370
    25
100
AcDbLine
 10
-131.2999992445111
 20
15.00000213459134
 30
0.0
 11
-128.7999992072582
 21
15.60000214353204
 31
0.0
  0
LINE
  5
13F
330
1F
100
AcDbEntity
  8
16
  6
Continuous
 62
     3
370
    25
100
AcDbLine
 10
-128.2999991998076
 20
15.00000213459134
 30
0.0
 11
-125.7999991625547
 21
15.60000214353204
 31
0.0
  0
LINE
  5
140
330
1F
100
AcDbEntity
  8
16
  6
Continuous
 62
     3
370
    25
100
AcDbLine
 10
-125.2999991551042
 20
15.00000213459134
 30
0.0
 11
-122.7999991178513
 21
15.60000214353204
 31
0.0
  0
LINE
  5
141
330
1F
100
AcDbEntity
  8
16
  6
Continuous
 62
     3
370
    25
100
AcDbLine
 10
-122.2999991104007
 20
15.00000213459134
 30
0.0
 11
-119.7999990731478
 21
15.60000214353204
 31
0.0
  0
LINE
  5
142
330
1F
100
AcDbEntity
  8
16
  6
Continuous
 62
     3
370
    25
100
AcDbLine
 10
-119.2999990656972
 20
15.00000213459134
 30
0.0
 11
-116.7999990284443
 21
15.60000214353204
 31
0.0
  0
LINE
  5
143
330
1F
100
AcDbEntity
  8
16
  6
Continuous
 62
     3
370
    25
100
AcDbLine
 10
-116.2999990209937
 20
15.00000213459134
 30
0.0
 11
-113.7999989837408
 21
15.60000214353204
 31
0.0
  0
LINE
  5
144
330
1F
100
AcDbEntity
  8
16
  6
Continuous
 62
     3
370
    25
100
AcDbLine
 10
-113.2999989762902
 20
15.00000213459134
 30
0.0
 11
-110.7999989390373
 21
15.60000214353204
 31
0.0
  0
LINE
  5
145
330
1F
100
AcDbEntity
  8
16
  6
Continuous
 62
     3
370
    25
100
AcDbLine
 10
-110.2999989315867
 20
15.00000213459134
 30
0.0
 11
-107.7999988943338
 21
15.60000214353204
 31
0.0
  0
LINE
  5
146
330
1F
100
AcDbEntity
  8
16
  6
Continuous
 62
     3
370
    25
100
AcDbLine
 10
-107.2999988868833
 20
15.00000213459134
 30
0.0
 11
-104.7999988496304
 21
15.60000214353204
 31
0.0
  0
LINE
  5
147
330
1F
100
AcDbEntity
  8
16
  6
Continuous
 62
     3
370
    25
100
AcDbLine
 10
-104.2999988421798
 20
15.00000213459134
 30
0.0
 11
-101.7999988049269
 21
15.60000214353204
 31
0.0
  0
LINE
  5
148
330
1F
100
AcDbEntity
  8
16
  6
Continuous
 62
     3
370
    25
100
AcDbLine
 10
-101.2999987974763
 20
15.00000213459134
 30
0.0
 11
-98.79999876022339
 21
15.60000214353204
 31
0.0
  0
LINE
  5
149
330
1F
100
AcDbEntity
  8
16
  6
Continuous
 62
     3
370
    25
100
AcDbLine
 10
-98.29999875277281
 20
15.00000213459134
 30
0.0
 11
-95.7999987155199
 21
15.60000214353204
 31
0.0
  0
LINE
  5
14A
330
1F
100
AcDbEntity
  8
16
  6
Continuous
 62
     3
370
    25
100
AcDbLine
 10
-95.29999870806932
 20
15.00000213459134
 30
0.0
 11
-92.79999867081642
 21
15.60000214353204
 31
0.0
  0
LINE
  5
14B
330
1F
100
AcDbEntity
  8
16
  6
Continuous
 62
     3
370
    25
100
AcDbLine
 10
-92.29999866336584
 20
15.00000213459134
 30
0.0
 11
-89.79999862611294
 21
15.60000214353204
 31
0.0
  0
LINE
  5
14C
330
1F
100
AcDbEntity
  8
16
  6
Continuous
 62
     3
370
    25
100
AcDbLine
 10
-89.29999861866236
 20
15.00000213459134
 30
0.0
 11
-86.79999858140945
 21
15.60000214353204
 31
0.0
  0
LINE
  5
14D
330
1F
100
AcDbEntity
  8
16
  6
Continuous
 62
     3
370
    25
100
AcDbLine
 10
-86.29999857395887
 20
15.00000213459134
 30
0.0
 11
-83.79999853670597
 21
15.60000214353204
 31
0.0
  0
LINE
  5
14E
330
1F
100
AcDbEntity
  8
16
  6
Continuous
 62
     3
370
    25
100
AcDbLine
 10
-83.29999852925539
 20
15.00000213459134
 30
0.0
 11
-80.79999849200249
 21
15.60000214353204
 31
0.0
  0
LINE
  5
14F
330
1F
100
AcDbEntity
  8
16
  6
Continuous
 62
     3
370
    25
100
AcDbLine
 10
-80.2999984845519
 20
15.00000213459134
 30
0.0
 11
-77.799998447299
 21
15.60000214353204
 31
0.0
  0
LINE
  5
150
330
1F
100
AcDbEntity
  8
16
  6
Continuous
 62
     3
370
    25
100
AcDbLine
 10
-77.29999843984842
 20
15.00000213459134
 30
0.0
 11
-74.79999840259552
 21
15.60000214353204
 31
0.0
  0
LINE
  5
151
330
1F
100
AcDbEntity
  8
16
  6
Continuous
 62
     3
370
    25
100
AcDbLine
 10
-74.29999839514494
 20
15.00000213459134
 30
0.0
 11
-71.79999835789204
 21
15.60000214353204
 31
0.0
  0
LINE
  5
152
330
1F
100
AcDbEntity
  8
16
  6
Continuous
 62
     3
370
    25
100
AcDbLine
 10
-71.29999835044146
 20
15.00000213459134
 30
0.0
 11
-68.79999831318855
 21
15.60000214353204
 31
0.0
  0
LINE
  5
153
330
1F
100
AcDbEntity
  8
16
  6
Continuous
 62
     3
370
    25
100
AcDbLine
 10
-68.29999830573797
 20
15.00000213459134
 30
0.0
 11
-65.79999826848507
 21
15.60000214353204
 31
0.0
  0
LINE
  5
154
330
1F
100
AcDbEntity
  8
16
  6
Continuous
 62
     3
370
    25
100
AcDbLine
 10
-65.29999826103449
 20
15.00000213459134
 30
0.0
 11
-62.79999822378158
 21
15.60000214353204
 31
0.0
  0
LINE
  5
155
330
1F
100
AcDbEntity
  8
16
  6
Continuous
 62
     3
370
    25
100
AcDbLine
 10
-62.299998216331
 20
15.00000213459134
 30
0.0
 11
-59.7999981790781
 21
15.60000214353204
 31
0.0
  0
LINE
  5
156
330
1F
100
AcDbEntity
  8
16
  6
Continuous
 62
     3
370
    25
100
AcDbLine
 10
-59.29999817162752
 20
15.00000213459134
 30
0.0
 11
-56.79999813437462
 21
15.60000214353204
 31
0.0
  0
LINE
  5
157
330
1F
100
AcDbEntity
  8
16
  6
Continuous
 62
     3
370
    25
100
AcDbLine
 10
-56.29999812692404
 20
15.00000213459134
 30
0.0
 11
-53.79999808967113
 21
15.60000214353204
 31
0.0
  0
LINE
  5
158
330
1F
100
AcDbEntity
  8
16
  6
Continuous
 62
     3
370
    25
100
AcDbLine
 10
-53.29999808222055
 20
15.00000213459134
 30
0.0
 11
-50.79999804496765
 21
15.60000214353204
 31
0.0
  0
LINE
  5
159
330
1F
100
AcDbEntity
  8
16
  6
Continuous
 62
     3
370
    25
100
AcDbLine
 10
-50.29999803751707
 20
15.00000213459134
 30
0.0
 11
-47.79999800026417
 21
15.60000214353204
 31
0.0
  0
LINE
  5
15A
330
1F
100
AcDbEntity
  8
16
  6
Continuous
 62
     3
370
    25
100
AcDbLine
 10
-47.29999799281359
 20
15.00000213459134
 30
0.0
 11
-44.79999795556068
 21
15.60000214353204
 31
0.0
  0
LINE
  5
15B
330
1F
100
AcDbEntity
  8
16
  6
Continuous
 62
     3
370
    25
100
AcDbLine
 10
-44.2999979481101
 20
15.00000213459134
 30
0.0
 11
-41.7999979108572
 21
15.60000214353204
 31
0.0
  0
LINE
  5
15C
330
1F
100
AcDbEntity
  8
16
  6
Continuous
 62
     3
370
    25
100
AcDbLine
 10
-41.29999790340662
 20
15.00000213459134
 30
0.0
 11
-38.79999786615372
 21
15.60000214353204
 31
0.0
  0
LINE
  5
15D
330
1F
100
AcDbEntity
  8
16
  6
Continuous
 62
     3
370
    25
100
AcDbLine
 10
-38.29999785870314
 20
15.00000213459134
 30
0.0
 11
-35.79999782145023
 21
15.60000214353204
 31
0.0
  0
LINE
  5
15E
330
1F
100
AcDbEntity
  8
16
  6
Continuous
 62
     3
370
    25
100
AcDbLine
 10
-134.7999992966652
 20
11.55000208318233
 30
0.0
 11
-134.7999992966652
 21
19.05000219494104
 31
0.0
  0
LINE
  5
15F
330
1F
100
AcDbEntity
  8
16
  6
Continuous
 62
     3
370
    25
100
AcDbLine
 10
-134.7999992966652
 20
11.55000208318233
 30
0.0
 11
-134.2999992892146
 21
11.55000208318233
 31
0.0
  0
LINE
  5
160
330
1F
100
AcDbEntity
  8
16
  6
Continuous
 62
     3
370
    25
100
AcDbLine
 10
-134.2999992892146
 20
11.55000208318233
 30
0.0
 11
-134.2999992892146
 21
15.00000213459134
 31
0.0
  0
LINE
  5
161
330
1F
100
AcDbEntity
  8
16
  6
Continuous
 62
     3
370
    25
100
AcDbLine
 10
-134.2999992892146
 20
15.60000214353204
 30
0.0
 11
-134.2999992892146
 21
19.05000219494104
 31
0.0
  0
LINE
  5
162
330
1F
100
AcDbEntity
  8
16
  6
Continuous
 62
     3
370
    25
100
AcDbLine
 10
-134.7999992966652
 20
19.05000219494104
 30
0.0
 11
-134.2999992892146
 21
19.05000219494104
 31
0.0
  0
LINE
  5
163
330
1F
100
AcDbEntity
  8
16
  6
Continuous
 62
     3
370
    25
100
AcDbLine
 10
-134.5499992929399
 20
15.60000214353204
 30
0.0
 11
-134.5499992929399
 21
19.05000219494104
 31
0.0
  0
LINE
  5
164
330
1F
100
AcDbEntity
  8
16
  6
Continuous
 62
     3
370
    25
100
AcDbLine
 10
-134.2999992892146
 20
18.77000219553709
 30
0.0
 11
-134.7999992966652
 21
19.05000219494104
 31
0.0
  0
LINE
  5
165
330
1F
100
AcDbEntity
  8
16
  6
Continuous
 62
     3
370
    25
100
AcDbLine
 10
-134.7999992966652
 20
18.49000219613314
 30
0.0
 11
-134.2999992892146
 21
18.77000219553709
 31
0.0
  0
LINE
  5
166
330
1F
100
AcDbEntity
  8
16
  6
Continuous
 62
     3
370
    25
100
AcDbLine
 10
-134.2999992892146
 20
18.21000219672919
 30
0.0
 11
-134.7999992966652
 21
18.49000219613314
 31
0.0
  0
LINE
  5
167
330
1F
100
AcDbEntity
  8
16
  6
Continuous
 62
     3
370
    25
100
AcDbLine
 10
-134.7999992966652
 20
17.93000219732524
 30
0.0
 11
-134.2999992892146
 21
18.21000219672919
 31
0.0
  0
LINE
  5
168
330
1F
100
AcDbEntity
  8
16
  6
Continuous
 62
     3
370
    25
100
AcDbLine
 10
-134.2999992892146
 20
17.65000219792129
 30
0.0
 11
-134.7999992966652
 21
17.93000219732524
 31
0.0
  0
LINE
  5
169
330
1F
100
AcDbEntity
  8
16
  6
Continuous
 62
     3
370
    25
100
AcDbLine
 10
-134.7999992966652
 20
17.37000219851733
 30
0.0
 11
-134.2999992892146
 21
17.65000219792129
 31
0.0
  0
LINE
  5
16A
330
1F
100
AcDbEntity
  8
16
  6
Continuous
 62
     3
370
    25
100
AcDbLine
 10
-134.2999992892146
 20
17.09000219911338
 30
0.0
 11
-134.7999992966652
 21
17.37000219851733
 31
0.0
  0
LINE
  5
16B
330
1F
100
AcDbEntity
  8
16
  6
Continuous
 62
     3
370
    25
100
AcDbLine
 10
-134.7999992966652
 20
16.81000219970943
 30
0.0
 11
-134.2999992892146
 21
17.09000219911338
 31
0.0
  0
LINE
  5
16C
330
1F
100
AcDbEntity
  8
16
  6
Continuous
 62
     3
370
    25
100
AcDbLine
 10
-134.2999992892146
 20
16.53000220030548
 30
0.0
 11
-134.7999992966652
 21
16.81000219970943
 31
0.0
  0
LINE
  5
16D
330
1F
100
AcDbEntity
  8
16
  6
Continuous
 62
     3
370
    25
100
AcDbLine
 10
-134.7999992966652
 20
16.25000220090153
 30
0.0
 11
-134.2999992892146
 21
16.53000220030548
 31
0.0
  0
LINE
  5
16E
330
1F
100
AcDbEntity
  8
16
  6
Continuous
 62
     3
370
    25
100
AcDbLine
 10
-134.2999992892146
 20
15.97000220149757
 30
0.0
 11
-134.7999992966652
 21
16.25000220090153
 31
0.0
  0
LINE
  5
16F
330
1F
100
AcDbEntity
  8
16
  6
Continuous
 62
     3
370
    25
100
AcDbLine
 10
-134.7999992966652
 20
15.69000220209362
 30
0.0
 11
-134.2999992892146
 21
15.97000220149757
 31
0.0
  0
LINE
  5
170
330
1F
100
AcDbEntity
  8
16
  6
Continuous
 62
     3
370
    25
100
AcDbLine
 10
-134.6392849036397
 20
15.60000214353204
 30
0.0
 11
-134.7999992966652
 21
15.69000220209362
 31
0.0
  0
LINE
  5
171
330
1F
100
AcDbEntity
  8
16
  6
Continuous
 62
     3
370
    25
100
AcDbLine
 10
-131.7999992519617
 20
11.55000208318233
 30
0.0
 11
-131.7999992519617
 21
15.00000213459134
 31
0.0
  0
LINE
  5
172
330
1F
100
AcDbEntity
  8
16
  6
Continuous
 62
     3
370
    25
100
AcDbLine
 10
-131.7999992519617
 20
15.60000214353204
 30
0.0
 11
-131.7999992519617
 21
19.05000219494104
 31
0.0
  0
LINE
  5
173
330
1F
100
AcDbEntity
  8
16
  6
Continuous
 62
     3
370
    25
100
AcDbLine
 10
-131.7999992519617
 20
11.55000208318233
 30
0.0
 11
-131.2999992445111
 21
11.55000208318233
 31
0.0
  0
LINE
  5
174
330
1F
100
AcDbEntity
  8
16
  6
Continuous
 62
     3
370
    25
100
AcDbLine
 10
-131.2999992445111
 20
11.55000208318233
 30
0.0
 11
-131.2999992445111
 21
15.00000213459134
 31
0.0
  0
LINE
  5
175
330
1F
100
AcDbEntity
  8
16
  6
Continuous
 62
     3
370
    25
100
AcDbLine
 10
-131.2999992445111
 20
15.60000214353204
 30
0.0
 11
-131.2999992445111
 21
19.05000219494104
 31
0.0
  0
LINE
  5
176
330
1F
100
AcDbEntity
  8
16
  6
Continuous
 62
     3
370
    25
100
AcDbLine
 10
-131.7999992519617
 20
19.05000219494104
 30
0.0
 11
-131.2999992445111
 21
19.05000219494104
 31
0.0
  0
LINE
  5
177
330
1F
100
AcDbEntity
  8
16
  6
Continuous
 62
     3
370
    25
100
AcDbLine
 10
-131.5499992482364
 20
16.25000215321779
 30
0.0
 11
-131.5499992482364
 21
19.05000219494104
 31
0.0
  0
LINE
  5
178
330
1F
100
AcDbEntity
  8
16
  6
Continuous
 62
     3
370
    25
100
AcDbLine
 10
-131.2999992445111
 20
18.77000219553709
 30
0.0
 11
-131.7999992519617
 21
19.05000219494104
 31
0.0
  0
LINE
  5
179
330
1F
100
AcDbEntity
  8
16
  6
Continuous
 62
     3
370
    25
100
AcDbLine
 10
-131.7999992519617
 20
18.49000219613314
 30
0.0
 11
-131.2999992445111
 21
18.77000219553709
 31
0.0
  0
LINE
  5
17A
330
1F
100
AcDbEntity
  8
16
  6
Continuous
 62
     3
370
    25
100
AcDbLine
 10
-131.2999992445111
 20
18.21000219672919
 30
0.0
 11
-131.7999992519617
 21
18.49000219613314
 31
0.0
  0
LINE
  5
17B
330
1F
100
AcDbEntity
  8
16
  6
Continuous
 62
     3
370
    25
100
AcDbLine
 10
-131.7999992519617
 20
17.93000219732524
 30
0.0
 11
-131.2999992445111
 21
18.21000219672919
 31
0.0
  0
LINE
  5
17C
330
1F
100
AcDbEntity
  8
16
  6
Continuous
 62
     3
370
    25
100
AcDbLine
 10
-131.2999992445111
 20
17.65000219792129
 30
0.0
 11
-131.7999992519617
 21
17.93000219732524
 31
0.0
  0
LINE
  5
17D
330
1F
100
AcDbEntity
  8
16
  6
Continuous
 62
     3
370
    25
100
AcDbLine
 10
-131.7999992519617
 20
17.37000219851733
 30
0.0
 11
-131.2999992445111
 21
17.65000219792129
 31
0.0
  0
LINE
  5
17E
330
1F
100
AcDbEntity
  8
16
  6
Continuous
 62
     3
370
    25
100
AcDbLine
 10
-131.2999992445111
 20
17.09000219911338
 30
0.0
 11
-131.7999992519617
 21
17.37000219851733
 31
0.0
  0
LINE
  5
17F
330
1F
100
AcDbEntity
  8
16
  6
Continuous
 62
     3
370
    25
100
AcDbLine
 10
-131.7999992519617
 20
16.81000219970943
 30
0.0
 11
-131.2999992445111
 21
17.09000219911338
 31
0.0
  0
LINE
  5
180
330
1F
100
AcDbEntity
  8
16
  6
Continuous
 62
     3
370
    25
100
AcDbLine
 10
-131.2999992445111
 20
16.53000220030548
 30
0.0
 11
-131.7999992519617
 21
16.81000219970943
 31
0.0
  0
LINE
  5
181
330
1F
100
AcDbEntity
  8
16
  6
Continuous
 62
     3
370
    25
100
AcDbLine
 10
-131.7999992519617
 20
16.25000220090153
 30
0.0
 11
-131.2999992445111
 21
16.53000220030548
 31
0.0
  0
LINE
  5
182
330
1F
100
AcDbEntity
  8
16
  6
Continuous
 62
     3
370
    25
100
AcDbLine
 10
-128.7999992072582
 20
11.55000208318233
 30
0.0
 11
-128.7999992072582
 21
15.00000213459134
 31
0.0
  0
LINE
  5
183
330
1F
100
AcDbEntity
  8
16
  6
Continuous
 62
     3
370
    25
100
AcDbLine
 10
-128.7999992072582
 20
15.60000214353204
 30
0.0
 11
-128.7999992072582
 21
19.05000219494104
 31
0.0
  0
LINE
  5
184
330
1F
100
AcDbEntity
  8
16
  6
Continuous
 62
     3
370
    25
100
AcDbLine
 10
-128.7999992072582
 20
11.55000208318233
 30
0.0
 11
-128.2999991998076
 21
11.55000208318233
 31
0.0
  0
LINE
  5
185
330
1F
100
AcDbEntity
  8
16
  6
Continuous
 62
     3
370
    25
100
AcDbLine
 10
-128.2999991998076
 20
11.55000208318233
 30
0.0
 11
-128.2999991998076
 21
15.00000213459134
 31
0.0
  0
LINE
  5
186
330
1F
100
AcDbEntity
  8
16
  6
Continuous
 62
     3
370
    25
100
AcDbLine
 10
-128.2999991998076
 20
15.60000214353204
 30
0.0
 11
-128.2999991998076
 21
19.05000219494104
 31
0.0
  0
LINE
  5
187
330
1F
100
AcDbEntity
  8
16
  6
Continuous
 62
     3
370
    25
100
AcDbLine
 10
-128.7999992072582
 20
19.05000219494104
 30
0.0
 11
-128.2999991998076
 21
19.05000219494104
 31
0.0
  0
LINE
  5
188
330
1F
100
AcDbEntity
  8
16
  6
Continuous
 62
     3
370
    25
100
AcDbLine
 10
-128.5499992035329
 20
17.37000224620104
 30
0.0
 11
-128.5499992035329
 21
19.05000219494104
 31
0.0
  0
LINE
  5
189
330
1F
100
AcDbEntity
  8
16
  6
Continuous
 62
     3
370
    25
100
AcDbLine
 10
-128.2999991998076
 20
18.77000219553709
 30
0.0
 11
-128.7999992072582
 21
19.05000219494104
 31
0.0
  0
LINE
  5
18A
330
1F
100
AcDbEntity
  8
16
  6
Continuous
 62
     3
370
    25
100
AcDbLine
 10
-128.7999992072582
 20
18.49000219613314
 30
0.0
 11
-128.2999991998076
 21
18.77000219553709
 31
0.0
  0
LINE
  5
18B
330
1F
100
AcDbEntity
  8
16
  6
Continuous
 62
     3
370
    25
100
AcDbLine
 10
-128.2999991998076
 20
18.21000219672919
 30
0.0
 11
-128.7999992072582
 21
18.49000219613314
 31
0.0
  0
LINE
  5
18C
330
1F
100
AcDbEntity
  8
16
  6
Continuous
 62
     3
370
    25
100
AcDbLine
 10
-128.7999992072582
 20
17.93000219732524
 30
0.0
 11
-128.2999991998076
 21
18.21000219672919
 31
0.0
  0
LINE
  5
18D
330
1F
100
AcDbEntity
  8
16
  6
Continuous
 62
     3
370
    25
100
AcDbLine
 10
-128.2999991998076
 20
17.65000219792129
 30
0.0
 11
-128.7999992072582
 21
17.93000219732524
 31
0.0
  0
LINE
  5
18E
330
1F
100
AcDbEntity
  8
16
  6
Continuous
 62
     3
370
    25
100
AcDbLine
 10
-128.7999992072582
 20
17.37000219851733
 30
0.0
 11
-128.2999991998076
 21
17.65000219792129
 31
0.0
  0
LINE
  5
18F
330
1F
100
AcDbEntity
  8
16
  6
Continuous
 62
     3
370
    25
100
AcDbLine
 10
-125.7999991625547
 20
11.55000208318233
 30
0.0
 11
-125.7999991625547
 21
15.00000213459134
 31
0.0
  0
LINE
  5
190
330
1F
100
AcDbEntity
  8
16
  6
Continuous
 62
     3
370
    25
100
AcDbLine
 10
-125.7999991625547
 20
15.60000214353204
 30
0.0
 11
-125.7999991625547
 21
19.05000219494104
 31
0.0
  0
LINE
  5
191
330
1F
100
AcDbEntity
  8
16
  6
Continuous
 62
     3
370
    25
100
AcDbLine
 10
-125.7999991625547
 20
11.55000208318233
 30
0.0
 11
-125.2999991551042
 21
11.55000208318233
 31
0.0
  0
LINE
  5
192
330
1F
100
AcDbEntity
  8
16
  6
Continuous
 62
     3
370
    25
100
AcDbLine
 10
-125.2999991551042
 20
11.55000208318233
 30
0.0
 11
-125.2999991551042
 21
15.00000213459134
 31
0.0
  0
LINE
  5
193
330
1F
100
AcDbEntity
  8
16
  6
Continuous
 62
     3
370
    25
100
AcDbLine
 10
-125.2999991551042
 20
15.60000214353204
 30
0.0
 11
-125.2999991551042
 21
19.05000219494104
 31
0.0
  0
LINE
  5
194
330
1F
100
AcDbEntity
  8
16
  6
Continuous
 62
     3
370
    25
100
AcDbLine
 10
-125.7999991625547
 20
19.05000219494104
 30
0.0
 11
-125.2999991551042
 21
19.05000219494104
 31
0.0
  0
LINE
  5
195
330
1F
100
AcDbEntity
  8
16
  6
Continuous
 62
     3
370
    25
100
AcDbLine
 10
-125.5499991588294
 20
18.49000219613314
 30
0.0
 11
-125.5499991588294
 21
19.05000219494104
 31
0.0
  0
LINE
  5
196
330
1F
100
AcDbEntity
  8
16
  6
Continuous
 62
     3
370
    25
100
AcDbLine
 10
-125.2999991551042
 20
18.77000219553709
 30
0.0
 11
-125.7999991625547
 21
19.05000219494104
 31
0.0
  0
LINE
  5
197
330
1F
100
AcDbEntity
  8
16
  6
Continuous
 62
     3
370
    25
100
AcDbLine
 10
-125.7999991625547
 20
18.49000219613314
 30
0.0
 11
-125.2999991551042
 21
18.77000219553709
 31
0.0
  0
LINE
  5
198
330
1F
100
AcDbEntity
  8
16
  6
Continuous
 62
     3
370
    25
100
AcDbLine
 10
-122.7999991178513
 20
11.55000208318233
 30
0.0
 11
-122.7999991178513
 21
15.00000213459134
 31
0.0
  0
LINE
  5
199
330
1F
100
AcDbEntity
  8
16
  6
Continuous
 62
     3
370
    25
100
AcDbLine
 10
-122.7999991178513
 20
15.60000214353204
 30
0.0
 11
-122.7999991178513
 21
19.05000219494104
 31
0.0
  0
LINE
  5
19A
330
1F
100
AcDbEntity
  8
16
  6
Continuous
 62
     3
370
    25
100
AcDbLine
 10
-122.7999991178513
 20
11.55000208318233
 30
0.0
 11
-122.2999991104007
 21
11.55000208318233
 31
0.0
  0
LINE
  5
19B
330
1F
100
AcDbEntity
  8
16
  6
Continuous
 62
     3
370
    25
100
AcDbLine
 10
-122.2999991104007
 20
11.55000208318233
 30
0.0
 11
-122.2999991104007
 21
15.00000213459134
 31
0.0
  0
LINE
  5
19C
330
1F
100
AcDbEntity
  8
16
  6
Continuous
 62
     3
370
    25
100
AcDbLine
 10
-122.2999991104007
 20
15.60000214353204
 30
0.0
 11
-122.2999991104007
 21
19.05000219494104
 31
0.0
  0
LINE
  5
19D
330
1F
100
AcDbEntity
  8
16
  6
Continuous
 62
     3
370
    25
100
AcDbLine
 10
-122.7999991178513
 20
19.05000219494104
 30
0.0
 11
-122.2999991104007
 21
19.05000219494104
 31
0.0
  0
LINE
  5
19E
330
1F
100
AcDbEntity
  8
16
  6
Continuous
 62
     3
370
    25
100
AcDbLine
 10
-122.549999114126
 20
19.05000219494104
 30
0.0
 11
-122.549999114126
 21
19.61000219374895
 31
0.0
  0
LINE
  5
19F
330
1F
100
AcDbEntity
  8
16
  6
Continuous
 62
     3
370
    25
100
AcDbLine
 10
-119.7999990731478
 20
11.55000208318233
 30
0.0
 11
-119.7999990731478
 21
15.00000213459134
 31
0.0
  0
LINE
  5
1A0
330
1F
100
AcDbEntity
  8
16
  6
Continuous
 62
     3
370
    25
100
AcDbLine
 10
-119.7999990731478
 20
15.60000214353204
 30
0.0
 11
-119.7999990731478
 21
19.05000219494104
 31
0.0
  0
LINE
  5
1A1
330
1F
100
AcDbEntity
  8
16
  6
Continuous
 62
     3
370
    25
100
AcDbLine
 10
-119.7999990731478
 20
11.55000208318233
 30
0.0
 11
-119.2999990656972
 21
11.55000208318233
 31
0.0
  0
LINE
  5
1A2
330
1F
100
AcDbEntity
  8
16
  6
Continuous
 62
     3
370
    25
100
AcDbLine
 10
-119.2999990656972
 20
11.55000208318233
 30
0.0
 11
-119.2999990656972
 21
15.00000213459134
 31
0.0
  0
LINE
  5
1A3
330
1F
100
AcDbEntity
  8
16
  6
Continuous
 62
     3
370
    25
100
AcDbLine
 10
-119.2999990656972
 20
15.60000214353204
 30
0.0
 11
-119.2999990656972
 21
19.05000219494104
 31
0.0
  0
LINE
  5
1A4
330
1F
100
AcDbEntity
  8
16
  6
Continuous
 62
     3
370
    25
100
AcDbLine
 10
-119.7999990731478
 20
19.05000219494104
 30
0.0
 11
-119.2999990656972
 21
19.05000219494104
 31
0.0
  0
LINE
  5
1A5
330
1F
100
AcDbEntity
  8
16
  6
Continuous
 62
     3
370
    25
100
AcDbLine
 10
-116.7999990284443
 20
11.55000208318233
 30
0.0
 11
-116.7999990284443
 21
15.00000213459134
 31
0.0
  0
LINE
  5
1A6
330
1F
100
AcDbEntity
  8
16
  6
Continuous
 62
     3
370
    25
100
AcDbLine
 10
-116.7999990284443
 20
15.60000214353204
 30
0.0
 11
-116.7999990284443
 21
19.05000219494104
 31
0.0
  0
LINE
  5
1A7
330
1F
100
AcDbEntity
  8
16
  6
Continuous
 62
     3
370
    25
100
AcDbLine
 10
-116.7999990284443
 20
11.55000208318233
 30
0.0
 11
-116.2999990209937
 21
11.55000208318233
 31
0.0
  0
LINE
  5
1A8
330
1F
100
AcDbEntity
  8
16
  6
Continuous
 62
     3
370
    25
100
AcDbLine
 10
-116.2999990209937
 20
11.55000208318233
 30
0.0
 11
-116.2999990209937
 21
15.00000213459134
 31
0.0
  0
LINE
  5
1A9
330
1F
100
AcDbEntity
  8
16
  6
Continuous
 62
     3
370
    25
100
AcDbLine
 10
-116.2999990209937
 20
15.60000214353204
 30
0.0
 11
-116.2999990209937
 21
19.05000219494104
 31
0.0
  0
LINE
  5
1AA
330
1F
100
AcDbEntity
  8
16
  6
Continuous
 62
     3
370
    25
100
AcDbLine
 10
-116.7999990284443
 20
19.05000219494104
 30
0.0
 11
-116.2999990209937
 21
19.05000219494104
 31
0.0
  0
LINE
  5
1AB
330
1F
100
AcDbEntity
  8
16
  6
Continuous
 62
     3
370
    25
100
AcDbLine
 10
-113.7999989837408
 20
11.55000208318233
 30
0.0
 11
-113.7999989837408
 21
15.00000213459134
 31
0.0
  0
LINE
  5
1AC
330
1F
100
AcDbEntity
  8
16
  6
Continuous
 62
     3
370
    25
100
AcDbLine
 10
-113.7999989837408
 20
15.60000214353204
 30
0.0
 11
-113.7999989837408
 21
19.05000219494104
 31
0.0
  0
LINE
  5
1AD
330
1F
100
AcDbEntity
  8
16
  6
Continuous
 62
     3
370
    25
100
AcDbLine
 10
-113.7999989837408
 20
11.55000208318233
 30
0.0
 11
-113.2999989762902
 21
11.55000208318233
 31
0.0
  0
LINE
  5
1AE
330
1F
100
AcDbEntity
  8
16
  6
Continuous
 62
     3
370
    25
100
AcDbLine
 10
-113.2999989762902
 20
11.55000208318233
 30
0.0
 11
-113.2999989762902
 21
15.00000213459134
 31
0.0
  0
LINE
  5
1AF
330
1F
100
AcDbEntity
  8
16
  6
Continuous
 62
     3
370
    25
100
AcDbLine
 10
-113.2999989762902
 20
15.60000214353204
 30
0.0
 11
-113.2999989762902
 21
19.05000219494104
 31
0.0
  0
LINE
  5
1B0
330
1F
100
AcDbEntity
  8
16
  6
Continuous
 62
     3
370
    25
100
AcDbLine
 10
-113.7999989837408
 20
19.05000219494104
 30
0.0
 11
-113.2999989762902
 21
19.05000219494104
 31
0.0
  0
LINE
  5
1B1
330
1F
100
AcDbEntity
  8
16
  6
Continuous
 62
     3
370
    25
100
AcDbLine
 10
-110.7999989390373
 20
11.55000208318233
 30
0.0
 11
-110.7999989390373
 21
15.00000213459134
 31
0.0
  0
LINE
  5
1B2
330
1F
100
AcDbEntity
  8
16
  6
Continuous
 62
     3
370
    25
100
AcDbLine
 10
-110.7999989390373
 20
15.60000214353204
 30
0.0
 11
-110.7999989390373
 21
19.05000219494104
 31
0.0
  0
LINE
  5
1B3
330
1F
100
AcDbEntity
  8
16
  6
Continuous
 62
     3
370
    25
100
AcDbLine
 10
-110.7999989390373
 20
11.55000208318233
 30
0.0
 11
-110.2999989315867
 21
11.55000208318233
 31
0.0
  0
LINE
  5
1B4
330
1F
100
AcDbEntity
  8
16
  6
Continuous
 62
     3
370
    25
100
AcDbLine
 10
-110.2999989315867
 20
11.55000208318233
 30
0.0
 11
-110.2999989315867
 21
15.00000213459134
 31
0.0
  0
LINE
  5
1B5
330
1F
100
AcDbEntity
  8
16
  6
Continuous
 62
     3
370
    25
100
AcDbLine
 10
-110.2999989315867
 20
15.60000214353204
 30
0.0
 11
-110.2999989315867
 21
19.05000219494104
 31
0.0
  0
LINE
  5
1B6
330
1F
100
AcDbEntity
  8
16
  6
Continuous
 62
     3
370
    25
100
AcDbLine
 10
-110.7999989390373
 20
19.05000219494104
 30
0.0
 11
-110.2999989315867
 21
19.05000219494104
 31
0.0
  0
LINE
  5
1B7
330
1F
100
AcDbEntity
  8
16
  6
Continuous
 62
     3
370
    25
100
AcDbLine
 10
-107.7999988943338
 20
11.55000208318233
 30
0.0
 11
-107.7999988943338
 21
15.00000213459134
 31
0.0
  0
LINE
  5
1B8
330
1F
100
AcDbEntity
  8
16
  6
Continuous
 62
     3
370
    25
100
AcDbLine
 10
-107.7999988943338
 20
15.60000214353204
 30
0.0
 11
-107.7999988943338
 21
19.05000219494104
 31
0.0
  0
LINE
  5
1B9
330
1F
100
AcDbEntity
  8
16
  6
Continuous
 62
     3
370
    25
100
AcDbLine
 10
-107.7999988943338
 20
11.55000208318233
 30
0.0
 11
-107.2999988868833
 21
11.55000208318233
 31
0.0
  0
LINE
  5
1BA
330
1F
100
AcDbEntity
  8
16
  6
Continuous
 62
     3
370
    25
100
AcDbLine
 10
-107.2999988868833
 20
11.55000208318233
 30
0.0
 11
-107.2999988868833
 21
15.00000213459134
 31
0.0
  0
LINE
  5
1BB
330
1F
100
AcDbEntity
  8
16
  6
Continuous
 62
     3
370
    25
100
AcDbLine
 10
-107.2999988868833
 20
15.60000214353204
 30
0.0
 11
-107.2999988868833
 21
19.05000219494104
 31
0.0
  0
LINE
  5
1BC
330
1F
100
AcDbEntity
  8
16
  6
Continuous
 62
     3
370
    25
100
AcDbLine
 10
-107.7999988943338
 20
19.05000219494104
 30
0.0
 11
-107.2999988868833
 21
19.05000219494104
 31
0.0
  0
LINE
  5
1BD
330
1F
100
AcDbEntity
  8
16
  6
Continuous
 62
     3
370
    25
100
AcDbLine
 10
-104.7999988496304
 20
11.55000208318233
 30
0.0
 11
-104.7999988496304
 21
15.00000213459134
 31
0.0
  0
LINE
  5
1BE
330
1F
100
AcDbEntity
  8
16
  6
Continuous
 62
     3
370
    25
100
AcDbLine
 10
-104.7999988496304
 20
15.60000214353204
 30
0.0
 11
-104.7999988496304
 21
19.05000219494104
 31
0.0
  0
LINE
  5
1BF
330
1F
100
AcDbEntity
  8
16
  6
Continuous
 62
     3
370
    25
100
AcDbLine
 10
-104.7999988496304
 20
11.55000208318233
 30
0.0
 11
-104.2999988421798
 21
11.55000208318233
 31
0.0
  0
LINE
  5
1C0
330
1F
100
AcDbEntity
  8
16
  6
Continuous
 62
     3
370
    25
100
AcDbLine
 10
-104.2999988421798
 20
11.55000208318233
 30
0.0
 11
-104.2999988421798
 21
15.00000213459134
 31
0.0
  0
LINE
  5
1C1
330
1F
100
AcDbEntity
  8
16
  6
Continuous
 62
     3
370
    25
100
AcDbLine
 10
-104.2999988421798
 20
15.60000214353204
 30
0.0
 11
-104.2999988421798
 21
19.05000219494104
 31
0.0
  0
LINE
  5
1C2
330
1F
100
AcDbEntity
  8
16
  6
Continuous
 62
     3
370
    25
100
AcDbLine
 10
-104.7999988496304
 20
19.05000219494104
 30
0.0
 11
-104.2999988421798
 21
19.05000219494104
 31
0.0
  0
LINE
  5
1C3
330
1F
100
AcDbEntity
  8
16
  6
Continuous
 62
     3
370
    25
100
AcDbLine
 10
-101.7999988049269
 20
11.55000208318233
 30
0.0
 11
-101.7999988049269
 21
15.00000213459134
 31
0.0
  0
LINE
  5
1C4
330
1F
100
AcDbEntity
  8
16
  6
Continuous
 62
     3
370
    25
100
AcDbLine
 10
-101.7999988049269
 20
15.60000214353204
 30
0.0
 11
-101.7999988049269
 21
19.05000219494104
 31
0.0
  0
LINE
  5
1C5
330
1F
100
AcDbEntity
  8
16
  6
Continuous
 62
     3
370
    25
100
AcDbLine
 10
-101.7999988049269
 20
11.55000208318233
 30
0.0
 11
-101.2999987974763
 21
11.55000208318233
 31
0.0
  0
LINE
  5
1C6
330
1F
100
AcDbEntity
  8
16
  6
Continuous
 62
     3
370
    25
100
AcDbLine
 10
-101.2999987974763
 20
11.55000208318233
 30
0.0
 11
-101.2999987974763
 21
15.00000213459134
 31
0.0
  0
LINE
  5
1C7
330
1F
100
AcDbEntity
  8
16
  6
Continuous
 62
     3
370
    25
100
AcDbLine
 10
-101.2999987974763
 20
15.60000214353204
 30
0.0
 11
-101.2999987974763
 21
19.05000219494104
 31
0.0
  0
LINE
  5
1C8
330
1F
100
AcDbEntity
  8
16
  6
Continuous
 62
     3
370
    25
100
AcDbLine
 10
-101.7999988049269
 20
19.05000219494104
 30
0.0
 11
-101.2999987974763
 21
19.05000219494104
 31
0.0
  0
LINE
  5
1C9
330
1F
100
AcDbEntity
  8
16
  6
Continuous
 62
     3
370
    25
100
AcDbLine
 10
-98.79999876022339
 20
11.55000208318233
 30
0.0
 11
-98.79999876022339
 21
15.00000213459134
 31
0.0
  0
LINE
  5
1CA
330
1F
100
AcDbEntity
  8
16
  6
Continuous
 62
     3
370
    25
100
AcDbLine
 10
-98.79999876022339
 20
15.60000214353204
 30
0.0
 11
-98.79999876022339
 21
19.05000219494104
 31
0.0
  0
LINE
  5
1CB
330
1F
100
AcDbEntity
  8
16
  6
Continuous
 62
     3
370
    25
100
AcDbLine
 10
-98.79999876022339
 20
11.55000208318233
 30
0.0
 11
-98.29999875277281
 21
11.55000208318233
 31
0.0
  0
LINE
  5
1CC
330
1F
100
AcDbEntity
  8
16
  6
Continuous
 62
     3
370
    25
100
AcDbLine
 10
-98.29999875277281
 20
11.55000208318233
 30
0.0
 11
-98.29999875277281
 21
15.00000213459134
 31
0.0
  0
LINE
  5
1CD
330
1F
100
AcDbEntity
  8
16
  6
Continuous
 62
     3
370
    25
100
AcDbLine
 10
-98.29999875277281
 20
15.60000214353204
 30
0.0
 11
-98.29999875277281
 21
19.05000219494104
 31
0.0
  0
LINE
  5
1CE
330
1F
100
AcDbEntity
  8
16
  6
Continuous
 62
     3
370
    25
100
AcDbLine
 10
-98.79999876022339
 20
19.05000219494104
 30
0.0
 11
-98.29999875277281
 21
19.05000219494104
 31
0.0
  0
LINE
  5
1CF
330
1F
100
AcDbEntity
  8
16
  6
Continuous
 62
     3
370
    25
100
AcDbLine
 10
-95.7999987155199
 20
11.55000208318233
 30
0.0
 11
-95.7999987155199
 21
15.00000213459134
 31
0.0
  0
LINE
  5
1D0
330
1F
100
AcDbEntity
  8
16
  6
Continuous
 62
     3
370
    25
100
AcDbLine
 10
-95.7999987155199
 20
15.60000214353204
 30
0.0
 11
-95.7999987155199
 21
19.05000219494104
 31
0.0
  0
LINE
  5
1D1
330
1F
100
AcDbEntity
  8
16
  6
Continuous
 62
     3
370
    25
100
AcDbLine
 10
-95.7999987155199
 20
11.55000208318233
 30
0.0
 11
-95.29999870806932
 21
11.55000208318233
 31
0.0
  0
LINE
  5
1D2
330
1F
100
AcDbEntity
  8
16
  6
Continuous
 62
     3
370
    25
100
AcDbLine
 10
-95.29999870806932
 20
11.55000208318233
 30
0.0
 11
-95.29999870806932
 21
15.00000213459134
 31
0.0
  0
LINE
  5
1D3
330
1F
100
AcDbEntity
  8
16
  6
Continuous
 62
     3
370
    25
100
AcDbLine
 10
-95.29999870806932
 20
15.60000214353204
 30
0.0
 11
-95.29999870806932
 21
19.05000219494104
 31
0.0
  0
LINE
  5
1D4
330
1F
100
AcDbEntity
  8
16
  6
Continuous
 62
     3
370
    25
100
AcDbLine
 10
-95.7999987155199
 20
19.05000219494104
 30
0.0
 11
-95.29999870806932
 21
19.05000219494104
 31
0.0
  0
LINE
  5
1D5
330
1F
100
AcDbEntity
  8
16
  6
Continuous
 62
     3
370
    25
100
AcDbLine
 10
-92.79999867081642
 20
11.55000208318233
 30
0.0
 11
-92.79999867081642
 21
15.00000213459134
 31
0.0
  0
LINE
  5
1D6
330
1F
100
AcDbEntity
  8
16
  6
Continuous
 62
     3
370
    25
100
AcDbLine
 10
-92.79999867081642
 20
15.60000214353204
 30
0.0
 11
-92.79999867081642
 21
19.05000219494104
 31
0.0
  0
LINE
  5
1D7
330
1F
100
AcDbEntity
  8
16
  6
Continuous
 62
     3
370
    25
100
AcDbLine
 10
-92.79999867081642
 20
11.55000208318233
 30
0.0
 11
-92.29999866336584
 21
11.55000208318233
 31
0.0
  0
LINE
  5
1D8
330
1F
100
AcDbEntity
  8
16
  6
Continuous
 62
     3
370
    25
100
AcDbLine
 10
-92.29999866336584
 20
11.55000208318233
 30
0.0
 11
-92.29999866336584
 21
15.00000213459134
 31
0.0
  0
LINE
  5
1D9
330
1F
100
AcDbEntity
  8
16
  6
Continuous
 62
     3
370
    25
100
AcDbLine
 10
-92.29999866336584
 20
15.60000214353204
 30
0.0
 11
-92.29999866336584
 21
19.05000219494104
 31
0.0
  0
LINE
  5
1DA
330
1F
100
AcDbEntity
  8
16
  6
Continuous
 62
     3
370
    25
100
AcDbLine
 10
-92.79999867081642
 20
19.05000219494104
 30
0.0
 11
-92.29999866336584
 21
19.05000219494104
 31
0.0
  0
LINE
  5
1DB
330
1F
100
AcDbEntity
  8
16
  6
Continuous
 62
     3
370
    25
100
AcDbLine
 10
-89.79999862611294
 20
11.55000208318233
 30
0.0
 11
-89.79999862611294
 21
15.00000213459134
 31
0.0
  0
LINE
  5
1DC
330
1F
100
AcDbEntity
  8
16
  6
Continuous
 62
     3
370
    25
100
AcDbLine
 10
-89.79999862611294
 20
15.60000214353204
 30
0.0
 11
-89.79999862611294
 21
19.05000219494104
 31
0.0
  0
LINE
  5
1DD
330
1F
100
AcDbEntity
  8
16
  6
Continuous
 62
     3
370
    25
100
AcDbLine
 10
-89.79999862611294
 20
11.55000208318233
 30
0.0
 11
-89.29999861866236
 21
11.55000208318233
 31
0.0
  0
LINE
  5
1DE
330
1F
100
AcDbEntity
  8
16
  6
Continuous
 62
     3
370
    25
100
AcDbLine
 10
-89.29999861866236
 20
11.55000208318233
 30
0.0
 11
-89.29999861866236
 21
15.00000213459134
 31
0.0
  0
LINE
  5
1DF
330
1F
100
AcDbEntity
  8
16
  6
Continuous
 62
     3
370
    25
100
AcDbLine
 10
-89.29999861866236
 20
15.60000214353204
 30
0.0
 11
-89.29999861866236
 21
19.05000219494104
 31
0.0
  0
LINE
  5
1E0
330
1F
100
AcDbEntity
  8
16
  6
Continuous
 62
     3
370
    25
100
AcDbLine
 10
-89.79999862611294
 20
19.05000219494104
 30
0.0
 11
-89.29999861866236
 21
19.05000219494104
 31
0.0
  0
LINE
  5
1E1
330
1F
100
AcDbEntity
  8
16
  6
Continuous
 62
     3
370
    25
100
AcDbLine
 10
-86.79999858140945
 20
11.55000208318233
 30
0.0
 11
-86.79999858140945
 21
15.00000213459134
 31
0.0
  0
LINE
  5
1E2
330
1F
100
AcDbEntity
  8
16
  6
Continuous
 62
     3
370
    25
100
AcDbLine
 10
-86.79999858140945
 20
15.60000214353204
 30
0.0
 11
-86.79999858140945
 21
19.05000219494104
 31
0.0
  0
LINE
  5
1E3
330
1F
100
AcDbEntity
  8
16
  6
Continuous
 62
     3
370
    25
100
AcDbLine
 10
-86.79999858140945
 20
11.55000208318233
 30
0.0
 11
-86.29999857395887
 21
11.55000208318233
 31
0.0
  0
LINE
  5
1E4
330
1F
100
AcDbEntity
  8
16
  6
Continuous
 62
     3
370
    25
100
AcDbLine
 10
-86.29999857395887
 20
11.55000208318233
 30
0.0
 11
-86.29999857395887
 21
15.00000213459134
 31
0.0
  0
LINE
  5
1E5
330
1F
100
AcDbEntity
  8
16
  6
Continuous
 62
     3
370
    25
100
AcDbLine
 10
-86.29999857395887
 20
15.60000214353204
 30
0.0
 11
-86.29999857395887
 21
19.05000219494104
 31
0.0
  0
LINE
  5
1E6
330
1F
100
AcDbEntity
  8
16
  6
Continuous
 62
     3
370
    25
100
AcDbLine
 10
-86.79999858140945
 20
19.05000219494104
 30
0.0
 11
-86.29999857395887
 21
19.05000219494104
 31
0.0
  0
LINE
  5
1E7
330
1F
100
AcDbEntity
  8
16
  6
Continuous
 62
     3
370
    25
100
AcDbLine
 10
-83.79999853670597
 20
11.55000208318233
 30
0.0
 11
-83.79999853670597
 21
15.00000213459134
 31
0.0
  0
LINE
  5
1E8
330
1F
100
AcDbEntity
  8
16
  6
Continuous
 62
     3
370
    25
100
AcDbLine
 10
-83.79999853670597
 20
15.60000214353204
 30
0.0
 11
-83.79999853670597
 21
19.05000219494104
 31
0.0
  0
LINE
  5
1E9
330
1F
100
AcDbEntity
  8
16
  6
Continuous
 62
     3
370
    25
100
AcDbLine
 10
-83.79999853670597
 20
11.55000208318233
 30
0.0
 11
-83.29999852925539
 21
11.55000208318233
 31
0.0
  0
LINE
  5
1EA
330
1F
100
AcDbEntity
  8
16
  6
Continuous
 62
     3
370
    25
100
AcDbLine
 10
-83.29999852925539
 20
11.55000208318233
 30
0.0
 11
-83.29999852925539
 21
15.00000213459134
 31
0.0
  0
LINE
  5
1EB
330
1F
100
AcDbEntity
  8
16
  6
Continuous
 62
     3
370
    25
100
AcDbLine
 10
-83.29999852925539
 20
15.60000214353204
 30
0.0
 11
-83.29999852925539
 21
19.05000219494104
 31
0.0
  0
LINE
  5
1EC
330
1F
100
AcDbEntity
  8
16
  6
Continuous
 62
     3
370
    25
100
AcDbLine
 10
-83.79999853670597
 20
19.05000219494104
 30
0.0
 11
-83.29999852925539
 21
19.05000219494104
 31
0.0
  0
LINE
  5
1ED
330
1F
100
AcDbEntity
  8
16
  6
Continuous
 62
     3
370
    25
100
AcDbLine
 10
-80.79999849200249
 20
11.55000208318233
 30
0.0
 11
-80.79999849200249
 21
15.00000213459134
 31
0.0
  0
LINE
  5
1EE
330
1F
100
AcDbEntity
  8
16
  6
Continuous
 62
     3
370
    25
100
AcDbLine
 10
-80.79999849200249
 20
15.60000214353204
 30
0.0
 11
-80.79999849200249
 21
19.05000219494104
 31
0.0
  0
LINE
  5
1EF
330
1F
100
AcDbEntity
  8
16
  6
Continuous
 62
     3
370
    25
100
AcDbLine
 10
-80.79999849200249
 20
11.55000208318233
 30
0.0
 11
-80.2999984845519
 21
11.55000208318233
 31
0.0
  0
LINE
  5
1F0
330
1F
100
AcDbEntity
  8
16
  6
Continuous
 62
     3
370
    25
100
AcDbLine
 10
-80.2999984845519
 20
11.55000208318233
 30
0.0
 11
-80.2999984845519
 21
15.00000213459134
 31
0.0
  0
LINE
  5
1F1
330
1F
100
AcDbEntity
  8
16
  6
Continuous
 62
     3
370
    25
100
AcDbLine
 10
-80.2999984845519
 20
15.60000214353204
 30
0.0
 11
-80.2999984845519
 21
19.05000219494104
 31
0.0
  0
LINE
  5
1F2
330
1F
100
AcDbEntity
  8
16
  6
Continuous
 62
     3
370
    25
100
AcDbLine
 10
-80.79999849200249
 20
19.05000219494104
 30
0.0
 11
-80.2999984845519
 21
19.05000219494104
 31
0.0
  0
LINE
  5
1F3
330
1F
100
AcDbEntity
  8
16
  6
Continuous
 62
     3
370
    25
100
AcDbLine
 10
-77.799998447299
 20
11.55000208318233
 30
0.0
 11
-77.799998447299
 21
15.00000213459134
 31
0.0
  0
LINE
  5
1F4
330
1F
100
AcDbEntity
  8
16
  6
Continuous
 62
     3
370
    25
100
AcDbLine
 10
-77.799998447299
 20
15.60000214353204
 30
0.0
 11
-77.799998447299
 21
19.05000219494104
 31
0.0
  0
LINE
  5
1F5
330
1F
100
AcDbEntity
  8
16
  6
Continuous
 62
     3
370
    25
100
AcDbLine
 10
-77.799998447299
 20
11.55000208318233
 30
0.0
 11
-77.29999843984842
 21
11.55000208318233
 31
0.0
  0
LINE
  5
1F6
330
1F
100
AcDbEntity
  8
16
  6
Continuous
 62
     3
370
    25
100
AcDbLine
 10
-77.29999843984842
 20
11.55000208318233
 30
0.0
 11
-77.29999843984842
 21
15.00000213459134
 31
0.0
  0
LINE
  5
1F7
330
1F
100
AcDbEntity
  8
16
  6
Continuous
 62
     3
370
    25
100
AcDbLine
 10
-77.29999843984842
 20
15.60000214353204
 30
0.0
 11
-77.29999843984842
 21
19.05000219494104
 31
0.0
  0
LINE
  5
1F8
330
1F
100
AcDbEntity
  8
16
  6
Continuous
 62
     3
370
    25
100
AcDbLine
 10
-77.799998447299
 20
19.05000219494104
 30
0.0
 11
-77.29999843984842
 21
19.05000219494104
 31
0.0
  0
LINE
  5
1F9
330
1F
100
AcDbEntity
  8
16
  6
Continuous
 62
     3
370
    25
100
AcDbLine
 10
-74.79999840259552
 20
11.55000208318233
 30
0.0
 11
-74.79999840259552
 21
15.00000213459134
 31
0.0
  0
LINE
  5
1FA
330
1F
100
AcDbEntity
  8
16
  6
Continuous
 62
     3
370
    25
100
AcDbLine
 10
-74.79999840259552
 20
15.60000214353204
 30
0.0
 11
-74.79999840259552
 21
19.05000219494104
 31
0.0
  0
LINE
  5
1FB
330
1F
100
AcDbEntity
  8
16
  6
Continuous
 62
     3
370
    25
100
AcDbLine
 10
-74.79999840259552
 20
11.55000208318233
 30
0.0
 11
-74.29999839514494
 21
11.55000208318233
 31
0.0
  0
LINE
  5
1FC
330
1F
100
AcDbEntity
  8
16
  6
Continuous
 62
     3
370
    25
100
AcDbLine
 10
-74.29999839514494
 20
11.55000208318233
 30
0.0
 11
-74.29999839514494
 21
15.00000213459134
 31
0.0
  0
LINE
  5
1FD
330
1F
100
AcDbEntity
  8
16
  6
Continuous
 62
     3
370
    25
100
AcDbLine
 10
-74.29999839514494
 20
15.60000214353204
 30
0.0
 11
-74.29999839514494
 21
19.05000219494104
 31
0.0
  0
LINE
  5
1FE
330
1F
100
AcDbEntity
  8
16
  6
Continuous
 62
     3
370
    25
100
AcDbLine
 10
-74.79999840259552
 20
19.05000219494104
 30
0.0
 11
-74.29999839514494
 21
19.05000219494104
 31
0.0
  0
LINE
  5
1FF
330
1F
100
AcDbEntity
  8
16
  6
Continuous
 62
     3
370
    25
100
AcDbLine
 10
-71.79999835789204
 20
11.55000208318233
 30
0.0
 11
-71.79999835789204
 21
15.00000213459134
 31
0.0
  0
LINE
  5
200
330
1F
100
AcDbEntity
  8
16
  6
Continuous
 62
     3
370
    25
100
AcDbLine
 10
-71.79999835789204
 20
15.60000214353204
 30
0.0
 11
-71.79999835789204
 21
19.05000219494104
 31
0.0
  0
LINE
  5
201
330
1F
100
AcDbEntity
  8
16
  6
Continuous
 62
     3
370
    25
100
AcDbLine
 10
-71.79999835789204
 20
11.55000208318233
 30
0.0
 11
-71.29999835044146
 21
11.55000208318233
 31
0.0
  0
LINE
  5
202
330
1F
100
AcDbEntity
  8
16
  6
Continuous
 62
     3
370
    25
100
AcDbLine
 10
-71.29999835044146
 20
11.55000208318233
 30
0.0
 11
-71.29999835044146
 21
15.00000213459134
 31
0.0
  0
LINE
  5
203
330
1F
100
AcDbEntity
  8
16
  6
Continuous
 62
     3
370
    25
100
AcDbLine
 10
-71.29999835044146
 20
15.60000214353204
 30
0.0
 11
-71.29999835044146
 21
19.05000219494104
 31
0.0
  0
LINE
  5
204
330
1F
100
AcDbEntity
  8
16
  6
Continuous
 62
     3
370
    25
100
AcDbLine
 10
-71.79999835789204
 20
19.05000219494104
 30
0.0
 11
-71.29999835044146
 21
19.05000219494104
 31
0.0
  0
LINE
  5
205
330
1F
100
AcDbEntity
  8
16
  6
Continuous
 62
     3
370
    25
100
AcDbLine
 10
-68.79999831318855
 20
11.55000208318233
 30
0.0
 11
-68.79999831318855
 21
15.00000213459134
 31
0.0
  0
LINE
  5
206
330
1F
100
AcDbEntity
  8
16
  6
Continuous
 62
     3
370
    25
100
AcDbLine
 10
-68.79999831318855
 20
15.60000214353204
 30
0.0
 11
-68.79999831318855
 21
19.05000219494104
 31
0.0
  0
LINE
  5
207
330
1F
100
AcDbEntity
  8
16
  6
Continuous
 62
     3
370
    25
100
AcDbLine
 10
-68.79999831318855
 20
11.55000208318233
 30
0.0
 11
-68.29999830573797
 21
11.55000208318233
 31
0.0
  0
LINE
  5
208
330
1F
100
AcDbEntity
  8
16
  6
Continuous
 62
     3
370
    25
100
AcDbLine
 10
-68.29999830573797
 20
11.55000208318233
 30
0.0
 11
-68.29999830573797
 21
15.00000213459134
 31
0.0
  0
LINE
  5
209
330
1F
100
AcDbEntity
  8
16
  6
Continuous
 62
     3
370
    25
100
AcDbLine
 10
-68.29999830573797
 20
15.60000214353204
 30
0.0
 11
-68.29999830573797
 21
19.05000219494104
 31
0.0
  0
LINE
  5
20A
330
1F
100
AcDbEntity
  8
16
  6
Continuous
 62
     3
370
    25
100
AcDbLine
 10
-68.79999831318855
 20
19.05000219494104
 30
0.0
 11
-68.29999830573797
 21
19.05000219494104
 31
0.0
  0
LINE
  5
20B
330
1F
100
AcDbEntity
  8
16
  6
Continuous
 62
     3
370
    25
100
AcDbLine
 10
-65.79999826848507
 20
11.55000208318233
 30
0.0
 11
-65.79999826848507
 21
15.00000213459134
 31
0.0
  0
LINE
  5
20C
330
1F
100
AcDbEntity
  8
16
  6
Continuous
 62
     3
370
    25
100
AcDbLine
 10
-65.79999826848507
 20
15.60000214353204
 30
0.0
 11
-65.79999826848507
 21
19.05000219494104
 31
0.0
  0
LINE
  5
20D
330
1F
100
AcDbEntity
  8
16
  6
Continuous
 62
     3
370
    25
100
AcDbLine
 10
-65.79999826848507
 20
11.55000208318233
 30
0.0
 11
-65.29999826103449
 21
11.55000208318233
 31
0.0
  0
LINE
  5
20E
330
1F
100
AcDbEntity
  8
16
  6
Continuous
 62
     3
370
    25
100
AcDbLine
 10
-65.29999826103449
 20
11.55000208318233
 30
0.0
 11
-65.29999826103449
 21
15.00000213459134
 31
0.0
  0
LINE
  5
20F
330
1F
100
AcDbEntity
  8
16
  6
Continuous
 62
     3
370
    25
100
AcDbLine
 10
-65.29999826103449
 20
15.60000214353204
 30
0.0
 11
-65.29999826103449
 21
19.05000219494104
 31
0.0
  0
LINE
  5
210
330
1F
100
AcDbEntity
  8
16
  6
Continuous
 62
     3
370
    25
100
AcDbLine
 10
-65.79999826848507
 20
19.05000219494104
 30
0.0
 11
-65.29999826103449
 21
19.05000219494104
 31
0.0
  0
LINE
  5
211
330
1F
100
AcDbEntity
  8
16
  6
Continuous
 62
     3
370
    25
100
AcDbLine
 10
-62.79999822378158
 20
11.55000208318233
 30
0.0
 11
-62.79999822378158
 21
15.00000213459134
 31
0.0
  0
LINE
  5
212
330
1F
100
AcDbEntity
  8
16
  6
Continuous
 62
     3
370
    25
100
AcDbLine
 10
-62.79999822378158
 20
15.60000214353204
 30
0.0
 11
-62.79999822378158
 21
19.05000219494104
 31
0.0
  0
LINE
  5
213
330
1F
100
AcDbEntity
  8
16
  6
Continuous
 62
     3
370
    25
100
AcDbLine
 10
-62.79999822378158
 20
11.55000208318233
 30
0.0
 11
-62.299998216331
 21
11.55000208318233
 31
0.0
  0
LINE
  5
214
330
1F
100
AcDbEntity
  8
16
  6
Continuous
 62
     3
370
    25
100
AcDbLine
 10
-62.299998216331
 20
11.55000208318233
 30
0.0
 11
-62.299998216331
 21
15.00000213459134
 31
0.0
  0
LINE
  5
215
330
1F
100
AcDbEntity
  8
16
  6
Continuous
 62
     3
370
    25
100
AcDbLine
 10
-62.299998216331
 20
15.60000214353204
 30
0.0
 11
-62.299998216331
 21
19.05000219494104
 31
0.0
  0
LINE
  5
216
330
1F
100
AcDbEntity
  8
16
  6
Continuous
 62
     3
370
    25
100
AcDbLine
 10
-62.79999822378158
 20
19.05000219494104
 30
0.0
 11
-62.299998216331
 21
19.05000219494104
 31
0.0
  0
LINE
  5
217
330
1F
100
AcDbEntity
  8
16
  6
Continuous
 62
     3
370
    25
100
AcDbLine
 10
-59.7999981790781
 20
11.55000208318233
 30
0.0
 11
-59.7999981790781
 21
15.00000213459134
 31
0.0
  0
LINE
  5
218
330
1F
100
AcDbEntity
  8
16
  6
Continuous
 62
     3
370
    25
100
AcDbLine
 10
-59.7999981790781
 20
15.60000214353204
 30
0.0
 11
-59.7999981790781
 21
19.05000219494104
 31
0.0
  0
LINE
  5
219
330
1F
100
AcDbEntity
  8
16
  6
Continuous
 62
     3
370
    25
100
AcDbLine
 10
-59.7999981790781
 20
11.55000208318233
 30
0.0
 11
-59.29999817162752
 21
11.55000208318233
 31
0.0
  0
LINE
  5
21A
330
1F
100
AcDbEntity
  8
16
  6
Continuous
 62
     3
370
    25
100
AcDbLine
 10
-59.29999817162752
 20
11.55000208318233
 30
0.0
 11
-59.29999817162752
 21
15.00000213459134
 31
0.0
  0
LINE
  5
21B
330
1F
100
AcDbEntity
  8
16
  6
Continuous
 62
     3
370
    25
100
AcDbLine
 10
-59.29999817162752
 20
15.60000214353204
 30
0.0
 11
-59.29999817162752
 21
19.05000219494104
 31
0.0
  0
LINE
  5
21C
330
1F
100
AcDbEntity
  8
16
  6
Continuous
 62
     3
370
    25
100
AcDbLine
 10
-59.7999981790781
 20
19.05000219494104
 30
0.0
 11
-59.29999817162752
 21
19.05000219494104
 31
0.0
  0
LINE
  5
21D
330
1F
100
AcDbEntity
  8
16
  6
Continuous
 62
     3
370
    25
100
AcDbLine
 10
-56.79999813437462
 20
11.55000208318233
 30
0.0
 11
-56.79999813437462
 21
15.00000213459134
 31
0.0
  0
LINE
  5
21E
330
1F
100
AcDbEntity
  8
16
  6
Continuous
 62
     3
370
    25
100
AcDbLine
 10
-56.79999813437462
 20
15.60000214353204
 30
0.0
 11
-56.79999813437462
 21
19.05000219494104
 31
0.0
  0
LINE
  5
21F
330
1F
100
AcDbEntity
  8
16
  6
Continuous
 62
     3
370
    25
100
AcDbLine
 10
-56.79999813437462
 20
11.55000208318233
 30
0.0
 11
-56.29999812692404
 21
11.55000208318233
 31
0.0
  0
LINE
  5
220
330
1F
100
AcDbEntity
  8
16
  6
Continuous
 62
     3
370
    25
100
AcDbLine
 10
-56.29999812692404
 20
11.55000208318233
 30
0.0
 11
-56.29999812692404
 21
15.00000213459134
 31
0.0
  0
LINE
  5
221
330
1F
100
AcDbEntity
  8
16
  6
Continuous
 62
     3
370
    25
100
AcDbLine
 10
-56.29999812692404
 20
15.60000214353204
 30
0.0
 11
-56.29999812692404
 21
19.05000219494104
 31
0.0
  0
LINE
  5
222
330
1F
100
AcDbEntity
  8
16
  6
Continuous
 62
     3
370
    25
100
AcDbLine
 10
-56.79999813437462
 20
19.05000219494104
 30
0.0
 11
-56.29999812692404
 21
19.05000219494104
 31
0.0
  0
LINE
  5
223
330
1F
100
AcDbEntity
  8
16
  6
Continuous
 62
     3
370
    25
100
AcDbLine
 10
-53.79999808967113
 20
11.55000208318233
 30
0.0
 11
-53.79999808967113
 21
15.00000213459134
 31
0.0
  0
LINE
  5
224
330
1F
100
AcDbEntity
  8
16
  6
Continuous
 62
     3
370
    25
100
AcDbLine
 10
-53.79999808967113
 20
15.60000214353204
 30
0.0
 11
-53.79999808967113
 21
19.05000219494104
 31
0.0
  0
LINE
  5
225
330
1F
100
AcDbEntity
  8
16
  6
Continuous
 62
     3
370
    25
100
AcDbLine
 10
-53.79999808967113
 20
11.55000208318233
 30
0.0
 11
-53.29999808222055
 21
11.55000208318233
 31
0.0
  0
LINE
  5
226
330
1F
100
AcDbEntity
  8
16
  6
Continuous
 62
     3
370
    25
100
AcDbLine
 10
-53.29999808222055
 20
11.55000208318233
 30
0.0
 11
-53.29999808222055
 21
15.00000213459134
 31
0.0
  0
LINE
  5
227
330
1F
100
AcDbEntity
  8
16
  6
Continuous
 62
     3
370
    25
100
AcDbLine
 10
-53.29999808222055
 20
15.60000214353204
 30
0.0
 11
-53.29999808222055
 21
19.05000219494104
 31
0.0
  0
LINE
  5
228
330
1F
100
AcDbEntity
  8
16
  6
Continuous
 62
     3
370
    25
100
AcDbLine
 10
-53.79999808967113
 20
19.05000219494104
 30
0.0
 11
-53.29999808222055
 21
19.05000219494104
 31
0.0
  0
LINE
  5
229
330
1F
100
AcDbEntity
  8
16
  6
Continuous
 62
     3
370
    25
100
AcDbLine
 10
-50.79999804496765
 20
11.55000208318233
 30
0.0
 11
-50.79999804496765
 21
15.00000213459134
 31
0.0
  0
LINE
  5
22A
330
1F
100
AcDbEntity
  8
16
  6
Continuous
 62
     3
370
    25
100
AcDbLine
 10
-50.79999804496765
 20
15.60000214353204
 30
0.0
 11
-50.79999804496765
 21
19.05000219494104
 31
0.0
  0
LINE
  5
22B
330
1F
100
AcDbEntity
  8
16
  6
Continuous
 62
     3
370
    25
100
AcDbLine
 10
-50.79999804496765
 20
11.55000208318233
 30
0.0
 11
-50.29999803751707
 21
11.55000208318233
 31
0.0
  0
LINE
  5
22C
330
1F
100
AcDbEntity
  8
16
  6
Continuous
 62
     3
370
    25
100
AcDbLine
 10
-50.29999803751707
 20
11.55000208318233
 30
0.0
 11
-50.29999803751707
 21
15.00000213459134
 31
0.0
  0
LINE
  5
22D
330
1F
100
AcDbEntity
  8
16
  6
Continuous
 62
     3
370
    25
100
AcDbLine
 10
-50.29999803751707
 20
15.60000214353204
 30
0.0
 11
-50.29999803751707
 21
19.05000219494104
 31
0.0
  0
LINE
  5
22E
330
1F
100
AcDbEntity
  8
16
  6
Continuous
 62
     3
370
    25
100
AcDbLine
 10
-50.79999804496765
 20
19.05000219494104
 30
0.0
 11
-50.29999803751707
 21
19.05000219494104
 31
0.0
  0
LINE
  5
22F
330
1F
100
AcDbEntity
  8
16
  6
Continuous
 62
     3
370
    25
100
AcDbLine
 10
-47.79999800026417
 20
11.55000208318233
 30
0.0
 11
-47.79999800026417
 21
15.00000213459134
 31
0.0
  0
LINE
  5
230
330
1F
100
AcDbEntity
  8
16
  6
Continuous
 62
     3
370
    25
100
AcDbLine
 10
-47.79999800026417
 20
15.60000214353204
 30
0.0
 11
-47.79999800026417
 21
19.05000219494104
 31
0.0
  0
LINE
  5
231
330
1F
100
AcDbEntity
  8
16
  6
Continuous
 62
     3
370
    25
100
AcDbLine
 10
-47.79999800026417
 20
11.55000208318233
 30
0.0
 11
-47.29999799281359
 21
11.55000208318233
 31
0.0
  0
LINE
  5
232
330
1F
100
AcDbEntity
  8
16
  6
Continuous
 62
     3
370
    25
100
AcDbLine
 10
-47.29999799281359
 20
11.55000208318233
 30
0.0
 11
-47.29999799281359
 21
15.00000213459134
 31
0.0
  0
LINE
  5
233
330
1F
100
AcDbEntity
  8
16
  6
Continuous
 62
     3
370
    25
100
AcDbLine
 10
-47.29999799281359
 20
15.60000214353204
 30
0.0
 11
-47.29999799281359
 21
19.05000219494104
 31
0.0
  0
LINE
  5
234
330
1F
100
AcDbEntity
  8
16
  6
Continuous
 62
     3
370
    25
100
AcDbLine
 10
-47.79999800026417
 20
19.05000219494104
 30
0.0
 11
-47.29999799281359
 21
19.05000219494104
 31
0.0
  0
LINE
  5
235
330
1F
100
AcDbEntity
  8
16
  6
Continuous
 62
     3
370
    25
100
AcDbLine
 10
-47.54999799653888
 20
10.99000208437443
 30
0.0
 11
-47.54999799653888
 21
11.55000208318233
 31
0.0
  0
LINE
  5
236
330
1F
100
AcDbEntity
  8
16
  6
Continuous
 62
     3
370
    25
100
AcDbLine
 10
-44.79999795556068
 20
11.55000208318233
 30
0.0
 11
-44.79999795556068
 21
15.00000213459134
 31
0.0
  0
LINE
  5
237
330
1F
100
AcDbEntity
  8
16
  6
Continuous
 62
     3
370
    25
100
AcDbLine
 10
-44.79999795556068
 20
15.60000214353204
 30
0.0
 11
-44.79999795556068
 21
19.05000219494104
 31
0.0
  0
LINE
  5
238
330
1F
100
AcDbEntity
  8
16
  6
Continuous
 62
     3
370
    25
100
AcDbLine
 10
-44.79999795556068
 20
11.55000208318233
 30
0.0
 11
-44.2999979481101
 21
11.55000208318233
 31
0.0
  0
LINE
  5
239
330
1F
100
AcDbEntity
  8
16
  6
Continuous
 62
     3
370
    25
100
AcDbLine
 10
-44.2999979481101
 20
11.55000208318233
 30
0.0
 11
-44.2999979481101
 21
15.00000213459134
 31
0.0
  0
LINE
  5
23A
330
1F
100
AcDbEntity
  8
16
  6
Continuous
 62
     3
370
    25
100
AcDbLine
 10
-44.2999979481101
 20
15.60000214353204
 30
0.0
 11
-44.2999979481101
 21
19.05000219494104
 31
0.0
  0
LINE
  5
23B
330
1F
100
AcDbEntity
  8
16
  6
Continuous
 62
     3
370
    25
100
AcDbLine
 10
-44.79999795556068
 20
19.05000219494104
 30
0.0
 11
-44.2999979481101
 21
19.05000219494104
 31
0.0
  0
LINE
  5
23C
330
1F
100
AcDbEntity
  8
16
  6
Continuous
 62
     3
370
    25
100
AcDbLine
 10
-44.54999795183539
 20
11.55000208318233
 30
0.0
 11
-44.54999795183539
 21
12.11000208199024
 31
0.0
  0
LINE
  5
23D
330
1F
100
AcDbEntity
  8
16
  6
Continuous
 62
     3
370
    25
100
AcDbLine
 10
-44.79999795556068
 20
11.55000208318233
 30
0.0
 11
-44.2999979481101
 21
11.83000208258629
 31
0.0
  0
LINE
  5
23E
330
1F
100
AcDbEntity
  8
16
  6
Continuous
 62
     3
370
    25
100
AcDbLine
 10
-44.2999979481101
 20
11.83000208258629
 30
0.0
 11
-44.79999795556068
 21
12.11000208199025
 31
0.0
  0
LINE
  5
23F
330
1F
100
AcDbEntity
  8
16
  6
Continuous
 62
     3
370
    25
100
AcDbLine
 10
-41.7999979108572
 20
11.55000208318233
 30
0.0
 11
-41.7999979108572
 21
15.00000213459134
 31
0.0
  0
LINE
  5
240
330
1F
100
AcDbEntity
  8
16
  6
Continuous
 62
     3
370
    25
100
AcDbLine
 10
-41.7999979108572
 20
15.60000214353204
 30
0.0
 11
-41.7999979108572
 21
19.05000219494104
 31
0.0
  0
LINE
  5
241
330
1F
100
AcDbEntity
  8
16
  6
Continuous
 62
     3
370
    25
100
AcDbLine
 10
-41.7999979108572
 20
11.55000208318233
 30
0.0
 11
-41.29999790340662
 21
11.55000208318233
 31
0.0
  0
LINE
  5
242
330
1F
100
AcDbEntity
  8
16
  6
Continuous
 62
     3
370
    25
100
AcDbLine
 10
-41.29999790340662
 20
11.55000208318233
 30
0.0
 11
-41.29999790340662
 21
15.00000213459134
 31
0.0
  0
LINE
  5
243
330
1F
100
AcDbEntity
  8
16
  6
Continuous
 62
     3
370
    25
100
AcDbLine
 10
-41.29999790340662
 20
15.60000214353204
 30
0.0
 11
-41.29999790340662
 21
19.05000219494104
 31
0.0
  0
LINE
  5
244
330
1F
100
AcDbEntity
  8
16
  6
Continuous
 62
     3
370
    25
100
AcDbLine
 10
-41.7999979108572
 20
19.05000219494104
 30
0.0
 11
-41.29999790340662
 21
19.05000219494104
 31
0.0
  0
LINE
  5
245
330
1F
100
AcDbEntity
  8
16
  6
Continuous
 62
     3
370
    25
100
AcDbLine
 10
-41.54999790713191
 20
11.55000208318233
 30
0.0
 11
-41.54999790713191
 21
13.23000203192234
 31
0.0
  0
LINE
  5
246
330
1F
100
AcDbEntity
  8
16
  6
Continuous
 62
     3
370
    25
100
AcDbLine
 10
-41.7999979108572
 20
11.55000208318233
 30
0.0
 11
-41.29999790340662
 21
11.83000208258629
 31
0.0
  0
LINE
  5
247
330
1F
100
AcDbEntity
  8
16
  6
Continuous
 62
     3
370
    25
100
AcDbLine
 10
-41.29999790340662
 20
11.83000208258629
 30
0.0
 11
-41.7999979108572
 21
12.11000208199025
 31
0.0
  0
LINE
  5
248
330
1F
100
AcDbEntity
  8
16
  6
Continuous
 62
     3
370
    25
100
AcDbLine
 10
-41.7999979108572
 20
12.11000208199025
 30
0.0
 11
-41.29999790340662
 21
12.3900020813942
 31
0.0
  0
LINE
  5
249
330
1F
100
AcDbEntity
  8
16
  6
Continuous
 62
     3
370
    25
100
AcDbLine
 10
-41.29999790340662
 20
12.3900020813942
 30
0.0
 11
-41.7999979108572
 21
12.67000208079816
 31
0.0
  0
LINE
  5
24A
330
1F
100
AcDbEntity
  8
16
  6
Continuous
 62
     3
370
    25
100
AcDbLine
 10
-41.7999979108572
 20
12.67000208079816
 30
0.0
 11
-41.29999790340662
 21
12.95000208020211
 31
0.0
  0
LINE
  5
24B
330
1F
100
AcDbEntity
  8
16
  6
Continuous
 62
     3
370
    25
100
AcDbLine
 10
-41.29999790340662
 20
12.95000208020211
 30
0.0
 11
-41.7999979108572
 21
13.23000207960607
 31
0.0
  0
LINE
  5
24C
330
1F
100
AcDbEntity
  8
16
  6
Continuous
 62
     3
370
    25
100
AcDbLine
 10
-38.79999786615372
 20
11.55000208318233
 30
0.0
 11
-38.79999786615372
 21
15.00000213459134
 31
0.0
  0
LINE
  5
24D
330
1F
100
AcDbEntity
  8
16
  6
Continuous
 62
     3
370
    25
100
AcDbLine
 10
-38.79999786615372
 20
15.60000214353204
 30
0.0
 11
-38.79999786615372
 21
19.05000219494104
 31
0.0
  0
LINE
  5
24E
330
1F
100
AcDbEntity
  8
16
  6
Continuous
 62
     3
370
    25
100
AcDbLine
 10
-38.79999786615372
 20
11.55000208318233
 30
0.0
 11
-38.29999785870314
 21
11.55000208318233
 31
0.0
  0
LINE
  5
24F
330
1F
100
AcDbEntity
  8
16
  6
Continuous
 62
     3
370
    25
100
AcDbLine
 10
-38.29999785870314
 20
11.55000208318233
 30
0.0
 11
-38.29999785870314
 21
15.00000213459134
 31
0.0
  0
LINE
  5
250
330
1F
100
AcDbEntity
  8
16
  6
Continuous
 62
     3
370
    25
100
AcDbLine
 10
-38.29999785870314
 20
15.60000214353204
 30
0.0
 11
-38.29999785870314
 21
19.05000219494104
 31
0.0
  0
LINE
  5
251
330
1F
100
AcDbEntity
  8
16
  6
Continuous
 62
     3
370
    25
100
AcDbLine
 10
-38.79999786615372
 20
19.05000219494104
 30
0.0
 11
-38.29999785870314
 21
19.05000219494104
 31
0.0
  0
LINE
  5
252
330
1F
100
AcDbEntity
  8
16
  6
Continuous
 62
     3
370
    25
100
AcDbLine
 10
-38.54999786242843
 20
11.55000208318233
 30
0.0
 11
-38.54999786242843
 21
14.35000212490559
 31
0.0
  0
LINE
  5
253
330
1F
100
AcDbEntity
  8
16
  6
Continuous
 62
     3
370
    25
100
AcDbLine
 10
-38.79999786615372
 20
11.55000208318233
 30
0.0
 11
-38.29999785870314
 21
11.83000208258629
 31
0.0
  0
LINE
  5
254
330
1F
100
AcDbEntity
  8
16
  6
Continuous
 62
     3
370
    25
100
AcDbLine
 10
-38.29999785870314
 20
11.83000208258629
 30
0.0
 11
-38.79999786615372
 21
12.11000208199025
 31
0.0
  0
LINE
  5
255
330
1F
100
AcDbEntity
  8
16
  6
Continuous
 62
     3
370
    25
100
AcDbLine
 10
-38.79999786615372
 20
12.11000208199025
 30
0.0
 11
-38.29999785870314
 21
12.3900020813942
 31
0.0
  0
LINE
  5
256
330
1F
100
AcDbEntity
  8
16
  6
Continuous
 62
     3
370
    25
100
AcDbLine
 10
-38.29999785870314
 20
12.3900020813942
 30
0.0
 11
-38.79999786615372
 21
12.67000208079816
 31
0.0
  0
LINE
  5
257
330
1F
100
AcDbEntity
  8
16
  6
Continuous
 62
     3
370
    25
100
AcDbLine
 10
-38.79999786615372
 20
12.67000208079816
 30
0.0
 11
-38.29999785870314
 21
12.95000208020211
 31
0.0
  0
LINE
  5
258
330
1F
100
AcDbEntity
  8
16
  6
Continuous
 62
     3
370
    25
100
AcDbLine
 10
-38.29999785870314
 20
12.95000208020211
 30
0.0
 11
-38.79999786615372
 21
13.23000207960607
 31
0.0
  0
LINE
  5
259
330
1F
100
AcDbEntity
  8
16
  6
Continuous
 62
     3
370
    25
100
AcDbLine
 10
-38.79999786615372
 20
13.23000207960607
 30
0.0
 11
-38.29999785870314
 21
13.51000207901002
 31
0.0
  0
LINE
  5
25A
330
1F
100
AcDbEntity
  8
16
  6
Continuous
 62
     3
370
    25
100
AcDbLine
 10
-38.29999785870314
 20
13.51000207901002
 30
0.0
 11
-38.79999786615372
 21
13.79000207841398
 31
0.0
  0
LINE
  5
25B
330
1F
100
AcDbEntity
  8
16
  6
Continuous
 62
     3
370
    25
100
AcDbLine
 10
-38.79999786615372
 20
13.79000207841398
 30
0.0
 11
-38.29999785870314
 21
14.07000207781793
 31
0.0
  0
LINE
  5
25C
330
1F
100
AcDbEntity
  8
16
  6
Continuous
 62
     3
370
    25
100
AcDbLine
 10
-38.29999785870314
 20
14.07000207781793
 30
0.0
 11
-38.79999786615372
 21
14.35000207722189
 31
0.0
  0
LINE
  5
25D
330
1F
100
AcDbEntity
  8
16
  6
Continuous
 62
     3
370
    25
100
AcDbLine
 10
-35.79999782145023
 20
11.55000208318233
 30
0.0
 11
-35.79999782145023
 21
15.00000213459134
 31
0.0
  0
LINE
  5
25E
330
1F
100
AcDbEntity
  8
16
  6
Continuous
 62
     3
370
    25
100
AcDbLine
 10
-35.79999782145023
 20
15.60000214353204
 30
0.0
 11
-35.79999782145023
 21
19.05000219494104
 31
0.0
  0
LINE
  5
25F
330
1F
100
AcDbEntity
  8
16
  6
Continuous
 62
     3
370
    25
100
AcDbLine
 10
-35.79999782145023
 20
11.55000208318233
 30
0.0
 11
-35.29999781399965
 21
11.55000208318233
 31
0.0
  0
LINE
  5
260
330
1F
100
AcDbEntity
  8
16
  6
Continuous
 62
     3
370
    25
100
AcDbLine
 10
-35.29999781399965
 20
11.55000208318233
 30
0.0
 11
-35.29999781399965
 21
19.05000219494104
 31
0.0
  0
LINE
  5
261
330
1F
100
AcDbEntity
  8
16
  6
Continuous
 62
     3
370
    25
100
AcDbLine
 10
-35.79999782145023
 20
19.05000219494104
 30
0.0
 11
-35.29999781399965
 21
19.05000219494104
 31
0.0
  0
LINE
  5
262
330
1F
100
AcDbEntity
  8
16
  6
Continuous
 62
     3
370
    25
100
AcDbLine
 10
-35.54999781772494
 20
11.55000208318233
 30
0.0
 11
-35.54999781772494
 21
15.00000213459134
 31
0.0
  0
LINE
  5
263
330
1F
100
AcDbEntity
  8
16
  6
Continuous
 62
     3
370
    25
100
AcDbLine
 10
-35.79999782145023
 20
11.55000208318233
 30
0.0
 11
-35.29999781399965
 21
11.83000208258629
 31
0.0
  0
LINE
  5
264
330
1F
100
AcDbEntity
  8
16
  6
Continuous
 62
     3
370
    25
100
AcDbLine
 10
-35.29999781399965
 20
11.83000208258629
 30
0.0
 11
-35.79999782145023
 21
12.11000208199025
 31
0.0
  0
LINE
  5
265
330
1F
100
AcDbEntity
  8
16
  6
Continuous
 62
     3
370
    25
100
AcDbLine
 10
-35.79999782145023
 20
12.11000208199025
 30
0.0
 11
-35.29999781399965
 21
12.3900020813942
 31
0.0
  0
LINE
  5
266
330
1F
100
AcDbEntity
  8
16
  6
Continuous
 62
     3
370
    25
100
AcDbLine
 10
-35.29999781399965
 20
12.3900020813942
 30
0.0
 11
-35.79999782145023
 21
12.67000208079816
 31
0.0
  0
LINE
  5
267
330
1F
100
AcDbEntity
  8
16
  6
Continuous
 62
     3
370
    25
100
AcDbLine
 10
-35.79999782145023
 20
12.67000208079816
 30
0.0
 11
-35.29999781399965
 21
12.95000208020211
 31
0.0
  0
LINE
  5
268
330
1F
100
AcDbEntity
  8
16
  6
Continuous
 62
     3
370
    25
100
AcDbLine
 10
-35.29999781399965
 20
12.95000208020211
 30
0.0
 11
-35.79999782145023
 21
13.23000207960607
 31
0.0
  0
LINE
  5
269
330
1F
100
AcDbEntity
  8
16
  6
Continuous
 62
     3
370
    25
100
AcDbLine
 10
-35.79999782145023
 20
13.23000207960607
 30
0.0
 11
-35.29999781399965
 21
13.51000207901002
 31
0.0
  0
LINE
  5
26A
330
1F
100
AcDbEntity
  8
16
  6
Continuous
 62
     3
370
    25
100
AcDbLine
 10
-35.29999781399965
 20
13.51000207901002
 30
0.0
 11
-35.79999782145023
 21
13.79000207841398
 31
0.0
  0
LINE
  5
26B
330
1F
100
AcDbEntity
  8
16
  6
Continuous
 62
     3
370
    25
100
AcDbLine
 10
-35.79999782145023
 20
13.79000207841398
 30
0.0
 11
-35.29999781399965
 21
14.07000207781793
 31
0.0
  0
LINE
  5
26C
330
1F
100
AcDbEntity
  8
16
  6
Continuous
 62
     3
370
    25
100
AcDbLine
 10
-35.29999781399965
 20
14.07000207781793
 30
0.0
 11
-35.79999782145023
 21
14.35000207722189
 31
0.0
  0
LINE
  5
26D
330
1F
100
AcDbEntity
  8
16
  6
Continuous
 62
     3
370
    25
100
AcDbLine
 10
-35.79999782145023
 20
14.35000207722189
 30
0.0
 11
-35.29999781399965
 21
14.63000207662584
 31
0.0
  0
LINE
  5
26E
330
1F
100
AcDbEntity
  8
16
  6
Continuous
 62
     3
370
    25
100
AcDbLine
 10
-35.29999781399965
 20
14.63000207662584
 30
0.0
 11
-35.79999782145023
 21
14.9100020760298
 31
0.0
  0
LINE
  5
26F
330
1F
100
AcDbEntity
  8
16
  6
Continuous
 62
     3
370
    25
100
AcDbLine
 10
-35.79999782145023
 20
14.9100020760298
 30
0.0
 11
-35.63928342842481
 21
15.00000213459134
 31
0.0
  0
LINE
  5
270
330
1F
100
AcDbEntity
  8
16
  6
Continuous
 62
     3
370
    25
100
AcDbLine
 10
-134.7999992966652
 20
-33.44999858736992
 30
0.0
 11
-134.7999992966652
 21
-34.04999859631062
 31
0.0
  0
LINE
  5
271
330
1F
100
AcDbEntity
  8
16
  6
Continuous
 62
     3
370
    25
100
AcDbLine
 10
-134.7999992966652
 20
-34.04999859631062
 30
0.0
 11
-134.6999992951751
 21
-34.24999859929085
 31
0.0
  0
LINE
  5
272
330
1F
100
AcDbEntity
  8
16
  6
Continuous
 62
     3
370
    25
100
AcDbLine
 10
-134.6999992951751
 20
-34.24999859929085
 30
0.0
 11
-134.6999992951751
 21
-35.14999861270189
 31
0.0
  0
LINE
  5
273
330
1F
100
AcDbEntity
  8
16
  6
Continuous
 62
     3
370
    25
100
AcDbLine
 10
-134.6999992951751
 20
-35.14999861270189
 30
0.0
 11
-134.7999992966652
 21
-35.34999861568212
 31
0.0
  0
LINE
  5
274
330
1F
100
AcDbEntity
  8
16
  6
Continuous
 62
     3
370
    25
100
AcDbLine
 10
-134.7999992966652
 20
-35.34999861568212
 30
0.0
 11
-134.7999992966652
 21
-35.94999862462282
 31
0.0
  0
LINE
  5
275
330
1F
100
AcDbEntity
  8
16
  6
Continuous
 62
     3
370
    25
100
AcDbLine
 10
-134.7999992966652
 20
-35.94999862462282
 30
0.0
 11
-134.2999992892146
 21
-35.94999862462282
 31
0.0
  0
LINE
  5
276
330
1F
100
AcDbEntity
  8
16
  6
Continuous
 62
     3
370
    25
100
AcDbLine
 10
-134.2999992892146
 20
-35.94999862462282
 30
0.0
 11
-134.2999992892146
 21
-35.34999861568212
 31
0.0
  0
LINE
  5
277
330
1F
100
AcDbEntity
  8
16
  6
Continuous
 62
     3
370
    25
100
AcDbLine
 10
-134.2999992892146
 20
-35.34999861568212
 30
0.0
 11
-134.3999992907047
 21
-35.14999861270189
 31
0.0
  0
LINE
  5
278
330
1F
100
AcDbEntity
  8
16
  6
Continuous
 62
     3
370
    25
100
AcDbLine
 10
-134.3999992907047
 20
-35.14999861270189
 30
0.0
 11
-134.3999992907047
 21
-34.24999859929085
 31
0.0
  0
LINE
  5
279
330
1F
100
AcDbEntity
  8
16
  6
Continuous
 62
     3
370
    25
100
AcDbLine
 10
-134.3999992907047
 20
-34.24999859929085
 30
0.0
 11
-134.2999992892146
 21
-34.04999859631062
 31
0.0
  0
LINE
  5
27A
330
1F
100
AcDbEntity
  8
16
  6
Continuous
 62
     3
370
    25
100
AcDbLine
 10
-134.2999992892146
 20
-34.04999859631062
 30
0.0
 11
-134.2999992892146
 21
-33.44999858736992
 31
0.0
  0
LINE
  5
27B
330
1F
100
AcDbEntity
  8
16
  6
Continuous
 62
     3
370
    25
100
AcDbLine
 10
-134.2999992892146
 20
-33.44999858736992
 30
0.0
 11
-134.7999992966652
 21
-33.44999858736992
 31
0.0
  0
LINE
  5
27C
330
1F
100
AcDbEntity
  8
16
  6
Continuous
 62
     3
370
    25
100
AcDbLine
 10
-134.7999992966652
 20
-33.44999858736992
 30
0.0
 11
-134.7999992966652
 21
-33.37999858751893
 31
0.0
  0
LINE
  5
27D
330
1F
100
AcDbEntity
  8
16
  6
Continuous
 62
     3
370
    25
100
AcDbLine
 10
-134.7999992966652
 20
-33.37999858751893
 30
0.0
 11
-134.2999992892146
 21
-33.37999858751893
 31
0.0
  0
LINE
  5
27E
330
1F
100
AcDbEntity
  8
16
  6
Continuous
 62
     3
370
    25
100
AcDbLine
 10
-134.2999992892146
 20
-33.37999858751893
 30
0.0
 11
-134.2999992892146
 21
-33.44999858736992
 31
0.0
  0
LINE
  5
27F
330
1F
100
AcDbEntity
  8
16
  6
Continuous
 62
     3
370
    25
100
AcDbLine
 10
-131.7999992519617
 20
-33.44999858736992
 30
0.0
 11
-131.7999992519617
 21
-34.04999859631062
 31
0.0
  0
LINE
  5
280
330
1F
100
AcDbEntity
  8
16
  6
Continuous
 62
     3
370
    25
100
AcDbLine
 10
-131.7999992519617
 20
-34.04999859631062
 30
0.0
 11
-131.6999992504716
 21
-34.24999859929085
 31
0.0
  0
LINE
  5
281
330
1F
100
AcDbEntity
  8
16
  6
Continuous
 62
     3
370
    25
100
AcDbLine
 10
-131.6999992504716
 20
-34.24999859929085
 30
0.0
 11
-131.6999992504716
 21
-35.14999861270189
 31
0.0
  0
LINE
  5
282
330
1F
100
AcDbEntity
  8
16
  6
Continuous
 62
     3
370
    25
100
AcDbLine
 10
-131.6999992504716
 20
-35.14999861270189
 30
0.0
 11
-131.7999992519617
 21
-35.34999861568212
 31
0.0
  0
LINE
  5
283
330
1F
100
AcDbEntity
  8
16
  6
Continuous
 62
     3
370
    25
100
AcDbLine
 10
-131.7999992519617
 20
-35.34999861568212
 30
0.0
 11
-131.7999992519617
 21
-35.94999862462282
 31
0.0
  0
LINE
  5
284
330
1F
100
AcDbEntity
  8
16
  6
Continuous
 62
     3
370
    25
100
AcDbLine
 10
-131.7999992519617
 20
-35.94999862462282
 30
0.0
 11
-131.2999992445111
 21
-35.94999862462282
 31
0.0
  0
LINE
  5
285
330
1F
100
AcDbEntity
  8
16
  6
Continuous
 62
     3
370
    25
100
AcDbLine
 10
-131.2999992445111
 20
-35.94999862462282
 30
0.0
 11
-131.2999992445111
 21
-35.34999861568212
 31
0.0
  0
LINE
  5
286
330
1F
100
AcDbEntity
  8
16
  6
Continuous
 62
     3
370
    25
100
AcDbLine
 10
-131.2999992445111
 20
-35.34999861568212
 30
0.0
 11
-131.3999992460012
 21
-35.14999861270189
 31
0.0
  0
LINE
  5
287
330
1F
100
AcDbEntity
  8
16
  6
Continuous
 62
     3
370
    25
100
AcDbLine
 10
-131.3999992460012
 20
-35.14999861270189
 30
0.0
 11
-131.3999992460012
 21
-34.24999859929085
 31
0.0
  0
LINE
  5
288
330
1F
100
AcDbEntity
  8
16
  6
Continuous
 62
     3
370
    25
100
AcDbLine
 10
-131.3999992460012
 20
-34.24999859929085
 30
0.0
 11
-131.2999992445111
 21
-34.04999859631062
 31
0.0
  0
LINE
  5
289
330
1F
100
AcDbEntity
  8
16
  6
Continuous
 62
     3
370
    25
100
AcDbLine
 10
-131.2999992445111
 20
-34.04999859631062
 30
0.0
 11
-131.2999992445111
 21
-33.44999858736992
 31
0.0
  0
LINE
  5
28A
330
1F
100
AcDbEntity
  8
16
  6
Continuous
 62
     3
370
    25
100
AcDbLine
 10
-131.2999992445111
 20
-33.44999858736992
 30
0.0
 11
-131.7999992519617
 21
-33.44999858736992
 31
0.0
  0
LINE
  5
28B
330
1F
100
AcDbEntity
  8
16
  6
Continuous
 62
     3
370
    25
100
AcDbLine
 10
-131.7999992519617
 20
-33.44999858736992
 30
0.0
 11
-131.7999992519617
 21
-33.37999858751893
 31
0.0
  0
LINE
  5
28C
330
1F
100
AcDbEntity
  8
16
  6
Continuous
 62
     3
370
    25
100
AcDbLine
 10
-131.7999992519617
 20
-33.37999858751893
 30
0.0
 11
-131.2999992445111
 21
-33.37999858751893
 31
0.0
  0
LINE
  5
28D
330
1F
100
AcDbEntity
  8
16
  6
Continuous
 62
     3
370
    25
100
AcDbLine
 10
-131.2999992445111
 20
-33.37999858751893
 30
0.0
 11
-131.2999992445111
 21
-33.44999858736992
 31
0.0
  0
LINE
  5
28E
330
1F
100
AcDbEntity
  8
16
  6
Continuous
 62
     3
370
    25
100
AcDbLine
 10
-128.7999992072582
 20
-33.44999858736992
 30
0.0
 11
-128.7999992072582
 21
-34.04999859631062
 31
0.0
  0
LINE
  5
28F
330
1F
100
AcDbEntity
  8
16
  6
Continuous
 62
     3
370
    25
100
AcDbLine
 10
-128.7999992072582
 20
-34.04999859631062
 30
0.0
 11
-128.6999992057681
 21
-34.24999859929085
 31
0.0
  0
LINE
  5
290
330
1F
100
AcDbEntity
  8
16
  6
Continuous
 62
     3
370
    25
100
AcDbLine
 10
-128.6999992057681
 20
-34.24999859929085
 30
0.0
 11
-128.6999992057681
 21
-35.14999861270189
 31
0.0
  0
LINE
  5
291
330
1F
100
AcDbEntity
  8
16
  6
Continuous
 62
     3
370
    25
100
AcDbLine
 10
-128.6999992057681
 20
-35.14999861270189
 30
0.0
 11
-128.7999992072582
 21
-35.34999861568212
 31
0.0
  0
LINE
  5
292
330
1F
100
AcDbEntity
  8
16
  6
Continuous
 62
     3
370
    25
100
AcDbLine
 10
-128.7999992072582
 20
-35.34999861568212
 30
0.0
 11
-128.7999992072582
 21
-35.94999862462282
 31
0.0
  0
LINE
  5
293
330
1F
100
AcDbEntity
  8
16
  6
Continuous
 62
     3
370
    25
100
AcDbLine
 10
-128.7999992072582
 20
-35.94999862462282
 30
0.0
 11
-128.2999991998076
 21
-35.94999862462282
 31
0.0
  0
LINE
  5
294
330
1F
100
AcDbEntity
  8
16
  6
Continuous
 62
     3
370
    25
100
AcDbLine
 10
-128.2999991998076
 20
-35.94999862462282
 30
0.0
 11
-128.2999991998076
 21
-35.34999861568212
 31
0.0
  0
LINE
  5
295
330
1F
100
AcDbEntity
  8
16
  6
Continuous
 62
     3
370
    25
100
AcDbLine
 10
-128.2999991998076
 20
-35.34999861568212
 30
0.0
 11
-128.3999992012978
 21
-35.14999861270189
 31
0.0
  0
LINE
  5
296
330
1F
100
AcDbEntity
  8
16
  6
Continuous
 62
     3
370
    25
100
AcDbLine
 10
-128.3999992012978
 20
-35.14999861270189
 30
0.0
 11
-128.3999992012978
 21
-34.24999859929085
 31
0.0
  0
LINE
  5
297
330
1F
100
AcDbEntity
  8
16
  6
Continuous
 62
     3
370
    25
100
AcDbLine
 10
-128.3999992012978
 20
-34.24999859929085
 30
0.0
 11
-128.2999991998076
 21
-34.04999859631062
 31
0.0
  0
LINE
  5
298
330
1F
100
AcDbEntity
  8
16
  6
Continuous
 62
     3
370
    25
100
AcDbLine
 10
-128.2999991998076
 20
-34.04999859631062
 30
0.0
 11
-128.2999991998076
 21
-33.44999858736992
 31
0.0
  0
LINE
  5
299
330
1F
100
AcDbEntity
  8
16
  6
Continuous
 62
     3
370
    25
100
AcDbLine
 10
-128.2999991998076
 20
-33.44999858736992
 30
0.0
 11
-128.7999992072582
 21
-33.44999858736992
 31
0.0
  0
LINE
  5
29A
330
1F
100
AcDbEntity
  8
16
  6
Continuous
 62
     3
370
    25
100
AcDbLine
 10
-128.7999992072582
 20
-33.44999858736992
 30
0.0
 11
-128.7999992072582
 21
-33.37999858751893
 31
0.0
  0
LINE
  5
29B
330
1F
100
AcDbEntity
  8
16
  6
Continuous
 62
     3
370
    25
100
AcDbLine
 10
-128.7999992072582
 20
-33.37999858751893
 30
0.0
 11
-128.2999991998076
 21
-33.37999858751893
 31
0.0
  0
LINE
  5
29C
330
1F
100
AcDbEntity
  8
16
  6
Continuous
 62
     3
370
    25
100
AcDbLine
 10
-128.2999991998076
 20
-33.37999858751893
 30
0.0
 11
-128.2999991998076
 21
-33.44999858736992
 31
0.0
  0
LINE
  5
29D
330
1F
100
AcDbEntity
  8
16
  6
Continuous
 62
     3
370
    25
100
AcDbLine
 10
-125.7999991625547
 20
-33.44999858736992
 30
0.0
 11
-125.7999991625547
 21
-34.04999859631062
 31
0.0
  0
LINE
  5
29E
330
1F
100
AcDbEntity
  8
16
  6
Continuous
 62
     3
370
    25
100
AcDbLine
 10
-125.7999991625547
 20
-34.04999859631062
 30
0.0
 11
-125.6999991610646
 21
-34.24999859929085
 31
0.0
  0
LINE
  5
29F
330
1F
100
AcDbEntity
  8
16
  6
Continuous
 62
     3
370
    25
100
AcDbLine
 10
-125.6999991610646
 20
-34.24999859929085
 30
0.0
 11
-125.6999991610646
 21
-35.14999861270189
 31
0.0
  0
LINE
  5
2A0
330
1F
100
AcDbEntity
  8
16
  6
Continuous
 62
     3
370
    25
100
AcDbLine
 10
-125.6999991610646
 20
-35.14999861270189
 30
0.0
 11
-125.7999991625547
 21
-35.34999861568212
 31
0.0
  0
LINE
  5
2A1
330
1F
100
AcDbEntity
  8
16
  6
Continuous
 62
     3
370
    25
100
AcDbLine
 10
-125.7999991625547
 20
-35.34999861568212
 30
0.0
 11
-125.7999991625547
 21
-35.94999862462282
 31
0.0
  0
LINE
  5
2A2
330
1F
100
AcDbEntity
  8
16
  6
Continuous
 62
     3
370
    25
100
AcDbLine
 10
-125.7999991625547
 20
-35.94999862462282
 30
0.0
 11
-125.2999991551042
 21
-35.94999862462282
 31
0.0
  0
LINE
  5
2A3
330
1F
100
AcDbEntity
  8
16
  6
Continuous
 62
     3
370
    25
100
AcDbLine
 10
-125.2999991551042
 20
-35.94999862462282
 30
0.0
 11
-125.2999991551042
 21
-35.34999861568212
 31
0.0
  0
LINE
  5
2A4
330
1F
100
AcDbEntity
  8
16
  6
Continuous
 62
     3
370
    25
100
AcDbLine
 10
-125.2999991551042
 20
-35.34999861568212
 30
0.0
 11
-125.3999991565943
 21
-35.14999861270189
 31
0.0
  0
LINE
  5
2A5
330
1F
100
AcDbEntity
  8
16
  6
Continuous
 62
     3
370
    25
100
AcDbLine
 10
-125.3999991565943
 20
-35.14999861270189
 30
0.0
 11
-125.3999991565943
 21
-34.24999859929085
 31
0.0
  0
LINE
  5
2A6
330
1F
100
AcDbEntity
  8
16
  6
Continuous
 62
     3
370
    25
100
AcDbLine
 10
-125.3999991565943
 20
-34.24999859929085
 30
0.0
 11
-125.2999991551042
 21
-34.04999859631062
 31
0.0
  0
LINE
  5
2A7
330
1F
100
AcDbEntity
  8
16
  6
Continuous
 62
     3
370
    25
100
AcDbLine
 10
-125.2999991551042
 20
-34.04999859631062
 30
0.0
 11
-125.2999991551042
 21
-33.44999858736992
 31
0.0
  0
LINE
  5
2A8
330
1F
100
AcDbEntity
  8
16
  6
Continuous
 62
     3
370
    25
100
AcDbLine
 10
-125.2999991551042
 20
-33.44999858736992
 30
0.0
 11
-125.7999991625547
 21
-33.44999858736992
 31
0.0
  0
LINE
  5
2A9
330
1F
100
AcDbEntity
  8
16
  6
Continuous
 62
     3
370
    25
100
AcDbLine
 10
-125.7999991625547
 20
-33.44999858736992
 30
0.0
 11
-125.7999991625547
 21
-33.37999858751893
 31
0.0
  0
LINE
  5
2AA
330
1F
100
AcDbEntity
  8
16
  6
Continuous
 62
     3
370
    25
100
AcDbLine
 10
-125.7999991625547
 20
-33.37999858751893
 30
0.0
 11
-125.2999991551042
 21
-33.37999858751893
 31
0.0
  0
LINE
  5
2AB
330
1F
100
AcDbEntity
  8
16
  6
Continuous
 62
     3
370
    25
100
AcDbLine
 10
-125.2999991551042
 20
-33.37999858751893
 30
0.0
 11
-125.2999991551042
 21
-33.44999858736992
 31
0.0
  0
LINE
  5
2AC
330
1F
100
AcDbEntity
  8
16
  6
Continuous
 62
     3
370
    25
100
AcDbLine
 10
-122.7999991178513
 20
-33.44999858736992
 30
0.0
 11
-122.7999991178513
 21
-34.04999859631062
 31
0.0
  0
LINE
  5
2AD
330
1F
100
AcDbEntity
  8
16
  6
Continuous
 62
     3
370
    25
100
AcDbLine
 10
-122.7999991178513
 20
-34.04999859631062
 30
0.0
 11
-122.6999991163611
 21
-34.24999859929085
 31
0.0
  0
LINE
  5
2AE
330
1F
100
AcDbEntity
  8
16
  6
Continuous
 62
     3
370
    25
100
AcDbLine
 10
-122.6999991163611
 20
-34.24999859929085
 30
0.0
 11
-122.6999991163611
 21
-35.14999861270189
 31
0.0
  0
LINE
  5
2AF
330
1F
100
AcDbEntity
  8
16
  6
Continuous
 62
     3
370
    25
100
AcDbLine
 10
-122.6999991163611
 20
-35.14999861270189
 30
0.0
 11
-122.7999991178513
 21
-35.34999861568212
 31
0.0
  0
LINE
  5
2B0
330
1F
100
AcDbEntity
  8
16
  6
Continuous
 62
     3
370
    25
100
AcDbLine
 10
-122.7999991178513
 20
-35.34999861568212
 30
0.0
 11
-122.7999991178513
 21
-35.94999862462282
 31
0.0
  0
LINE
  5
2B1
330
1F
100
AcDbEntity
  8
16
  6
Continuous
 62
     3
370
    25
100
AcDbLine
 10
-122.7999991178513
 20
-35.94999862462282
 30
0.0
 11
-122.2999991104007
 21
-35.94999862462282
 31
0.0
  0
LINE
  5
2B2
330
1F
100
AcDbEntity
  8
16
  6
Continuous
 62
     3
370
    25
100
AcDbLine
 10
-122.2999991104007
 20
-35.94999862462282
 30
0.0
 11
-122.2999991104007
 21
-35.34999861568212
 31
0.0
  0
LINE
  5
2B3
330
1F
100
AcDbEntity
  8
16
  6
Continuous
 62
     3
370
    25
100
AcDbLine
 10
-122.2999991104007
 20
-35.34999861568212
 30
0.0
 11
-122.3999991118908
 21
-35.14999861270189
 31
0.0
  0
LINE
  5
2B4
330
1F
100
AcDbEntity
  8
16
  6
Continuous
 62
     3
370
    25
100
AcDbLine
 10
-122.3999991118908
 20
-35.14999861270189
 30
0.0
 11
-122.3999991118908
 21
-34.24999859929085
 31
0.0
  0
LINE
  5
2B5
330
1F
100
AcDbEntity
  8
16
  6
Continuous
 62
     3
370
    25
100
AcDbLine
 10
-122.3999991118908
 20
-34.24999859929085
 30
0.0
 11
-122.2999991104007
 21
-34.04999859631062
 31
0.0
  0
LINE
  5
2B6
330
1F
100
AcDbEntity
  8
16
  6
Continuous
 62
     3
370
    25
100
AcDbLine
 10
-122.2999991104007
 20
-34.04999859631062
 30
0.0
 11
-122.2999991104007
 21
-33.44999858736992
 31
0.0
  0
LINE
  5
2B7
330
1F
100
AcDbEntity
  8
16
  6
Continuous
 62
     3
370
    25
100
AcDbLine
 10
-122.2999991104007
 20
-33.44999858736992
 30
0.0
 11
-122.7999991178513
 21
-33.44999858736992
 31
0.0
  0
LINE
  5
2B8
330
1F
100
AcDbEntity
  8
16
  6
Continuous
 62
     3
370
    25
100
AcDbLine
 10
-122.7999991178513
 20
-33.44999858736992
 30
0.0
 11
-122.7999991178513
 21
-33.37999858751893
 31
0.0
  0
LINE
  5
2B9
330
1F
100
AcDbEntity
  8
16
  6
Continuous
 62
     3
370
    25
100
AcDbLine
 10
-122.7999991178513
 20
-33.37999858751893
 30
0.0
 11
-122.2999991104007
 21
-33.37999858751893
 31
0.0
  0
LINE
  5
2BA
330
1F
100
AcDbEntity
  8
16
  6
Continuous
 62
     3
370
    25
100
AcDbLine
 10
-122.2999991104007
 20
-33.37999858751893
 30
0.0
 11
-122.2999991104007
 21
-33.44999858736992
 31
0.0
  0
LINE
  5
2BB
330
1F
100
AcDbEntity
  8
16
  6
Continuous
 62
     3
370
    25
100
AcDbLine
 10
-119.7999990731478
 20
-33.44999858736992
 30
0.0
 11
-119.7999990731478
 21
-34.04999859631062
 31
0.0
  0
LINE
  5
2BC
330
1F
100
AcDbEntity
  8
16
  6
Continuous
 62
     3
370
    25
100
AcDbLine
 10
-119.7999990731478
 20
-34.04999859631062
 30
0.0
 11
-119.6999990716577
 21
-34.24999859929085
 31
0.0
  0
LINE
  5
2BD
330
1F
100
AcDbEntity
  8
16
  6
Continuous
 62
     3
370
    25
100
AcDbLine
 10
-119.6999990716577
 20
-34.24999859929085
 30
0.0
 11
-119.6999990716577
 21
-35.14999861270189
 31
0.0
  0
LINE
  5
2BE
330
1F
100
AcDbEntity
  8
16
  6
Continuous
 62
     3
370
    25
100
AcDbLine
 10
-119.6999990716577
 20
-35.14999861270189
 30
0.0
 11
-119.7999990731478
 21
-35.34999861568212
 31
0.0
  0
LINE
  5
2BF
330
1F
100
AcDbEntity
  8
16
  6
Continuous
 62
     3
370
    25
100
AcDbLine
 10
-119.7999990731478
 20
-35.34999861568212
 30
0.0
 11
-119.7999990731478
 21
-35.94999862462282
 31
0.0
  0
LINE
  5
2C0
330
1F
100
AcDbEntity
  8
16
  6
Continuous
 62
     3
370
    25
100
AcDbLine
 10
-119.7999990731478
 20
-35.94999862462282
 30
0.0
 11
-119.2999990656972
 21
-35.94999862462282
 31
0.0
  0
LINE
  5
2C1
330
1F
100
AcDbEntity
  8
16
  6
Continuous
 62
     3
370
    25
100
AcDbLine
 10
-119.2999990656972
 20
-35.94999862462282
 30
0.0
 11
-119.2999990656972
 21
-35.34999861568212
 31
0.0
  0
LINE
  5
2C2
330
1F
100
AcDbEntity
  8
16
  6
Continuous
 62
     3
370
    25
100
AcDbLine
 10
-119.2999990656972
 20
-35.34999861568212
 30
0.0
 11
-119.3999990671873
 21
-35.14999861270189
 31
0.0
  0
LINE
  5
2C3
330
1F
100
AcDbEntity
  8
16
  6
Continuous
 62
     3
370
    25
100
AcDbLine
 10
-119.3999990671873
 20
-35.14999861270189
 30
0.0
 11
-119.3999990671873
 21
-34.24999859929085
 31
0.0
  0
LINE
  5
2C4
330
1F
100
AcDbEntity
  8
16
  6
Continuous
 62
     3
370
    25
100
AcDbLine
 10
-119.3999990671873
 20
-34.24999859929085
 30
0.0
 11
-119.2999990656972
 21
-34.04999859631062
 31
0.0
  0
LINE
  5
2C5
330
1F
100
AcDbEntity
  8
16
  6
Continuous
 62
     3
370
    25
100
AcDbLine
 10
-119.2999990656972
 20
-34.04999859631062
 30
0.0
 11
-119.2999990656972
 21
-33.44999858736992
 31
0.0
  0
LINE
  5
2C6
330
1F
100
AcDbEntity
  8
16
  6
Continuous
 62
     3
370
    25
100
AcDbLine
 10
-119.2999990656972
 20
-33.44999858736992
 30
0.0
 11
-119.7999990731478
 21
-33.44999858736992
 31
0.0
  0
LINE
  5
2C7
330
1F
100
AcDbEntity
  8
16
  6
Continuous
 62
     3
370
    25
100
AcDbLine
 10
-119.7999990731478
 20
-33.44999858736992
 30
0.0
 11
-119.7999990731478
 21
-33.37999858751893
 31
0.0
  0
LINE
  5
2C8
330
1F
100
AcDbEntity
  8
16
  6
Continuous
 62
     3
370
    25
100
AcDbLine
 10
-119.7999990731478
 20
-33.37999858751893
 30
0.0
 11
-119.2999990656972
 21
-33.37999858751893
 31
0.0
  0
LINE
  5
2C9
330
1F
100
AcDbEntity
  8
16
  6
Continuous
 62
     3
370
    25
100
AcDbLine
 10
-119.2999990656972
 20
-33.37999858751893
 30
0.0
 11
-119.2999990656972
 21
-33.44999858736992
 31
0.0
  0
LINE
  5
2CA
330
1F
100
AcDbEntity
  8
16
  6
Continuous
 62
     3
370
    25
100
AcDbLine
 10
-116.7999990284443
 20
-33.44999858736992
 30
0.0
 11
-116.7999990284443
 21
-34.04999859631062
 31
0.0
  0
LINE
  5
2CB
330
1F
100
AcDbEntity
  8
16
  6
Continuous
 62
     3
370
    25
100
AcDbLine
 10
-116.7999990284443
 20
-34.04999859631062
 30
0.0
 11
-116.6999990269542
 21
-34.24999859929085
 31
0.0
  0
LINE
  5
2CC
330
1F
100
AcDbEntity
  8
16
  6
Continuous
 62
     3
370
    25
100
AcDbLine
 10
-116.6999990269542
 20
-34.24999859929085
 30
0.0
 11
-116.6999990269542
 21
-35.14999861270189
 31
0.0
  0
LINE
  5
2CD
330
1F
100
AcDbEntity
  8
16
  6
Continuous
 62
     3
370
    25
100
AcDbLine
 10
-116.6999990269542
 20
-35.14999861270189
 30
0.0
 11
-116.7999990284443
 21
-35.34999861568212
 31
0.0
  0
LINE
  5
2CE
330
1F
100
AcDbEntity
  8
16
  6
Continuous
 62
     3
370
    25
100
AcDbLine
 10
-116.7999990284443
 20
-35.34999861568212
 30
0.0
 11
-116.7999990284443
 21
-35.94999862462282
 31
0.0
  0
LINE
  5
2CF
330
1F
100
AcDbEntity
  8
16
  6
Continuous
 62
     3
370
    25
100
AcDbLine
 10
-116.7999990284443
 20
-35.94999862462282
 30
0.0
 11
-116.2999990209937
 21
-35.94999862462282
 31
0.0
  0
LINE
  5
2D0
330
1F
100
AcDbEntity
  8
16
  6
Continuous
 62
     3
370
    25
100
AcDbLine
 10
-116.2999990209937
 20
-35.94999862462282
 30
0.0
 11
-116.2999990209937
 21
-35.34999861568212
 31
0.0
  0
LINE
  5
2D1
330
1F
100
AcDbEntity
  8
16
  6
Continuous
 62
     3
370
    25
100
AcDbLine
 10
-116.2999990209937
 20
-35.34999861568212
 30
0.0
 11
-116.3999990224838
 21
-35.14999861270189
 31
0.0
  0
LINE
  5
2D2
330
1F
100
AcDbEntity
  8
16
  6
Continuous
 62
     3
370
    25
100
AcDbLine
 10
-116.3999990224838
 20
-35.14999861270189
 30
0.0
 11
-116.3999990224838
 21
-34.24999859929085
 31
0.0
  0
LINE
  5
2D3
330
1F
100
AcDbEntity
  8
16
  6
Continuous
 62
     3
370
    25
100
AcDbLine
 10
-116.3999990224838
 20
-34.24999859929085
 30
0.0
 11
-116.2999990209937
 21
-34.04999859631062
 31
0.0
  0
LINE
  5
2D4
330
1F
100
AcDbEntity
  8
16
  6
Continuous
 62
     3
370
    25
100
AcDbLine
 10
-116.2999990209937
 20
-34.04999859631062
 30
0.0
 11
-116.2999990209937
 21
-33.44999858736992
 31
0.0
  0
LINE
  5
2D5
330
1F
100
AcDbEntity
  8
16
  6
Continuous
 62
     3
370
    25
100
AcDbLine
 10
-116.2999990209937
 20
-33.44999858736992
 30
0.0
 11
-116.7999990284443
 21
-33.44999858736992
 31
0.0
  0
LINE
  5
2D6
330
1F
100
AcDbEntity
  8
16
  6
Continuous
 62
     3
370
    25
100
AcDbLine
 10
-116.7999990284443
 20
-33.44999858736992
 30
0.0
 11
-116.7999990284443
 21
-33.37999858751893
 31
0.0
  0
LINE
  5
2D7
330
1F
100
AcDbEntity
  8
16
  6
Continuous
 62
     3
370
    25
100
AcDbLine
 10
-116.7999990284443
 20
-33.37999858751893
 30
0.0
 11
-116.2999990209937
 21
-33.37999858751893
 31
0.0
  0
LINE
  5
2D8
330
1F
100
AcDbEntity
  8
16
  6
Continuous
 62
     3
370
    25
100
AcDbLine
 10
-116.2999990209937
 20
-33.37999858751893
 30
0.0
 11
-116.2999990209937
 21
-33.44999858736992
 31
0.0
  0
LINE
  5
2D9
330
1F
100
AcDbEntity
  8
16
  6
Continuous
 62
     3
370
    25
100
AcDbLine
 10
-113.7999989837408
 20
-33.44999858736992
 30
0.0
 11
-113.7999989837408
 21
-34.04999859631062
 31
0.0
  0
LINE
  5
2DA
330
1F
100
AcDbEntity
  8
16
  6
Continuous
 62
     3
370
    25
100
AcDbLine
 10
-113.7999989837408
 20
-34.04999859631062
 30
0.0
 11
-113.6999989822507
 21
-34.24999859929085
 31
0.0
  0
LINE
  5
2DB
330
1F
100
AcDbEntity
  8
16
  6
Continuous
 62
     3
370
    25
100
AcDbLine
 10
-113.6999989822507
 20
-34.24999859929085
 30
0.0
 11
-113.6999989822507
 21
-35.14999861270189
 31
0.0
  0
LINE
  5
2DC
330
1F
100
AcDbEntity
  8
16
  6
Continuous
 62
     3
370
    25
100
AcDbLine
 10
-113.6999989822507
 20
-35.14999861270189
 30
0.0
 11
-113.7999989837408
 21
-35.34999861568212
 31
0.0
  0
LINE
  5
2DD
330
1F
100
AcDbEntity
  8
16
  6
Continuous
 62
     3
370
    25
100
AcDbLine
 10
-113.7999989837408
 20
-35.34999861568212
 30
0.0
 11
-113.7999989837408
 21
-35.94999862462282
 31
0.0
  0
LINE
  5
2DE
330
1F
100
AcDbEntity
  8
16
  6
Continuous
 62
     3
370
    25
100
AcDbLine
 10
-113.7999989837408
 20
-35.94999862462282
 30
0.0
 11
-113.2999989762902
 21
-35.94999862462282
 31
0.0
  0
LINE
  5
2DF
330
1F
100
AcDbEntity
  8
16
  6
Continuous
 62
     3
370
    25
100
AcDbLine
 10
-113.2999989762902
 20
-35.94999862462282
 30
0.0
 11
-113.2999989762902
 21
-35.34999861568212
 31
0.0
  0
LINE
  5
2E0
330
1F
100
AcDbEntity
  8
16
  6
Continuous
 62
     3
370
    25
100
AcDbLine
 10
-113.2999989762902
 20
-35.34999861568212
 30
0.0
 11
-113.3999989777803
 21
-35.14999861270189
 31
0.0
  0
LINE
  5
2E1
330
1F
100
AcDbEntity
  8
16
  6
Continuous
 62
     3
370
    25
100
AcDbLine
 10
-113.3999989777803
 20
-35.14999861270189
 30
0.0
 11
-113.3999989777803
 21
-34.24999859929085
 31
0.0
  0
LINE
  5
2E2
330
1F
100
AcDbEntity
  8
16
  6
Continuous
 62
     3
370
    25
100
AcDbLine
 10
-113.3999989777803
 20
-34.24999859929085
 30
0.0
 11
-113.2999989762902
 21
-34.04999859631062
 31
0.0
  0
LINE
  5
2E3
330
1F
100
AcDbEntity
  8
16
  6
Continuous
 62
     3
370
    25
100
AcDbLine
 10
-113.2999989762902
 20
-34.04999859631062
 30
0.0
 11
-113.2999989762902
 21
-33.44999858736992
 31
0.0
  0
LINE
  5
2E4
330
1F
100
AcDbEntity
  8
16
  6
Continuous
 62
     3
370
    25
100
AcDbLine
 10
-113.2999989762902
 20
-33.44999858736992
 30
0.0
 11
-113.7999989837408
 21
-33.44999858736992
 31
0.0
  0
LINE
  5
2E5
330
1F
100
AcDbEntity
  8
16
  6
Continuous
 62
     3
370
    25
100
AcDbLine
 10
-113.7999989837408
 20
-33.44999858736992
 30
0.0
 11
-113.7999989837408
 21
-33.37999858751893
 31
0.0
  0
LINE
  5
2E6
330
1F
100
AcDbEntity
  8
16
  6
Continuous
 62
     3
370
    25
100
AcDbLine
 10
-113.7999989837408
 20
-33.37999858751893
 30
0.0
 11
-113.2999989762902
 21
-33.37999858751893
 31
0.0
  0
LINE
  5
2E7
330
1F
100
AcDbEntity
  8
16
  6
Continuous
 62
     3
370
    25
100
AcDbLine
 10
-113.2999989762902
 20
-33.37999858751893
 30
0.0
 11
-113.2999989762902
 21
-33.44999858736992
 31
0.0
  0
LINE
  5
2E8
330
1F
100
AcDbEntity
  8
16
  6
Continuous
 62
     3
370
    25
100
AcDbLine
 10
-110.7999989390373
 20
-33.44999858736992
 30
0.0
 11
-110.7999989390373
 21
-34.04999859631062
 31
0.0
  0
LINE
  5
2E9
330
1F
100
AcDbEntity
  8
16
  6
Continuous
 62
     3
370
    25
100
AcDbLine
 10
-110.7999989390373
 20
-34.04999859631062
 30
0.0
 11
-110.6999989375472
 21
-34.24999859929085
 31
0.0
  0
LINE
  5
2EA
330
1F
100
AcDbEntity
  8
16
  6
Continuous
 62
     3
370
    25
100
AcDbLine
 10
-110.6999989375472
 20
-34.24999859929085
 30
0.0
 11
-110.6999989375472
 21
-35.14999861270189
 31
0.0
  0
LINE
  5
2EB
330
1F
100
AcDbEntity
  8
16
  6
Continuous
 62
     3
370
    25
100
AcDbLine
 10
-110.6999989375472
 20
-35.14999861270189
 30
0.0
 11
-110.7999989390373
 21
-35.34999861568212
 31
0.0
  0
LINE
  5
2EC
330
1F
100
AcDbEntity
  8
16
  6
Continuous
 62
     3
370
    25
100
AcDbLine
 10
-110.7999989390373
 20
-35.34999861568212
 30
0.0
 11
-110.7999989390373
 21
-35.94999862462282
 31
0.0
  0
LINE
  5
2ED
330
1F
100
AcDbEntity
  8
16
  6
Continuous
 62
     3
370
    25
100
AcDbLine
 10
-110.7999989390373
 20
-35.94999862462282
 30
0.0
 11
-110.2999989315867
 21
-35.94999862462282
 31
0.0
  0
LINE
  5
2EE
330
1F
100
AcDbEntity
  8
16
  6
Continuous
 62
     3
370
    25
100
AcDbLine
 10
-110.2999989315867
 20
-35.94999862462282
 30
0.0
 11
-110.2999989315867
 21
-35.34999861568212
 31
0.0
  0
LINE
  5
2EF
330
1F
100
AcDbEntity
  8
16
  6
Continuous
 62
     3
370
    25
100
AcDbLine
 10
-110.2999989315867
 20
-35.34999861568212
 30
0.0
 11
-110.3999989330769
 21
-35.14999861270189
 31
0.0
  0
LINE
  5
2F0
330
1F
100
AcDbEntity
  8
16
  6
Continuous
 62
     3
370
    25
100
AcDbLine
 10
-110.3999989330769
 20
-35.14999861270189
 30
0.0
 11
-110.3999989330769
 21
-34.24999859929085
 31
0.0
  0
LINE
  5
2F1
330
1F
100
AcDbEntity
  8
16
  6
Continuous
 62
     3
370
    25
100
AcDbLine
 10
-110.3999989330769
 20
-34.24999859929085
 30
0.0
 11
-110.2999989315867
 21
-34.04999859631062
 31
0.0
  0
LINE
  5
2F2
330
1F
100
AcDbEntity
  8
16
  6
Continuous
 62
     3
370
    25
100
AcDbLine
 10
-110.2999989315867
 20
-34.04999859631062
 30
0.0
 11
-110.2999989315867
 21
-33.44999858736992
 31
0.0
  0
LINE
  5
2F3
330
1F
100
AcDbEntity
  8
16
  6
Continuous
 62
     3
370
    25
100
AcDbLine
 10
-110.2999989315867
 20
-33.44999858736992
 30
0.0
 11
-110.7999989390373
 21
-33.44999858736992
 31
0.0
  0
LINE
  5
2F4
330
1F
100
AcDbEntity
  8
16
  6
Continuous
 62
     3
370
    25
100
AcDbLine
 10
-110.7999989390373
 20
-33.44999858736992
 30
0.0
 11
-110.7999989390373
 21
-33.37999858751893
 31
0.0
  0
LINE
  5
2F5
330
1F
100
AcDbEntity
  8
16
  6
Continuous
 62
     3
370
    25
100
AcDbLine
 10
-110.7999989390373
 20
-33.37999858751893
 30
0.0
 11
-110.2999989315867
 21
-33.37999858751893
 31
0.0
  0
LINE
  5
2F6
330
1F
100
AcDbEntity
  8
16
  6
Continuous
 62
     3
370
    25
100
AcDbLine
 10
-110.2999989315867
 20
-33.37999858751893
 30
0.0
 11
-110.2999989315867
 21
-33.44999858736992
 31
0.0
  0
LINE
  5
2F7
330
1F
100
AcDbEntity
  8
16
  6
Continuous
 62
     3
370
    25
100
AcDbLine
 10
-107.7999988943338
 20
-33.44999858736992
 30
0.0
 11
-107.7999988943338
 21
-34.04999859631062
 31
0.0
  0
LINE
  5
2F8
330
1F
100
AcDbEntity
  8
16
  6
Continuous
 62
     3
370
    25
100
AcDbLine
 10
-107.7999988943338
 20
-34.04999859631062
 30
0.0
 11
-107.6999988928437
 21
-34.24999859929085
 31
0.0
  0
LINE
  5
2F9
330
1F
100
AcDbEntity
  8
16
  6
Continuous
 62
     3
370
    25
100
AcDbLine
 10
-107.6999988928437
 20
-34.24999859929085
 30
0.0
 11
-107.6999988928437
 21
-35.14999861270189
 31
0.0
  0
LINE
  5
2FA
330
1F
100
AcDbEntity
  8
16
  6
Continuous
 62
     3
370
    25
100
AcDbLine
 10
-107.6999988928437
 20
-35.14999861270189
 30
0.0
 11
-107.7999988943338
 21
-35.34999861568212
 31
0.0
  0
LINE
  5
2FB
330
1F
100
AcDbEntity
  8
16
  6
Continuous
 62
     3
370
    25
100
AcDbLine
 10
-107.7999988943338
 20
-35.34999861568212
 30
0.0
 11
-107.7999988943338
 21
-35.94999862462282
 31
0.0
  0
LINE
  5
2FC
330
1F
100
AcDbEntity
  8
16
  6
Continuous
 62
     3
370
    25
100
AcDbLine
 10
-107.7999988943338
 20
-35.94999862462282
 30
0.0
 11
-107.2999988868833
 21
-35.94999862462282
 31
0.0
  0
LINE
  5
2FD
330
1F
100
AcDbEntity
  8
16
  6
Continuous
 62
     3
370
    25
100
AcDbLine
 10
-107.2999988868833
 20
-35.94999862462282
 30
0.0
 11
-107.2999988868833
 21
-35.34999861568212
 31
0.0
  0
LINE
  5
2FE
330
1F
100
AcDbEntity
  8
16
  6
Continuous
 62
     3
370
    25
100
AcDbLine
 10
-107.2999988868833
 20
-35.34999861568212
 30
0.0
 11
-107.3999988883734
 21
-35.14999861270189
 31
0.0
  0
LINE
  5
2FF
330
1F
100
AcDbEntity
  8
16
  6
Continuous
 62
     3
370
    25
100
AcDbLine
 10
-107.3999988883734
 20
-35.14999861270189
 30
0.0
 11
-107.3999988883734
 21
-34.24999859929085
 31
0.0
  0
LINE
  5
300
330
1F
100
AcDbEntity
  8
16
  6
Continuous
 62
     3
370
    25
100
AcDbLine
 10
-107.3999988883734
 20
-34.24999859929085
 30
0.0
 11
-107.2999988868833
 21
-34.04999859631062
 31
0.0
  0
LINE
  5
301
330
1F
100
AcDbEntity
  8
16
  6
Continuous
 62
     3
370
    25
100
AcDbLine
 10
-107.2999988868833
 20
-34.04999859631062
 30
0.0
 11
-107.2999988868833
 21
-33.44999858736992
 31
0.0
  0
LINE
  5
302
330
1F
100
AcDbEntity
  8
16
  6
Continuous
 62
     3
370
    25
100
AcDbLine
 10
-107.2999988868833
 20
-33.44999858736992
 30
0.0
 11
-107.7999988943338
 21
-33.44999858736992
 31
0.0
  0
LINE
  5
303
330
1F
100
AcDbEntity
  8
16
  6
Continuous
 62
     3
370
    25
100
AcDbLine
 10
-107.7999988943338
 20
-33.44999858736992
 30
0.0
 11
-107.7999988943338
 21
-33.37999858751893
 31
0.0
  0
LINE
  5
304
330
1F
100
AcDbEntity
  8
16
  6
Continuous
 62
     3
370
    25
100
AcDbLine
 10
-107.7999988943338
 20
-33.37999858751893
 30
0.0
 11
-107.2999988868833
 21
-33.37999858751893
 31
0.0
  0
LINE
  5
305
330
1F
100
AcDbEntity
  8
16
  6
Continuous
 62
     3
370
    25
100
AcDbLine
 10
-107.2999988868833
 20
-33.37999858751893
 30
0.0
 11
-107.2999988868833
 21
-33.44999858736992
 31
0.0
  0
LINE
  5
306
330
1F
100
AcDbEntity
  8
16
  6
Continuous
 62
     3
370
    25
100
AcDbLine
 10
-104.7999988496304
 20
-33.44999858736992
 30
0.0
 11
-104.7999988496304
 21
-34.04999859631062
 31
0.0
  0
LINE
  5
307
330
1F
100
AcDbEntity
  8
16
  6
Continuous
 62
     3
370
    25
100
AcDbLine
 10
-104.7999988496304
 20
-34.04999859631062
 30
0.0
 11
-104.6999988481402
 21
-34.24999859929085
 31
0.0
  0
LINE
  5
308
330
1F
100
AcDbEntity
  8
16
  6
Continuous
 62
     3
370
    25
100
AcDbLine
 10
-104.6999988481402
 20
-34.24999859929085
 30
0.0
 11
-104.6999988481402
 21
-35.14999861270189
 31
0.0
  0
LINE
  5
309
330
1F
100
AcDbEntity
  8
16
  6
Continuous
 62
     3
370
    25
100
AcDbLine
 10
-104.6999988481402
 20
-35.14999861270189
 30
0.0
 11
-104.7999988496304
 21
-35.34999861568212
 31
0.0
  0
LINE
  5
30A
330
1F
100
AcDbEntity
  8
16
  6
Continuous
 62
     3
370
    25
100
AcDbLine
 10
-104.7999988496304
 20
-35.34999861568212
 30
0.0
 11
-104.7999988496304
 21
-35.94999862462282
 31
0.0
  0
LINE
  5
30B
330
1F
100
AcDbEntity
  8
16
  6
Continuous
 62
     3
370
    25
100
AcDbLine
 10
-104.7999988496304
 20
-35.94999862462282
 30
0.0
 11
-104.2999988421798
 21
-35.94999862462282
 31
0.0
  0
LINE
  5
30C
330
1F
100
AcDbEntity
  8
16
  6
Continuous
 62
     3
370
    25
100
AcDbLine
 10
-104.2999988421798
 20
-35.94999862462282
 30
0.0
 11
-104.2999988421798
 21
-35.34999861568212
 31
0.0
  0
LINE
  5
30D
330
1F
100
AcDbEntity
  8
16
  6
Continuous
 62
     3
370
    25
100
AcDbLine
 10
-104.2999988421798
 20
-35.34999861568212
 30
0.0
 11
-104.3999988436699
 21
-35.14999861270189
 31
0.0
  0
LINE
  5
30E
330
1F
100
AcDbEntity
  8
16
  6
Continuous
 62
     3
370
    25
100
AcDbLine
 10
-104.3999988436699
 20
-35.14999861270189
 30
0.0
 11
-104.3999988436699
 21
-34.24999859929085
 31
0.0
  0
LINE
  5
30F
330
1F
100
AcDbEntity
  8
16
  6
Continuous
 62
     3
370
    25
100
AcDbLine
 10
-104.3999988436699
 20
-34.24999859929085
 30
0.0
 11
-104.2999988421798
 21
-34.04999859631062
 31
0.0
  0
LINE
  5
310
330
1F
100
AcDbEntity
  8
16
  6
Continuous
 62
     3
370
    25
100
AcDbLine
 10
-104.2999988421798
 20
-34.04999859631062
 30
0.0
 11
-104.2999988421798
 21
-33.44999858736992
 31
0.0
  0
LINE
  5
311
330
1F
100
AcDbEntity
  8
16
  6
Continuous
 62
     3
370
    25
100
AcDbLine
 10
-104.2999988421798
 20
-33.44999858736992
 30
0.0
 11
-104.7999988496304
 21
-33.44999858736992
 31
0.0
  0
LINE
  5
312
330
1F
100
AcDbEntity
  8
16
  6
Continuous
 62
     3
370
    25
100
AcDbLine
 10
-104.7999988496304
 20
-33.44999858736992
 30
0.0
 11
-104.7999988496304
 21
-33.37999858751893
 31
0.0
  0
LINE
  5
313
330
1F
100
AcDbEntity
  8
16
  6
Continuous
 62
     3
370
    25
100
AcDbLine
 10
-104.7999988496304
 20
-33.37999858751893
 30
0.0
 11
-104.2999988421798
 21
-33.37999858751893
 31
0.0
  0
LINE
  5
314
330
1F
100
AcDbEntity
  8
16
  6
Continuous
 62
     3
370
    25
100
AcDbLine
 10
-104.2999988421798
 20
-33.37999858751893
 30
0.0
 11
-104.2999988421798
 21
-33.44999858736992
 31
0.0
  0
LINE
  5
315
330
1F
100
AcDbEntity
  8
16
  6
Continuous
 62
     3
370
    25
100
AcDbLine
 10
-101.7999988049269
 20
-33.44999858736992
 30
0.0
 11
-101.7999988049269
 21
-34.04999859631062
 31
0.0
  0
LINE
  5
316
330
1F
100
AcDbEntity
  8
16
  6
Continuous
 62
     3
370
    25
100
AcDbLine
 10
-101.7999988049269
 20
-34.04999859631062
 30
0.0
 11
-101.6999988034368
 21
-34.24999859929085
 31
0.0
  0
LINE
  5
317
330
1F
100
AcDbEntity
  8
16
  6
Continuous
 62
     3
370
    25
100
AcDbLine
 10
-101.6999988034368
 20
-34.24999859929085
 30
0.0
 11
-101.6999988034368
 21
-35.14999861270189
 31
0.0
  0
LINE
  5
318
330
1F
100
AcDbEntity
  8
16
  6
Continuous
 62
     3
370
    25
100
AcDbLine
 10
-101.6999988034368
 20
-35.14999861270189
 30
0.0
 11
-101.7999988049269
 21
-35.34999861568212
 31
0.0
  0
LINE
  5
319
330
1F
100
AcDbEntity
  8
16
  6
Continuous
 62
     3
370
    25
100
AcDbLine
 10
-101.7999988049269
 20
-35.34999861568212
 30
0.0
 11
-101.7999988049269
 21
-35.94999862462282
 31
0.0
  0
LINE
  5
31A
330
1F
100
AcDbEntity
  8
16
  6
Continuous
 62
     3
370
    25
100
AcDbLine
 10
-101.7999988049269
 20
-35.94999862462282
 30
0.0
 11
-101.2999987974763
 21
-35.94999862462282
 31
0.0
  0
LINE
  5
31B
330
1F
100
AcDbEntity
  8
16
  6
Continuous
 62
     3
370
    25
100
AcDbLine
 10
-101.2999987974763
 20
-35.94999862462282
 30
0.0
 11
-101.2999987974763
 21
-35.34999861568212
 31
0.0
  0
LINE
  5
31C
330
1F
100
AcDbEntity
  8
16
  6
Continuous
 62
     3
370
    25
100
AcDbLine
 10
-101.2999987974763
 20
-35.34999861568212
 30
0.0
 11
-101.3999987989664
 21
-35.14999861270189
 31
0.0
  0
LINE
  5
31D
330
1F
100
AcDbEntity
  8
16
  6
Continuous
 62
     3
370
    25
100
AcDbLine
 10
-101.3999987989664
 20
-35.14999861270189
 30
0.0
 11
-101.3999987989664
 21
-34.24999859929085
 31
0.0
  0
LINE
  5
31E
330
1F
100
AcDbEntity
  8
16
  6
Continuous
 62
     3
370
    25
100
AcDbLine
 10
-101.3999987989664
 20
-34.24999859929085
 30
0.0
 11
-101.2999987974763
 21
-34.04999859631062
 31
0.0
  0
LINE
  5
31F
330
1F
100
AcDbEntity
  8
16
  6
Continuous
 62
     3
370
    25
100
AcDbLine
 10
-101.2999987974763
 20
-34.04999859631062
 30
0.0
 11
-101.2999987974763
 21
-33.44999858736992
 31
0.0
  0
LINE
  5
320
330
1F
100
AcDbEntity
  8
16
  6
Continuous
 62
     3
370
    25
100
AcDbLine
 10
-101.2999987974763
 20
-33.44999858736992
 30
0.0
 11
-101.7999988049269
 21
-33.44999858736992
 31
0.0
  0
LINE
  5
321
330
1F
100
AcDbEntity
  8
16
  6
Continuous
 62
     3
370
    25
100
AcDbLine
 10
-101.7999988049269
 20
-33.44999858736992
 30
0.0
 11
-101.7999988049269
 21
-33.37999858751893
 31
0.0
  0
LINE
  5
322
330
1F
100
AcDbEntity
  8
16
  6
Continuous
 62
     3
370
    25
100
AcDbLine
 10
-101.7999988049269
 20
-33.37999858751893
 30
0.0
 11
-101.2999987974763
 21
-33.37999858751893
 31
0.0
  0
LINE
  5
323
330
1F
100
AcDbEntity
  8
16
  6
Continuous
 62
     3
370
    25
100
AcDbLine
 10
-101.2999987974763
 20
-33.37999858751893
 30
0.0
 11
-101.2999987974763
 21
-33.44999858736992
 31
0.0
  0
LINE
  5
324
330
1F
100
AcDbEntity
  8
16
  6
Continuous
 62
     3
370
    25
100
AcDbLine
 10
-98.79999876022339
 20
-33.44999858736992
 30
0.0
 11
-98.79999876022339
 21
-34.04999859631062
 31
0.0
  0
LINE
  5
325
330
1F
100
AcDbEntity
  8
16
  6
Continuous
 62
     3
370
    25
100
AcDbLine
 10
-98.79999876022339
 20
-34.04999859631062
 30
0.0
 11
-98.69999875873327
 21
-34.24999859929085
 31
0.0
  0
LINE
  5
326
330
1F
100
AcDbEntity
  8
16
  6
Continuous
 62
     3
370
    25
100
AcDbLine
 10
-98.69999875873327
 20
-34.24999859929085
 30
0.0
 11
-98.69999875873327
 21
-35.14999861270189
 31
0.0
  0
LINE
  5
327
330
1F
100
AcDbEntity
  8
16
  6
Continuous
 62
     3
370
    25
100
AcDbLine
 10
-98.69999875873327
 20
-35.14999861270189
 30
0.0
 11
-98.79999876022339
 21
-35.34999861568212
 31
0.0
  0
LINE
  5
328
330
1F
100
AcDbEntity
  8
16
  6
Continuous
 62
     3
370
    25
100
AcDbLine
 10
-98.79999876022339
 20
-35.34999861568212
 30
0.0
 11
-98.79999876022339
 21
-35.94999862462282
 31
0.0
  0
LINE
  5
329
330
1F
100
AcDbEntity
  8
16
  6
Continuous
 62
     3
370
    25
100
AcDbLine
 10
-98.79999876022339
 20
-35.94999862462282
 30
0.0
 11
-98.29999875277281
 21
-35.94999862462282
 31
0.0
  0
LINE
  5
32A
330
1F
100
AcDbEntity
  8
16
  6
Continuous
 62
     3
370
    25
100
AcDbLine
 10
-98.29999875277281
 20
-35.94999862462282
 30
0.0
 11
-98.29999875277281
 21
-35.34999861568212
 31
0.0
  0
LINE
  5
32B
330
1F
100
AcDbEntity
  8
16
  6
Continuous
 62
     3
370
    25
100
AcDbLine
 10
-98.29999875277281
 20
-35.34999861568212
 30
0.0
 11
-98.39999875426292
 21
-35.14999861270189
 31
0.0
  0
LINE
  5
32C
330
1F
100
AcDbEntity
  8
16
  6
Continuous
 62
     3
370
    25
100
AcDbLine
 10
-98.39999875426292
 20
-35.14999861270189
 30
0.0
 11
-98.39999875426292
 21
-34.24999859929085
 31
0.0
  0
LINE
  5
32D
330
1F
100
AcDbEntity
  8
16
  6
Continuous
 62
     3
370
    25
100
AcDbLine
 10
-98.39999875426292
 20
-34.24999859929085
 30
0.0
 11
-98.29999875277281
 21
-34.04999859631062
 31
0.0
  0
LINE
  5
32E
330
1F
100
AcDbEntity
  8
16
  6
Continuous
 62
     3
370
    25
100
AcDbLine
 10
-98.29999875277281
 20
-34.04999859631062
 30
0.0
 11
-98.29999875277281
 21
-33.44999858736992
 31
0.0
  0
LINE
  5
32F
330
1F
100
AcDbEntity
  8
16
  6
Continuous
 62
     3
370
    25
100
AcDbLine
 10
-98.29999875277281
 20
-33.44999858736992
 30
0.0
 11
-98.79999876022339
 21
-33.44999858736992
 31
0.0
  0
LINE
  5
330
330
1F
100
AcDbEntity
  8
16
  6
Continuous
 62
     3
370
    25
100
AcDbLine
 10
-98.79999876022339
 20
-33.44999858736992
 30
0.0
 11
-98.79999876022339
 21
-33.37999858751893
 31
0.0
  0
LINE
  5
331
330
1F
100
AcDbEntity
  8
16
  6
Continuous
 62
     3
370
    25
100
AcDbLine
 10
-98.79999876022339
 20
-33.37999858751893
 30
0.0
 11
-98.29999875277281
 21
-33.37999858751893
 31
0.0
  0
LINE
  5
332
330
1F
100
AcDbEntity
  8
16
  6
Continuous
 62
     3
370
    25
100
AcDbLine
 10
-98.29999875277281
 20
-33.37999858751893
 30
0.0
 11
-98.29999875277281
 21
-33.44999858736992
 31
0.0
  0
LINE
  5
333
330
1F
100
AcDbEntity
  8
16
  6
Continuous
 62
     3
370
    25
100
AcDbLine
 10
-95.7999987155199
 20
-33.44999858736992
 30
0.0
 11
-95.7999987155199
 21
-34.04999859631062
 31
0.0
  0
LINE
  5
334
330
1F
100
AcDbEntity
  8
16
  6
Continuous
 62
     3
370
    25
100
AcDbLine
 10
-95.7999987155199
 20
-34.04999859631062
 30
0.0
 11
-95.69999871402979
 21
-34.24999859929085
 31
0.0
  0
LINE
  5
335
330
1F
100
AcDbEntity
  8
16
  6
Continuous
 62
     3
370
    25
100
AcDbLine
 10
-95.69999871402979
 20
-34.24999859929085
 30
0.0
 11
-95.69999871402979
 21
-35.14999861270189
 31
0.0
  0
LINE
  5
336
330
1F
100
AcDbEntity
  8
16
  6
Continuous
 62
     3
370
    25
100
AcDbLine
 10
-95.69999871402979
 20
-35.14999861270189
 30
0.0
 11
-95.7999987155199
 21
-35.34999861568212
 31
0.0
  0
LINE
  5
337
330
1F
100
AcDbEntity
  8
16
  6
Continuous
 62
     3
370
    25
100
AcDbLine
 10
-95.7999987155199
 20
-35.34999861568212
 30
0.0
 11
-95.7999987155199
 21
-35.94999862462282
 31
0.0
  0
LINE
  5
338
330
1F
100
AcDbEntity
  8
16
  6
Continuous
 62
     3
370
    25
100
AcDbLine
 10
-95.7999987155199
 20
-35.94999862462282
 30
0.0
 11
-95.29999870806932
 21
-35.94999862462282
 31
0.0
  0
LINE
  5
339
330
1F
100
AcDbEntity
  8
16
  6
Continuous
 62
     3
370
    25
100
AcDbLine
 10
-95.29999870806932
 20
-35.94999862462282
 30
0.0
 11
-95.29999870806932
 21
-35.34999861568212
 31
0.0
  0
LINE
  5
33A
330
1F
100
AcDbEntity
  8
16
  6
Continuous
 62
     3
370
    25
100
AcDbLine
 10
-95.29999870806932
 20
-35.34999861568212
 30
0.0
 11
-95.39999870955944
 21
-35.14999861270189
 31
0.0
  0
LINE
  5
33B
330
1F
100
AcDbEntity
  8
16
  6
Continuous
 62
     3
370
    25
100
AcDbLine
 10
-95.39999870955944
 20
-35.14999861270189
 30
0.0
 11
-95.39999870955944
 21
-34.24999859929085
 31
0.0
  0
LINE
  5
33C
330
1F
100
AcDbEntity
  8
16
  6
Continuous
 62
     3
370
    25
100
AcDbLine
 10
-95.39999870955944
 20
-34.24999859929085
 30
0.0
 11
-95.29999870806932
 21
-34.04999859631062
 31
0.0
  0
LINE
  5
33D
330
1F
100
AcDbEntity
  8
16
  6
Continuous
 62
     3
370
    25
100
AcDbLine
 10
-95.29999870806932
 20
-34.04999859631062
 30
0.0
 11
-95.29999870806932
 21
-33.44999858736992
 31
0.0
  0
LINE
  5
33E
330
1F
100
AcDbEntity
  8
16
  6
Continuous
 62
     3
370
    25
100
AcDbLine
 10
-95.29999870806932
 20
-33.44999858736992
 30
0.0
 11
-95.7999987155199
 21
-33.44999858736992
 31
0.0
  0
LINE
  5
33F
330
1F
100
AcDbEntity
  8
16
  6
Continuous
 62
     3
370
    25
100
AcDbLine
 10
-95.7999987155199
 20
-33.44999858736992
 30
0.0
 11
-95.7999987155199
 21
-33.37999858751893
 31
0.0
  0
LINE
  5
340
330
1F
100
AcDbEntity
  8
16
  6
Continuous
 62
     3
370
    25
100
AcDbLine
 10
-95.7999987155199
 20
-33.37999858751893
 30
0.0
 11
-95.29999870806932
 21
-33.37999858751893
 31
0.0
  0
LINE
  5
341
330
1F
100
AcDbEntity
  8
16
  6
Continuous
 62
     3
370
    25
100
AcDbLine
 10
-95.29999870806932
 20
-33.37999858751893
 30
0.0
 11
-95.29999870806932
 21
-33.44999858736992
 31
0.0
  0
LINE
  5
342
330
1F
100
AcDbEntity
  8
16
  6
Continuous
 62
     3
370
    25
100
AcDbLine
 10
-92.79999867081642
 20
-33.44999858736992
 30
0.0
 11
-92.79999867081642
 21
-34.04999859631062
 31
0.0
  0
LINE
  5
343
330
1F
100
AcDbEntity
  8
16
  6
Continuous
 62
     3
370
    25
100
AcDbLine
 10
-92.79999867081642
 20
-34.04999859631062
 30
0.0
 11
-92.6999986693263
 21
-34.24999859929085
 31
0.0
  0
LINE
  5
344
330
1F
100
AcDbEntity
  8
16
  6
Continuous
 62
     3
370
    25
100
AcDbLine
 10
-92.6999986693263
 20
-34.24999859929085
 30
0.0
 11
-92.6999986693263
 21
-35.14999861270189
 31
0.0
  0
LINE
  5
345
330
1F
100
AcDbEntity
  8
16
  6
Continuous
 62
     3
370
    25
100
AcDbLine
 10
-92.6999986693263
 20
-35.14999861270189
 30
0.0
 11
-92.79999867081642
 21
-35.34999861568212
 31
0.0
  0
LINE
  5
346
330
1F
100
AcDbEntity
  8
16
  6
Continuous
 62
     3
370
    25
100
AcDbLine
 10
-92.79999867081642
 20
-35.34999861568212
 30
0.0
 11
-92.79999867081642
 21
-35.94999862462282
 31
0.0
  0
LINE
  5
347
330
1F
100
AcDbEntity
  8
16
  6
Continuous
 62
     3
370
    25
100
AcDbLine
 10
-92.79999867081642
 20
-35.94999862462282
 30
0.0
 11
-92.29999866336584
 21
-35.94999862462282
 31
0.0
  0
LINE
  5
348
330
1F
100
AcDbEntity
  8
16
  6
Continuous
 62
     3
370
    25
100
AcDbLine
 10
-92.29999866336584
 20
-35.94999862462282
 30
0.0
 11
-92.29999866336584
 21
-35.34999861568212
 31
0.0
  0
LINE
  5
349
330
1F
100
AcDbEntity
  8
16
  6
Continuous
 62
     3
370
    25
100
AcDbLine
 10
-92.29999866336584
 20
-35.34999861568212
 30
0.0
 11
-92.39999866485596
 21
-35.14999861270189
 31
0.0
  0
LINE
  5
34A
330
1F
100
AcDbEntity
  8
16
  6
Continuous
 62
     3
370
    25
100
AcDbLine
 10
-92.39999866485596
 20
-35.14999861270189
 30
0.0
 11
-92.39999866485596
 21
-34.24999859929085
 31
0.0
  0
LINE
  5
34B
330
1F
100
AcDbEntity
  8
16
  6
Continuous
 62
     3
370
    25
100
AcDbLine
 10
-92.39999866485596
 20
-34.24999859929085
 30
0.0
 11
-92.29999866336584
 21
-34.04999859631062
 31
0.0
  0
LINE
  5
34C
330
1F
100
AcDbEntity
  8
16
  6
Continuous
 62
     3
370
    25
100
AcDbLine
 10
-92.29999866336584
 20
-34.04999859631062
 30
0.0
 11
-92.29999866336584
 21
-33.44999858736992
 31
0.0
  0
LINE
  5
34D
330
1F
100
AcDbEntity
  8
16
  6
Continuous
 62
     3
370
    25
100
AcDbLine
 10
-92.29999866336584
 20
-33.44999858736992
 30
0.0
 11
-92.79999867081642
 21
-33.44999858736992
 31
0.0
  0
LINE
  5
34E
330
1F
100
AcDbEntity
  8
16
  6
Continuous
 62
     3
370
    25
100
AcDbLine
 10
-92.79999867081642
 20
-33.44999858736992
 30
0.0
 11
-92.79999867081642
 21
-33.37999858751893
 31
0.0
  0
LINE
  5
34F
330
1F
100
AcDbEntity
  8
16
  6
Continuous
 62
     3
370
    25
100
AcDbLine
 10
-92.79999867081642
 20
-33.37999858751893
 30
0.0
 11
-92.29999866336584
 21
-33.37999858751893
 31
0.0
  0
LINE
  5
350
330
1F
100
AcDbEntity
  8
16
  6
Continuous
 62
     3
370
    25
100
AcDbLine
 10
-92.29999866336584
 20
-33.37999858751893
 30
0.0
 11
-92.29999866336584
 21
-33.44999858736992
 31
0.0
  0
LINE
  5
351
330
1F
100
AcDbEntity
  8
16
  6
Continuous
 62
     3
370
    25
100
AcDbLine
 10
-89.79999862611294
 20
-33.44999858736992
 30
0.0
 11
-89.79999862611294
 21
-34.04999859631062
 31
0.0
  0
LINE
  5
352
330
1F
100
AcDbEntity
  8
16
  6
Continuous
 62
     3
370
    25
100
AcDbLine
 10
-89.79999862611294
 20
-34.04999859631062
 30
0.0
 11
-89.69999862462282
 21
-34.24999859929085
 31
0.0
  0
LINE
  5
353
330
1F
100
AcDbEntity
  8
16
  6
Continuous
 62
     3
370
    25
100
AcDbLine
 10
-89.69999862462282
 20
-34.24999859929085
 30
0.0
 11
-89.69999862462282
 21
-35.14999861270189
 31
0.0
  0
LINE
  5
354
330
1F
100
AcDbEntity
  8
16
  6
Continuous
 62
     3
370
    25
100
AcDbLine
 10
-89.69999862462282
 20
-35.14999861270189
 30
0.0
 11
-89.79999862611294
 21
-35.34999861568212
 31
0.0
  0
LINE
  5
355
330
1F
100
AcDbEntity
  8
16
  6
Continuous
 62
     3
370
    25
100
AcDbLine
 10
-89.79999862611294
 20
-35.34999861568212
 30
0.0
 11
-89.79999862611294
 21
-35.94999862462282
 31
0.0
  0
LINE
  5
356
330
1F
100
AcDbEntity
  8
16
  6
Continuous
 62
     3
370
    25
100
AcDbLine
 10
-89.79999862611294
 20
-35.94999862462282
 30
0.0
 11
-89.29999861866236
 21
-35.94999862462282
 31
0.0
  0
LINE
  5
357
330
1F
100
AcDbEntity
  8
16
  6
Continuous
 62
     3
370
    25
100
AcDbLine
 10
-89.29999861866236
 20
-35.94999862462282
 30
0.0
 11
-89.29999861866236
 21
-35.34999861568212
 31
0.0
  0
LINE
  5
358
330
1F
100
AcDbEntity
  8
16
  6
Continuous
 62
     3
370
    25
100
AcDbLine
 10
-89.29999861866236
 20
-35.34999861568212
 30
0.0
 11
-89.39999862015247
 21
-35.14999861270189
 31
0.0
  0
LINE
  5
359
330
1F
100
AcDbEntity
  8
16
  6
Continuous
 62
     3
370
    25
100
AcDbLine
 10
-89.39999862015247
 20
-35.14999861270189
 30
0.0
 11
-89.39999862015247
 21
-34.24999859929085
 31
0.0
  0
LINE
  5
35A
330
1F
100
AcDbEntity
  8
16
  6
Continuous
 62
     3
370
    25
100
AcDbLine
 10
-89.39999862015247
 20
-34.24999859929085
 30
0.0
 11
-89.29999861866236
 21
-34.04999859631062
 31
0.0
  0
LINE
  5
35B
330
1F
100
AcDbEntity
  8
16
  6
Continuous
 62
     3
370
    25
100
AcDbLine
 10
-89.29999861866236
 20
-34.04999859631062
 30
0.0
 11
-89.29999861866236
 21
-33.44999858736992
 31
0.0
  0
LINE
  5
35C
330
1F
100
AcDbEntity
  8
16
  6
Continuous
 62
     3
370
    25
100
AcDbLine
 10
-89.29999861866236
 20
-33.44999858736992
 30
0.0
 11
-89.79999862611294
 21
-33.44999858736992
 31
0.0
  0
LINE
  5
35D
330
1F
100
AcDbEntity
  8
16
  6
Continuous
 62
     3
370
    25
100
AcDbLine
 10
-89.79999862611294
 20
-33.44999858736992
 30
0.0
 11
-89.79999862611294
 21
-33.37999858751893
 31
0.0
  0
LINE
  5
35E
330
1F
100
AcDbEntity
  8
16
  6
Continuous
 62
     3
370
    25
100
AcDbLine
 10
-89.79999862611294
 20
-33.37999858751893
 30
0.0
 11
-89.29999861866236
 21
-33.37999858751893
 31
0.0
  0
LINE
  5
35F
330
1F
100
AcDbEntity
  8
16
  6
Continuous
 62
     3
370
    25
100
AcDbLine
 10
-89.29999861866236
 20
-33.37999858751893
 30
0.0
 11
-89.29999861866236
 21
-33.44999858736992
 31
0.0
  0
LINE
  5
360
330
1F
100
AcDbEntity
  8
16
  6
Continuous
 62
     3
370
    25
100
AcDbLine
 10
-86.79999858140945
 20
-33.44999858736992
 30
0.0
 11
-86.79999858140945
 21
-34.04999859631062
 31
0.0
  0
LINE
  5
361
330
1F
100
AcDbEntity
  8
16
  6
Continuous
 62
     3
370
    25
100
AcDbLine
 10
-86.79999858140945
 20
-34.04999859631062
 30
0.0
 11
-86.69999857991934
 21
-34.24999859929085
 31
0.0
  0
LINE
  5
362
330
1F
100
AcDbEntity
  8
16
  6
Continuous
 62
     3
370
    25
100
AcDbLine
 10
-86.69999857991934
 20
-34.24999859929085
 30
0.0
 11
-86.69999857991934
 21
-35.14999861270189
 31
0.0
  0
LINE
  5
363
330
1F
100
AcDbEntity
  8
16
  6
Continuous
 62
     3
370
    25
100
AcDbLine
 10
-86.69999857991934
 20
-35.14999861270189
 30
0.0
 11
-86.79999858140945
 21
-35.34999861568212
 31
0.0
  0
LINE
  5
364
330
1F
100
AcDbEntity
  8
16
  6
Continuous
 62
     3
370
    25
100
AcDbLine
 10
-86.79999858140945
 20
-35.34999861568212
 30
0.0
 11
-86.79999858140945
 21
-35.94999862462282
 31
0.0
  0
LINE
  5
365
330
1F
100
AcDbEntity
  8
16
  6
Continuous
 62
     3
370
    25
100
AcDbLine
 10
-86.79999858140945
 20
-35.94999862462282
 30
0.0
 11
-86.29999857395887
 21
-35.94999862462282
 31
0.0
  0
LINE
  5
366
330
1F
100
AcDbEntity
  8
16
  6
Continuous
 62
     3
370
    25
100
AcDbLine
 10
-86.29999857395887
 20
-35.94999862462282
 30
0.0
 11
-86.29999857395887
 21
-35.34999861568212
 31
0.0
  0
LINE
  5
367
330
1F
100
AcDbEntity
  8
16
  6
Continuous
 62
     3
370
    25
100
AcDbLine
 10
-86.29999857395887
 20
-35.34999861568212
 30
0.0
 11
-86.39999857544899
 21
-35.14999861270189
 31
0.0
  0
LINE
  5
368
330
1F
100
AcDbEntity
  8
16
  6
Continuous
 62
     3
370
    25
100
AcDbLine
 10
-86.39999857544899
 20
-35.14999861270189
 30
0.0
 11
-86.39999857544899
 21
-34.24999859929085
 31
0.0
  0
LINE
  5
369
330
1F
100
AcDbEntity
  8
16
  6
Continuous
 62
     3
370
    25
100
AcDbLine
 10
-86.39999857544899
 20
-34.24999859929085
 30
0.0
 11
-86.29999857395887
 21
-34.04999859631062
 31
0.0
  0
LINE
  5
36A
330
1F
100
AcDbEntity
  8
16
  6
Continuous
 62
     3
370
    25
100
AcDbLine
 10
-86.29999857395887
 20
-34.04999859631062
 30
0.0
 11
-86.29999857395887
 21
-33.44999858736992
 31
0.0
  0
LINE
  5
36B
330
1F
100
AcDbEntity
  8
16
  6
Continuous
 62
     3
370
    25
100
AcDbLine
 10
-86.29999857395887
 20
-33.44999858736992
 30
0.0
 11
-86.79999858140945
 21
-33.44999858736992
 31
0.0
  0
LINE
  5
36C
330
1F
100
AcDbEntity
  8
16
  6
Continuous
 62
     3
370
    25
100
AcDbLine
 10
-86.79999858140945
 20
-33.44999858736992
 30
0.0
 11
-86.79999858140945
 21
-33.37999858751893
 31
0.0
  0
LINE
  5
36D
330
1F
100
AcDbEntity
  8
16
  6
Continuous
 62
     3
370
    25
100
AcDbLine
 10
-86.79999858140945
 20
-33.37999858751893
 30
0.0
 11
-86.29999857395887
 21
-33.37999858751893
 31
0.0
  0
LINE
  5
36E
330
1F
100
AcDbEntity
  8
16
  6
Continuous
 62
     3
370
    25
100
AcDbLine
 10
-86.29999857395887
 20
-33.37999858751893
 30
0.0
 11
-86.29999857395887
 21
-33.44999858736992
 31
0.0
  0
LINE
  5
36F
330
1F
100
AcDbEntity
  8
16
  6
Continuous
 62
     3
370
    25
100
AcDbLine
 10
-83.79999853670597
 20
-33.44999858736992
 30
0.0
 11
-83.79999853670597
 21
-34.04999859631062
 31
0.0
  0
LINE
  5
370
330
1F
100
AcDbEntity
  8
16
  6
Continuous
 62
     3
370
    25
100
AcDbLine
 10
-83.79999853670597
 20
-34.04999859631062
 30
0.0
 11
-83.69999853521585
 21
-34.24999859929085
 31
0.0
  0
LINE
  5
371
330
1F
100
AcDbEntity
  8
16
  6
Continuous
 62
     3
370
    25
100
AcDbLine
 10
-83.69999853521585
 20
-34.24999859929085
 30
0.0
 11
-83.69999853521585
 21
-35.14999861270189
 31
0.0
  0
LINE
  5
372
330
1F
100
AcDbEntity
  8
16
  6
Continuous
 62
     3
370
    25
100
AcDbLine
 10
-83.69999853521585
 20
-35.14999861270189
 30
0.0
 11
-83.79999853670597
 21
-35.34999861568212
 31
0.0
  0
LINE
  5
373
330
1F
100
AcDbEntity
  8
16
  6
Continuous
 62
     3
370
    25
100
AcDbLine
 10
-83.79999853670597
 20
-35.34999861568212
 30
0.0
 11
-83.79999853670597
 21
-35.94999862462282
 31
0.0
  0
LINE
  5
374
330
1F
100
AcDbEntity
  8
16
  6
Continuous
 62
     3
370
    25
100
AcDbLine
 10
-83.79999853670597
 20
-35.94999862462282
 30
0.0
 11
-83.29999852925539
 21
-35.94999862462282
 31
0.0
  0
LINE
  5
375
330
1F
100
AcDbEntity
  8
16
  6
Continuous
 62
     3
370
    25
100
AcDbLine
 10
-83.29999852925539
 20
-35.94999862462282
 30
0.0
 11
-83.29999852925539
 21
-35.34999861568212
 31
0.0
  0
LINE
  5
376
330
1F
100
AcDbEntity
  8
16
  6
Continuous
 62
     3
370
    25
100
AcDbLine
 10
-83.29999852925539
 20
-35.34999861568212
 30
0.0
 11
-83.3999985307455
 21
-35.14999861270189
 31
0.0
  0
LINE
  5
377
330
1F
100
AcDbEntity
  8
16
  6
Continuous
 62
     3
370
    25
100
AcDbLine
 10
-83.3999985307455
 20
-35.14999861270189
 30
0.0
 11
-83.3999985307455
 21
-34.24999859929085
 31
0.0
  0
LINE
  5
378
330
1F
100
AcDbEntity
  8
16
  6
Continuous
 62
     3
370
    25
100
AcDbLine
 10
-83.3999985307455
 20
-34.24999859929085
 30
0.0
 11
-83.29999852925539
 21
-34.04999859631062
 31
0.0
  0
LINE
  5
379
330
1F
100
AcDbEntity
  8
16
  6
Continuous
 62
     3
370
    25
100
AcDbLine
 10
-83.29999852925539
 20
-34.04999859631062
 30
0.0
 11
-83.29999852925539
 21
-33.44999858736992
 31
0.0
  0
LINE
  5
37A
330
1F
100
AcDbEntity
  8
16
  6
Continuous
 62
     3
370
    25
100
AcDbLine
 10
-83.29999852925539
 20
-33.44999858736992
 30
0.0
 11
-83.79999853670597
 21
-33.44999858736992
 31
0.0
  0
LINE
  5
37B
330
1F
100
AcDbEntity
  8
16
  6
Continuous
 62
     3
370
    25
100
AcDbLine
 10
-83.79999853670597
 20
-33.44999858736992
 30
0.0
 11
-83.79999853670597
 21
-33.37999858751893
 31
0.0
  0
LINE
  5
37C
330
1F
100
AcDbEntity
  8
16
  6
Continuous
 62
     3
370
    25
100
AcDbLine
 10
-83.79999853670597
 20
-33.37999858751893
 30
0.0
 11
-83.29999852925539
 21
-33.37999858751893
 31
0.0
  0
LINE
  5
37D
330
1F
100
AcDbEntity
  8
16
  6
Continuous
 62
     3
370
    25
100
AcDbLine
 10
-83.29999852925539
 20
-33.37999858751893
 30
0.0
 11
-83.29999852925539
 21
-33.44999858736992
 31
0.0
  0
LINE
  5
37E
330
1F
100
AcDbEntity
  8
16
  6
Continuous
 62
     3
370
    25
100
AcDbLine
 10
-80.79999849200249
 20
-33.44999858736992
 30
0.0
 11
-80.79999849200249
 21
-34.04999859631062
 31
0.0
  0
LINE
  5
37F
330
1F
100
AcDbEntity
  8
16
  6
Continuous
 62
     3
370
    25
100
AcDbLine
 10
-80.79999849200249
 20
-34.04999859631062
 30
0.0
 11
-80.69999849051237
 21
-34.24999859929085
 31
0.0
  0
LINE
  5
380
330
1F
100
AcDbEntity
  8
16
  6
Continuous
 62
     3
370
    25
100
AcDbLine
 10
-80.69999849051237
 20
-34.24999859929085
 30
0.0
 11
-80.69999849051237
 21
-35.14999861270189
 31
0.0
  0
LINE
  5
381
330
1F
100
AcDbEntity
  8
16
  6
Continuous
 62
     3
370
    25
100
AcDbLine
 10
-80.69999849051237
 20
-35.14999861270189
 30
0.0
 11
-80.79999849200249
 21
-35.34999861568212
 31
0.0
  0
LINE
  5
382
330
1F
100
AcDbEntity
  8
16
  6
Continuous
 62
     3
370
    25
100
AcDbLine
 10
-80.79999849200249
 20
-35.34999861568212
 30
0.0
 11
-80.79999849200249
 21
-35.94999862462282
 31
0.0
  0
LINE
  5
383
330
1F
100
AcDbEntity
  8
16
  6
Continuous
 62
     3
370
    25
100
AcDbLine
 10
-80.79999849200249
 20
-35.94999862462282
 30
0.0
 11
-80.2999984845519
 21
-35.94999862462282
 31
0.0
  0
LINE
  5
384
330
1F
100
AcDbEntity
  8
16
  6
Continuous
 62
     3
370
    25
100
AcDbLine
 10
-80.2999984845519
 20
-35.94999862462282
 30
0.0
 11
-80.2999984845519
 21
-35.34999861568212
 31
0.0
  0
LINE
  5
385
330
1F
100
AcDbEntity
  8
16
  6
Continuous
 62
     3
370
    25
100
AcDbLine
 10
-80.2999984845519
 20
-35.34999861568212
 30
0.0
 11
-80.39999848604202
 21
-35.14999861270189
 31
0.0
  0
LINE
  5
386
330
1F
100
AcDbEntity
  8
16
  6
Continuous
 62
     3
370
    25
100
AcDbLine
 10
-80.39999848604202
 20
-35.14999861270189
 30
0.0
 11
-80.39999848604202
 21
-34.24999859929085
 31
0.0
  0
LINE
  5
387
330
1F
100
AcDbEntity
  8
16
  6
Continuous
 62
     3
370
    25
100
AcDbLine
 10
-80.39999848604202
 20
-34.24999859929085
 30
0.0
 11
-80.2999984845519
 21
-34.04999859631062
 31
0.0
  0
LINE
  5
388
330
1F
100
AcDbEntity
  8
16
  6
Continuous
 62
     3
370
    25
100
AcDbLine
 10
-80.2999984845519
 20
-34.04999859631062
 30
0.0
 11
-80.2999984845519
 21
-33.44999858736992
 31
0.0
  0
LINE
  5
389
330
1F
100
AcDbEntity
  8
16
  6
Continuous
 62
     3
370
    25
100
AcDbLine
 10
-80.2999984845519
 20
-33.44999858736992
 30
0.0
 11
-80.79999849200249
 21
-33.44999858736992
 31
0.0
  0
LINE
  5
38A
330
1F
100
AcDbEntity
  8
16
  6
Continuous
 62
     3
370
    25
100
AcDbLine
 10
-80.79999849200249
 20
-33.44999858736992
 30
0.0
 11
-80.79999849200249
 21
-33.37999858751893
 31
0.0
  0
LINE
  5
38B
330
1F
100
AcDbEntity
  8
16
  6
Continuous
 62
     3
370
    25
100
AcDbLine
 10
-80.79999849200249
 20
-33.37999858751893
 30
0.0
 11
-80.2999984845519
 21
-33.37999858751893
 31
0.0
  0
LINE
  5
38C
330
1F
100
AcDbEntity
  8
16
  6
Continuous
 62
     3
370
    25
100
AcDbLine
 10
-80.2999984845519
 20
-33.37999858751893
 30
0.0
 11
-80.2999984845519
 21
-33.44999858736992
 31
0.0
  0
LINE
  5
38D
330
1F
100
AcDbEntity
  8
16
  6
Continuous
 62
     3
370
    25
100
AcDbLine
 10
-77.799998447299
 20
-33.44999858736992
 30
0.0
 11
-77.799998447299
 21
-34.04999859631062
 31
0.0
  0
LINE
  5
38E
330
1F
100
AcDbEntity
  8
16
  6
Continuous
 62
     3
370
    25
100
AcDbLine
 10
-77.799998447299
 20
-34.04999859631062
 30
0.0
 11
-77.69999844580889
 21
-34.24999859929085
 31
0.0
  0
LINE
  5
38F
330
1F
100
AcDbEntity
  8
16
  6
Continuous
 62
     3
370
    25
100
AcDbLine
 10
-77.69999844580889
 20
-34.24999859929085
 30
0.0
 11
-77.69999844580889
 21
-35.14999861270189
 31
0.0
  0
LINE
  5
390
330
1F
100
AcDbEntity
  8
16
  6
Continuous
 62
     3
370
    25
100
AcDbLine
 10
-77.69999844580889
 20
-35.14999861270189
 30
0.0
 11
-77.799998447299
 21
-35.34999861568212
 31
0.0
  0
LINE
  5
391
330
1F
100
AcDbEntity
  8
16
  6
Continuous
 62
     3
370
    25
100
AcDbLine
 10
-77.799998447299
 20
-35.34999861568212
 30
0.0
 11
-77.799998447299
 21
-35.94999862462282
 31
0.0
  0
LINE
  5
392
330
1F
100
AcDbEntity
  8
16
  6
Continuous
 62
     3
370
    25
100
AcDbLine
 10
-77.799998447299
 20
-35.94999862462282
 30
0.0
 11
-77.29999843984842
 21
-35.94999862462282
 31
0.0
  0
LINE
  5
393
330
1F
100
AcDbEntity
  8
16
  6
Continuous
 62
     3
370
    25
100
AcDbLine
 10
-77.29999843984842
 20
-35.94999862462282
 30
0.0
 11
-77.29999843984842
 21
-35.34999861568212
 31
0.0
  0
LINE
  5
394
330
1F
100
AcDbEntity
  8
16
  6
Continuous
 62
     3
370
    25
100
AcDbLine
 10
-77.29999843984842
 20
-35.34999861568212
 30
0.0
 11
-77.39999844133854
 21
-35.14999861270189
 31
0.0
  0
LINE
  5
395
330
1F
100
AcDbEntity
  8
16
  6
Continuous
 62
     3
370
    25
100
AcDbLine
 10
-77.39999844133854
 20
-35.14999861270189
 30
0.0
 11
-77.39999844133854
 21
-34.24999859929085
 31
0.0
  0
LINE
  5
396
330
1F
100
AcDbEntity
  8
16
  6
Continuous
 62
     3
370
    25
100
AcDbLine
 10
-77.39999844133854
 20
-34.24999859929085
 30
0.0
 11
-77.29999843984842
 21
-34.04999859631062
 31
0.0
  0
LINE
  5
397
330
1F
100
AcDbEntity
  8
16
  6
Continuous
 62
     3
370
    25
100
AcDbLine
 10
-77.29999843984842
 20
-34.04999859631062
 30
0.0
 11
-77.29999843984842
 21
-33.44999858736992
 31
0.0
  0
LINE
  5
398
330
1F
100
AcDbEntity
  8
16
  6
Continuous
 62
     3
370
    25
100
AcDbLine
 10
-77.29999843984842
 20
-33.44999858736992
 30
0.0
 11
-77.799998447299
 21
-33.44999858736992
 31
0.0
  0
LINE
  5
399
330
1F
100
AcDbEntity
  8
16
  6
Continuous
 62
     3
370
    25
100
AcDbLine
 10
-77.799998447299
 20
-33.44999858736992
 30
0.0
 11
-77.799998447299
 21
-33.37999858751893
 31
0.0
  0
LINE
  5
39A
330
1F
100
AcDbEntity
  8
16
  6
Continuous
 62
     3
370
    25
100
AcDbLine
 10
-77.799998447299
 20
-33.37999858751893
 30
0.0
 11
-77.29999843984842
 21
-33.37999858751893
 31
0.0
  0
LINE
  5
39B
330
1F
100
AcDbEntity
  8
16
  6
Continuous
 62
     3
370
    25
100
AcDbLine
 10
-77.29999843984842
 20
-33.37999858751893
 30
0.0
 11
-77.29999843984842
 21
-33.44999858736992
 31
0.0
  0
LINE
  5
39C
330
1F
100
AcDbEntity
  8
16
  6
Continuous
 62
     3
370
    25
100
AcDbLine
 10
-74.79999840259552
 20
-33.44999858736992
 30
0.0
 11
-74.79999840259552
 21
-34.04999859631062
 31
0.0
  0
LINE
  5
39D
330
1F
100
AcDbEntity
  8
16
  6
Continuous
 62
     3
370
    25
100
AcDbLine
 10
-74.79999840259552
 20
-34.04999859631062
 30
0.0
 11
-74.6999984011054
 21
-34.24999859929085
 31
0.0
  0
LINE
  5
39E
330
1F
100
AcDbEntity
  8
16
  6
Continuous
 62
     3
370
    25
100
AcDbLine
 10
-74.6999984011054
 20
-34.24999859929085
 30
0.0
 11
-74.6999984011054
 21
-35.14999861270189
 31
0.0
  0
LINE
  5
39F
330
1F
100
AcDbEntity
  8
16
  6
Continuous
 62
     3
370
    25
100
AcDbLine
 10
-74.6999984011054
 20
-35.14999861270189
 30
0.0
 11
-74.79999840259552
 21
-35.34999861568212
 31
0.0
  0
LINE
  5
3A0
330
1F
100
AcDbEntity
  8
16
  6
Continuous
 62
     3
370
    25
100
AcDbLine
 10
-74.79999840259552
 20
-35.34999861568212
 30
0.0
 11
-74.79999840259552
 21
-35.94999862462282
 31
0.0
  0
LINE
  5
3A1
330
1F
100
AcDbEntity
  8
16
  6
Continuous
 62
     3
370
    25
100
AcDbLine
 10
-74.79999840259552
 20
-35.94999862462282
 30
0.0
 11
-74.29999839514494
 21
-35.94999862462282
 31
0.0
  0
LINE
  5
3A2
330
1F
100
AcDbEntity
  8
16
  6
Continuous
 62
     3
370
    25
100
AcDbLine
 10
-74.29999839514494
 20
-35.94999862462282
 30
0.0
 11
-74.29999839514494
 21
-35.34999861568212
 31
0.0
  0
LINE
  5
3A3
330
1F
100
AcDbEntity
  8
16
  6
Continuous
 62
     3
370
    25
100
AcDbLine
 10
-74.29999839514494
 20
-35.34999861568212
 30
0.0
 11
-74.39999839663506
 21
-35.14999861270189
 31
0.0
  0
LINE
  5
3A4
330
1F
100
AcDbEntity
  8
16
  6
Continuous
 62
     3
370
    25
100
AcDbLine
 10
-74.39999839663506
 20
-35.14999861270189
 30
0.0
 11
-74.39999839663506
 21
-34.24999859929085
 31
0.0
  0
LINE
  5
3A5
330
1F
100
AcDbEntity
  8
16
  6
Continuous
 62
     3
370
    25
100
AcDbLine
 10
-74.39999839663506
 20
-34.24999859929085
 30
0.0
 11
-74.29999839514494
 21
-34.04999859631062
 31
0.0
  0
LINE
  5
3A6
330
1F
100
AcDbEntity
  8
16
  6
Continuous
 62
     3
370
    25
100
AcDbLine
 10
-74.29999839514494
 20
-34.04999859631062
 30
0.0
 11
-74.29999839514494
 21
-33.44999858736992
 31
0.0
  0
LINE
  5
3A7
330
1F
100
AcDbEntity
  8
16
  6
Continuous
 62
     3
370
    25
100
AcDbLine
 10
-74.29999839514494
 20
-33.44999858736992
 30
0.0
 11
-74.79999840259552
 21
-33.44999858736992
 31
0.0
  0
LINE
  5
3A8
330
1F
100
AcDbEntity
  8
16
  6
Continuous
 62
     3
370
    25
100
AcDbLine
 10
-74.79999840259552
 20
-33.44999858736992
 30
0.0
 11
-74.79999840259552
 21
-33.37999858751893
 31
0.0
  0
LINE
  5
3A9
330
1F
100
AcDbEntity
  8
16
  6
Continuous
 62
     3
370
    25
100
AcDbLine
 10
-74.79999840259552
 20
-33.37999858751893
 30
0.0
 11
-74.29999839514494
 21
-33.37999858751893
 31
0.0
  0
LINE
  5
3AA
330
1F
100
AcDbEntity
  8
16
  6
Continuous
 62
     3
370
    25
100
AcDbLine
 10
-74.29999839514494
 20
-33.37999858751893
 30
0.0
 11
-74.29999839514494
 21
-33.44999858736992
 31
0.0
  0
LINE
  5
3AB
330
1F
100
AcDbEntity
  8
16
  6
Continuous
 62
     3
370
    25
100
AcDbLine
 10
-71.79999835789204
 20
-33.44999858736992
 30
0.0
 11
-71.79999835789204
 21
-34.04999859631062
 31
0.0
  0
LINE
  5
3AC
330
1F
100
AcDbEntity
  8
16
  6
Continuous
 62
     3
370
    25
100
AcDbLine
 10
-71.79999835789204
 20
-34.04999859631062
 30
0.0
 11
-71.69999835640192
 21
-34.24999859929085
 31
0.0
  0
LINE
  5
3AD
330
1F
100
AcDbEntity
  8
16
  6
Continuous
 62
     3
370
    25
100
AcDbLine
 10
-71.69999835640192
 20
-34.24999859929085
 30
0.0
 11
-71.69999835640192
 21
-35.14999861270189
 31
0.0
  0
LINE
  5
3AE
330
1F
100
AcDbEntity
  8
16
  6
Continuous
 62
     3
370
    25
100
AcDbLine
 10
-71.69999835640192
 20
-35.14999861270189
 30
0.0
 11
-71.79999835789204
 21
-35.34999861568212
 31
0.0
  0
LINE
  5
3AF
330
1F
100
AcDbEntity
  8
16
  6
Continuous
 62
     3
370
    25
100
AcDbLine
 10
-71.79999835789204
 20
-35.34999861568212
 30
0.0
 11
-71.79999835789204
 21
-35.94999862462282
 31
0.0
  0
LINE
  5
3B0
330
1F
100
AcDbEntity
  8
16
  6
Continuous
 62
     3
370
    25
100
AcDbLine
 10
-71.79999835789204
 20
-35.94999862462282
 30
0.0
 11
-71.29999835044146
 21
-35.94999862462282
 31
0.0
  0
LINE
  5
3B1
330
1F
100
AcDbEntity
  8
16
  6
Continuous
 62
     3
370
    25
100
AcDbLine
 10
-71.29999835044146
 20
-35.94999862462282
 30
0.0
 11
-71.29999835044146
 21
-35.34999861568212
 31
0.0
  0
LINE
  5
3B2
330
1F
100
AcDbEntity
  8
16
  6
Continuous
 62
     3
370
    25
100
AcDbLine
 10
-71.29999835044146
 20
-35.34999861568212
 30
0.0
 11
-71.39999835193157
 21
-35.14999861270189
 31
0.0
  0
LINE
  5
3B3
330
1F
100
AcDbEntity
  8
16
  6
Continuous
 62
     3
370
    25
100
AcDbLine
 10
-71.39999835193157
 20
-35.14999861270189
 30
0.0
 11
-71.39999835193157
 21
-34.24999859929085
 31
0.0
  0
LINE
  5
3B4
330
1F
100
AcDbEntity
  8
16
  6
Continuous
 62
     3
370
    25
100
AcDbLine
 10
-71.39999835193157
 20
-34.24999859929085
 30
0.0
 11
-71.29999835044146
 21
-34.04999859631062
 31
0.0
  0
LINE
  5
3B5
330
1F
100
AcDbEntity
  8
16
  6
Continuous
 62
     3
370
    25
100
AcDbLine
 10
-71.29999835044146
 20
-34.04999859631062
 30
0.0
 11
-71.29999835044146
 21
-33.44999858736992
 31
0.0
  0
LINE
  5
3B6
330
1F
100
AcDbEntity
  8
16
  6
Continuous
 62
     3
370
    25
100
AcDbLine
 10
-71.29999835044146
 20
-33.44999858736992
 30
0.0
 11
-71.79999835789204
 21
-33.44999858736992
 31
0.0
  0
LINE
  5
3B7
330
1F
100
AcDbEntity
  8
16
  6
Continuous
 62
     3
370
    25
100
AcDbLine
 10
-71.79999835789204
 20
-33.44999858736992
 30
0.0
 11
-71.79999835789204
 21
-33.37999858751893
 31
0.0
  0
LINE
  5
3B8
330
1F
100
AcDbEntity
  8
16
  6
Continuous
 62
     3
370
    25
100
AcDbLine
 10
-71.79999835789204
 20
-33.37999858751893
 30
0.0
 11
-71.29999835044146
 21
-33.37999858751893
 31
0.0
  0
LINE
  5
3B9
330
1F
100
AcDbEntity
  8
16
  6
Continuous
 62
     3
370
    25
100
AcDbLine
 10
-71.29999835044146
 20
-33.37999858751893
 30
0.0
 11
-71.29999835044146
 21
-33.44999858736992
 31
0.0
  0
LINE
  5
3BA
330
1F
100
AcDbEntity
  8
16
  6
Continuous
 62
     3
370
    25
100
AcDbLine
 10
-68.79999831318855
 20
-33.44999858736992
 30
0.0
 11
-68.79999831318855
 21
-34.04999859631062
 31
0.0
  0
LINE
  5
3BB
330
1F
100
AcDbEntity
  8
16
  6
Continuous
 62
     3
370
    25
100
AcDbLine
 10
-68.79999831318855
 20
-34.04999859631062
 30
0.0
 11
-68.69999831169844
 21
-34.24999859929085
 31
0.0
  0
LINE
  5
3BC
330
1F
100
AcDbEntity
  8
16
  6
Continuous
 62
     3
370
    25
100
AcDbLine
 10
-68.69999831169844
 20
-34.24999859929085
 30
0.0
 11
-68.69999831169844
 21
-35.14999861270189
 31
0.0
  0
LINE
  5
3BD
330
1F
100
AcDbEntity
  8
16
  6
Continuous
 62
     3
370
    25
100
AcDbLine
 10
-68.69999831169844
 20
-35.14999861270189
 30
0.0
 11
-68.79999831318855
 21
-35.34999861568212
 31
0.0
  0
LINE
  5
3BE
330
1F
100
AcDbEntity
  8
16
  6
Continuous
 62
     3
370
    25
100
AcDbLine
 10
-68.79999831318855
 20
-35.34999861568212
 30
0.0
 11
-68.79999831318855
 21
-35.94999862462282
 31
0.0
  0
LINE
  5
3BF
330
1F
100
AcDbEntity
  8
16
  6
Continuous
 62
     3
370
    25
100
AcDbLine
 10
-68.79999831318855
 20
-35.94999862462282
 30
0.0
 11
-68.29999830573797
 21
-35.94999862462282
 31
0.0
  0
LINE
  5
3C0
330
1F
100
AcDbEntity
  8
16
  6
Continuous
 62
     3
370
    25
100
AcDbLine
 10
-68.29999830573797
 20
-35.94999862462282
 30
0.0
 11
-68.29999830573797
 21
-35.34999861568212
 31
0.0
  0
LINE
  5
3C1
330
1F
100
AcDbEntity
  8
16
  6
Continuous
 62
     3
370
    25
100
AcDbLine
 10
-68.29999830573797
 20
-35.34999861568212
 30
0.0
 11
-68.39999830722809
 21
-35.14999861270189
 31
0.0
  0
LINE
  5
3C2
330
1F
100
AcDbEntity
  8
16
  6
Continuous
 62
     3
370
    25
100
AcDbLine
 10
-68.39999830722809
 20
-35.14999861270189
 30
0.0
 11
-68.39999830722809
 21
-34.24999859929085
 31
0.0
  0
LINE
  5
3C3
330
1F
100
AcDbEntity
  8
16
  6
Continuous
 62
     3
370
    25
100
AcDbLine
 10
-68.39999830722809
 20
-34.24999859929085
 30
0.0
 11
-68.29999830573797
 21
-34.04999859631062
 31
0.0
  0
LINE
  5
3C4
330
1F
100
AcDbEntity
  8
16
  6
Continuous
 62
     3
370
    25
100
AcDbLine
 10
-68.29999830573797
 20
-34.04999859631062
 30
0.0
 11
-68.29999830573797
 21
-33.44999858736992
 31
0.0
  0
LINE
  5
3C5
330
1F
100
AcDbEntity
  8
16
  6
Continuous
 62
     3
370
    25
100
AcDbLine
 10
-68.29999830573797
 20
-33.44999858736992
 30
0.0
 11
-68.79999831318855
 21
-33.44999858736992
 31
0.0
  0
LINE
  5
3C6
330
1F
100
AcDbEntity
  8
16
  6
Continuous
 62
     3
370
    25
100
AcDbLine
 10
-68.79999831318855
 20
-33.44999858736992
 30
0.0
 11
-68.79999831318855
 21
-33.37999858751893
 31
0.0
  0
LINE
  5
3C7
330
1F
100
AcDbEntity
  8
16
  6
Continuous
 62
     3
370
    25
100
AcDbLine
 10
-68.79999831318855
 20
-33.37999858751893
 30
0.0
 11
-68.29999830573797
 21
-33.37999858751893
 31
0.0
  0
LINE
  5
3C8
330
1F
100
AcDbEntity
  8
16
  6
Continuous
 62
     3
370
    25
100
AcDbLine
 10
-68.29999830573797
 20
-33.37999858751893
 30
0.0
 11
-68.29999830573797
 21
-33.44999858736992
 31
0.0
  0
LINE
  5
3C9
330
1F
100
AcDbEntity
  8
16
  6
Continuous
 62
     3
370
    25
100
AcDbLine
 10
-65.79999826848507
 20
-33.44999858736992
 30
0.0
 11
-65.79999826848507
 21
-34.04999859631062
 31
0.0
  0
LINE
  5
3CA
330
1F
100
AcDbEntity
  8
16
  6
Continuous
 62
     3
370
    25
100
AcDbLine
 10
-65.79999826848507
 20
-34.04999859631062
 30
0.0
 11
-65.69999826699495
 21
-34.24999859929085
 31
0.0
  0
LINE
  5
3CB
330
1F
100
AcDbEntity
  8
16
  6
Continuous
 62
     3
370
    25
100
AcDbLine
 10
-65.69999826699495
 20
-34.24999859929085
 30
0.0
 11
-65.69999826699495
 21
-35.14999861270189
 31
0.0
  0
LINE
  5
3CC
330
1F
100
AcDbEntity
  8
16
  6
Continuous
 62
     3
370
    25
100
AcDbLine
 10
-65.69999826699495
 20
-35.14999861270189
 30
0.0
 11
-65.79999826848507
 21
-35.34999861568212
 31
0.0
  0
LINE
  5
3CD
330
1F
100
AcDbEntity
  8
16
  6
Continuous
 62
     3
370
    25
100
AcDbLine
 10
-65.79999826848507
 20
-35.34999861568212
 30
0.0
 11
-65.79999826848507
 21
-35.94999862462282
 31
0.0
  0
LINE
  5
3CE
330
1F
100
AcDbEntity
  8
16
  6
Continuous
 62
     3
370
    25
100
AcDbLine
 10
-65.79999826848507
 20
-35.94999862462282
 30
0.0
 11
-65.29999826103449
 21
-35.94999862462282
 31
0.0
  0
LINE
  5
3CF
330
1F
100
AcDbEntity
  8
16
  6
Continuous
 62
     3
370
    25
100
AcDbLine
 10
-65.29999826103449
 20
-35.94999862462282
 30
0.0
 11
-65.29999826103449
 21
-35.34999861568212
 31
0.0
  0
LINE
  5
3D0
330
1F
100
AcDbEntity
  8
16
  6
Continuous
 62
     3
370
    25
100
AcDbLine
 10
-65.29999826103449
 20
-35.34999861568212
 30
0.0
 11
-65.3999982625246
 21
-35.14999861270189
 31
0.0
  0
LINE
  5
3D1
330
1F
100
AcDbEntity
  8
16
  6
Continuous
 62
     3
370
    25
100
AcDbLine
 10
-65.3999982625246
 20
-35.14999861270189
 30
0.0
 11
-65.3999982625246
 21
-34.24999859929085
 31
0.0
  0
LINE
  5
3D2
330
1F
100
AcDbEntity
  8
16
  6
Continuous
 62
     3
370
    25
100
AcDbLine
 10
-65.3999982625246
 20
-34.24999859929085
 30
0.0
 11
-65.29999826103449
 21
-34.04999859631062
 31
0.0
  0
LINE
  5
3D3
330
1F
100
AcDbEntity
  8
16
  6
Continuous
 62
     3
370
    25
100
AcDbLine
 10
-65.29999826103449
 20
-34.04999859631062
 30
0.0
 11
-65.29999826103449
 21
-33.44999858736992
 31
0.0
  0
LINE
  5
3D4
330
1F
100
AcDbEntity
  8
16
  6
Continuous
 62
     3
370
    25
100
AcDbLine
 10
-65.29999826103449
 20
-33.44999858736992
 30
0.0
 11
-65.79999826848507
 21
-33.44999858736992
 31
0.0
  0
LINE
  5
3D5
330
1F
100
AcDbEntity
  8
16
  6
Continuous
 62
     3
370
    25
100
AcDbLine
 10
-65.79999826848507
 20
-33.44999858736992
 30
0.0
 11
-65.79999826848507
 21
-33.37999858751893
 31
0.0
  0
LINE
  5
3D6
330
1F
100
AcDbEntity
  8
16
  6
Continuous
 62
     3
370
    25
100
AcDbLine
 10
-65.79999826848507
 20
-33.37999858751893
 30
0.0
 11
-65.29999826103449
 21
-33.37999858751893
 31
0.0
  0
LINE
  5
3D7
330
1F
100
AcDbEntity
  8
16
  6
Continuous
 62
     3
370
    25
100
AcDbLine
 10
-65.29999826103449
 20
-33.37999858751893
 30
0.0
 11
-65.29999826103449
 21
-33.44999858736992
 31
0.0
  0
LINE
  5
3D8
330
1F
100
AcDbEntity
  8
16
  6
Continuous
 62
     3
370
    25
100
AcDbLine
 10
-62.79999822378158
 20
-33.44999858736992
 30
0.0
 11
-62.79999822378158
 21
-34.04999859631062
 31
0.0
  0
LINE
  5
3D9
330
1F
100
AcDbEntity
  8
16
  6
Continuous
 62
     3
370
    25
100
AcDbLine
 10
-62.79999822378158
 20
-34.04999859631062
 30
0.0
 11
-62.69999822229147
 21
-34.24999859929085
 31
0.0
  0
LINE
  5
3DA
330
1F
100
AcDbEntity
  8
16
  6
Continuous
 62
     3
370
    25
100
AcDbLine
 10
-62.69999822229147
 20
-34.24999859929085
 30
0.0
 11
-62.69999822229147
 21
-35.14999861270189
 31
0.0
  0
LINE
  5
3DB
330
1F
100
AcDbEntity
  8
16
  6
Continuous
 62
     3
370
    25
100
AcDbLine
 10
-62.69999822229147
 20
-35.14999861270189
 30
0.0
 11
-62.79999822378158
 21
-35.34999861568212
 31
0.0
  0
LINE
  5
3DC
330
1F
100
AcDbEntity
  8
16
  6
Continuous
 62
     3
370
    25
100
AcDbLine
 10
-62.79999822378158
 20
-35.34999861568212
 30
0.0
 11
-62.79999822378158
 21
-35.94999862462282
 31
0.0
  0
LINE
  5
3DD
330
1F
100
AcDbEntity
  8
16
  6
Continuous
 62
     3
370
    25
100
AcDbLine
 10
-62.79999822378158
 20
-35.94999862462282
 30
0.0
 11
-62.299998216331
 21
-35.94999862462282
 31
0.0
  0
LINE
  5
3DE
330
1F
100
AcDbEntity
  8
16
  6
Continuous
 62
     3
370
    25
100
AcDbLine
 10
-62.299998216331
 20
-35.94999862462282
 30
0.0
 11
-62.299998216331
 21
-35.34999861568212
 31
0.0
  0
LINE
  5
3DF
330
1F
100
AcDbEntity
  8
16
  6
Continuous
 62
     3
370
    25
100
AcDbLine
 10
-62.299998216331
 20
-35.34999861568212
 30
0.0
 11
-62.39999821782112
 21
-35.14999861270189
 31
0.0
  0
LINE
  5
3E0
330
1F
100
AcDbEntity
  8
16
  6
Continuous
 62
     3
370
    25
100
AcDbLine
 10
-62.39999821782112
 20
-35.14999861270189
 30
0.0
 11
-62.39999821782112
 21
-34.24999859929085
 31
0.0
  0
LINE
  5
3E1
330
1F
100
AcDbEntity
  8
16
  6
Continuous
 62
     3
370
    25
100
AcDbLine
 10
-62.39999821782112
 20
-34.24999859929085
 30
0.0
 11
-62.299998216331
 21
-34.04999859631062
 31
0.0
  0
LINE
  5
3E2
330
1F
100
AcDbEntity
  8
16
  6
Continuous
 62
     3
370
    25
100
AcDbLine
 10
-62.299998216331
 20
-34.04999859631062
 30
0.0
 11
-62.299998216331
 21
-33.44999858736992
 31
0.0
  0
LINE
  5
3E3
330
1F
100
AcDbEntity
  8
16
  6
Continuous
 62
     3
370
    25
100
AcDbLine
 10
-62.299998216331
 20
-33.44999858736992
 30
0.0
 11
-62.79999822378158
 21
-33.44999858736992
 31
0.0
  0
LINE
  5
3E4
330
1F
100
AcDbEntity
  8
16
  6
Continuous
 62
     3
370
    25
100
AcDbLine
 10
-62.79999822378158
 20
-33.44999858736992
 30
0.0
 11
-62.79999822378158
 21
-33.37999858751893
 31
0.0
  0
LINE
  5
3E5
330
1F
100
AcDbEntity
  8
16
  6
Continuous
 62
     3
370
    25
100
AcDbLine
 10
-62.79999822378158
 20
-33.37999858751893
 30
0.0
 11
-62.299998216331
 21
-33.37999858751893
 31
0.0
  0
LINE
  5
3E6
330
1F
100
AcDbEntity
  8
16
  6
Continuous
 62
     3
370
    25
100
AcDbLine
 10
-62.299998216331
 20
-33.37999858751893
 30
0.0
 11
-62.299998216331
 21
-33.44999858736992
 31
0.0
  0
LINE
  5
3E7
330
1F
100
AcDbEntity
  8
16
  6
Continuous
 62
     3
370
    25
100
AcDbLine
 10
-59.7999981790781
 20
-33.44999858736992
 30
0.0
 11
-59.7999981790781
 21
-34.04999859631062
 31
0.0
  0
LINE
  5
3E8
330
1F
100
AcDbEntity
  8
16
  6
Continuous
 62
     3
370
    25
100
AcDbLine
 10
-59.7999981790781
 20
-34.04999859631062
 30
0.0
 11
-59.699998177588
 21
-34.24999859929085
 31
0.0
  0
LINE
  5
3E9
330
1F
100
AcDbEntity
  8
16
  6
Continuous
 62
     3
370
    25
100
AcDbLine
 10
-59.699998177588
 20
-34.24999859929085
 30
0.0
 11
-59.699998177588
 21
-35.14999861270189
 31
0.0
  0
LINE
  5
3EA
330
1F
100
AcDbEntity
  8
16
  6
Continuous
 62
     3
370
    25
100
AcDbLine
 10
-59.699998177588
 20
-35.14999861270189
 30
0.0
 11
-59.7999981790781
 21
-35.34999861568212
 31
0.0
  0
LINE
  5
3EB
330
1F
100
AcDbEntity
  8
16
  6
Continuous
 62
     3
370
    25
100
AcDbLine
 10
-59.7999981790781
 20
-35.34999861568212
 30
0.0
 11
-59.7999981790781
 21
-35.94999862462282
 31
0.0
  0
LINE
  5
3EC
330
1F
100
AcDbEntity
  8
16
  6
Continuous
 62
     3
370
    25
100
AcDbLine
 10
-59.7999981790781
 20
-35.94999862462282
 30
0.0
 11
-59.29999817162752
 21
-35.94999862462282
 31
0.0
  0
LINE
  5
3ED
330
1F
100
AcDbEntity
  8
16
  6
Continuous
 62
     3
370
    25
100
AcDbLine
 10
-59.29999817162752
 20
-35.94999862462282
 30
0.0
 11
-59.29999817162752
 21
-35.34999861568212
 31
0.0
  0
LINE
  5
3EE
330
1F
100
AcDbEntity
  8
16
  6
Continuous
 62
     3
370
    25
100
AcDbLine
 10
-59.29999817162752
 20
-35.34999861568212
 30
0.0
 11
-59.39999817311764
 21
-35.14999861270189
 31
0.0
  0
LINE
  5
3EF
330
1F
100
AcDbEntity
  8
16
  6
Continuous
 62
     3
370
    25
100
AcDbLine
 10
-59.39999817311764
 20
-35.14999861270189
 30
0.0
 11
-59.39999817311764
 21
-34.24999859929085
 31
0.0
  0
LINE
  5
3F0
330
1F
100
AcDbEntity
  8
16
  6
Continuous
 62
     3
370
    25
100
AcDbLine
 10
-59.39999817311764
 20
-34.24999859929085
 30
0.0
 11
-59.29999817162752
 21
-34.04999859631062
 31
0.0
  0
LINE
  5
3F1
330
1F
100
AcDbEntity
  8
16
  6
Continuous
 62
     3
370
    25
100
AcDbLine
 10
-59.29999817162752
 20
-34.04999859631062
 30
0.0
 11
-59.29999817162752
 21
-33.44999858736992
 31
0.0
  0
LINE
  5
3F2
330
1F
100
AcDbEntity
  8
16
  6
Continuous
 62
     3
370
    25
100
AcDbLine
 10
-59.29999817162752
 20
-33.44999858736992
 30
0.0
 11
-59.7999981790781
 21
-33.44999858736992
 31
0.0
  0
LINE
  5
3F3
330
1F
100
AcDbEntity
  8
16
  6
Continuous
 62
     3
370
    25
100
AcDbLine
 10
-59.7999981790781
 20
-33.44999858736992
 30
0.0
 11
-59.7999981790781
 21
-33.37999858751893
 31
0.0
  0
LINE
  5
3F4
330
1F
100
AcDbEntity
  8
16
  6
Continuous
 62
     3
370
    25
100
AcDbLine
 10
-59.7999981790781
 20
-33.37999858751893
 30
0.0
 11
-59.29999817162752
 21
-33.37999858751893
 31
0.0
  0
LINE
  5
3F5
330
1F
100
AcDbEntity
  8
16
  6
Continuous
 62
     3
370
    25
100
AcDbLine
 10
-59.29999817162752
 20
-33.37999858751893
 30
0.0
 11
-59.29999817162752
 21
-33.44999858736992
 31
0.0
  0
LINE
  5
3F6
330
1F
100
AcDbEntity
  8
16
  6
Continuous
 62
     3
370
    25
100
AcDbLine
 10
-56.79999813437462
 20
-33.44999858736992
 30
0.0
 11
-56.79999813437462
 21
-34.04999859631062
 31
0.0
  0
LINE
  5
3F7
330
1F
100
AcDbEntity
  8
16
  6
Continuous
 62
     3
370
    25
100
AcDbLine
 10
-56.79999813437462
 20
-34.04999859631062
 30
0.0
 11
-56.6999981328845
 21
-34.24999859929085
 31
0.0
  0
LINE
  5
3F8
330
1F
100
AcDbEntity
  8
16
  6
Continuous
 62
     3
370
    25
100
AcDbLine
 10
-56.6999981328845
 20
-34.24999859929085
 30
0.0
 11
-56.6999981328845
 21
-35.14999861270189
 31
0.0
  0
LINE
  5
3F9
330
1F
100
AcDbEntity
  8
16
  6
Continuous
 62
     3
370
    25
100
AcDbLine
 10
-56.6999981328845
 20
-35.14999861270189
 30
0.0
 11
-56.79999813437462
 21
-35.34999861568212
 31
0.0
  0
LINE
  5
3FA
330
1F
100
AcDbEntity
  8
16
  6
Continuous
 62
     3
370
    25
100
AcDbLine
 10
-56.79999813437462
 20
-35.34999861568212
 30
0.0
 11
-56.79999813437462
 21
-35.94999862462282
 31
0.0
  0
LINE
  5
3FB
330
1F
100
AcDbEntity
  8
16
  6
Continuous
 62
     3
370
    25
100
AcDbLine
 10
-56.79999813437462
 20
-35.94999862462282
 30
0.0
 11
-56.29999812692404
 21
-35.94999862462282
 31
0.0
  0
LINE
  5
3FC
330
1F
100
AcDbEntity
  8
16
  6
Continuous
 62
     3
370
    25
100
AcDbLine
 10
-56.29999812692404
 20
-35.94999862462282
 30
0.0
 11
-56.29999812692404
 21
-35.34999861568212
 31
0.0
  0
LINE
  5
3FD
330
1F
100
AcDbEntity
  8
16
  6
Continuous
 62
     3
370
    25
100
AcDbLine
 10
-56.29999812692404
 20
-35.34999861568212
 30
0.0
 11
-56.39999812841415
 21
-35.14999861270189
 31
0.0
  0
LINE
  5
3FE
330
1F
100
AcDbEntity
  8
16
  6
Continuous
 62
     3
370
    25
100
AcDbLine
 10
-56.39999812841415
 20
-35.14999861270189
 30
0.0
 11
-56.39999812841415
 21
-34.24999859929085
 31
0.0
  0
LINE
  5
3FF
330
1F
100
AcDbEntity
  8
16
  6
Continuous
 62
     3
370
    25
100
AcDbLine
 10
-56.39999812841415
 20
-34.24999859929085
 30
0.0
 11
-56.29999812692404
 21
-34.04999859631062
 31
0.0
  0
LINE
  5
400
330
1F
100
AcDbEntity
  8
16
  6
Continuous
 62
     3
370
    25
100
AcDbLine
 10
-56.29999812692404
 20
-34.04999859631062
 30
0.0
 11
-56.29999812692404
 21
-33.44999858736992
 31
0.0
  0
LINE
  5
401
330
1F
100
AcDbEntity
  8
16
  6
Continuous
 62
     3
370
    25
100
AcDbLine
 10
-56.29999812692404
 20
-33.44999858736992
 30
0.0
 11
-56.79999813437462
 21
-33.44999858736992
 31
0.0
  0
LINE
  5
402
330
1F
100
AcDbEntity
  8
16
  6
Continuous
 62
     3
370
    25
100
AcDbLine
 10
-56.79999813437462
 20
-33.44999858736992
 30
0.0
 11
-56.79999813437462
 21
-33.37999858751893
 31
0.0
  0
LINE
  5
403
330
1F
100
AcDbEntity
  8
16
  6
Continuous
 62
     3
370
    25
100
AcDbLine
 10
-56.79999813437462
 20
-33.37999858751893
 30
0.0
 11
-56.29999812692404
 21
-33.37999858751893
 31
0.0
  0
LINE
  5
404
330
1F
100
AcDbEntity
  8
16
  6
Continuous
 62
     3
370
    25
100
AcDbLine
 10
-56.29999812692404
 20
-33.37999858751893
 30
0.0
 11
-56.29999812692404
 21
-33.44999858736992
 31
0.0
  0
LINE
  5
405
330
1F
100
AcDbEntity
  8
16
  6
Continuous
 62
     3
370
    25
100
AcDbLine
 10
-53.79999808967113
 20
-33.44999858736992
 30
0.0
 11
-53.79999808967113
 21
-34.04999859631062
 31
0.0
  0
LINE
  5
406
330
1F
100
AcDbEntity
  8
16
  6
Continuous
 62
     3
370
    25
100
AcDbLine
 10
-53.79999808967113
 20
-34.04999859631062
 30
0.0
 11
-53.69999808818102
 21
-34.24999859929085
 31
0.0
  0
LINE
  5
407
330
1F
100
AcDbEntity
  8
16
  6
Continuous
 62
     3
370
    25
100
AcDbLine
 10
-53.69999808818102
 20
-34.24999859929085
 30
0.0
 11
-53.69999808818102
 21
-35.14999861270189
 31
0.0
  0
LINE
  5
408
330
1F
100
AcDbEntity
  8
16
  6
Continuous
 62
     3
370
    25
100
AcDbLine
 10
-53.69999808818102
 20
-35.14999861270189
 30
0.0
 11
-53.79999808967113
 21
-35.34999861568212
 31
0.0
  0
LINE
  5
409
330
1F
100
AcDbEntity
  8
16
  6
Continuous
 62
     3
370
    25
100
AcDbLine
 10
-53.79999808967113
 20
-35.34999861568212
 30
0.0
 11
-53.79999808967113
 21
-35.94999862462282
 31
0.0
  0
LINE
  5
40A
330
1F
100
AcDbEntity
  8
16
  6
Continuous
 62
     3
370
    25
100
AcDbLine
 10
-53.79999808967113
 20
-35.94999862462282
 30
0.0
 11
-53.29999808222055
 21
-35.94999862462282
 31
0.0
  0
LINE
  5
40B
330
1F
100
AcDbEntity
  8
16
  6
Continuous
 62
     3
370
    25
100
AcDbLine
 10
-53.29999808222055
 20
-35.94999862462282
 30
0.0
 11
-53.29999808222055
 21
-35.34999861568212
 31
0.0
  0
LINE
  5
40C
330
1F
100
AcDbEntity
  8
16
  6
Continuous
 62
     3
370
    25
100
AcDbLine
 10
-53.29999808222055
 20
-35.34999861568212
 30
0.0
 11
-53.39999808371067
 21
-35.14999861270189
 31
0.0
  0
LINE
  5
40D
330
1F
100
AcDbEntity
  8
16
  6
Continuous
 62
     3
370
    25
100
AcDbLine
 10
-53.39999808371067
 20
-35.14999861270189
 30
0.0
 11
-53.39999808371067
 21
-34.24999859929085
 31
0.0
  0
LINE
  5
40E
330
1F
100
AcDbEntity
  8
16
  6
Continuous
 62
     3
370
    25
100
AcDbLine
 10
-53.39999808371067
 20
-34.24999859929085
 30
0.0
 11
-53.29999808222055
 21
-34.04999859631062
 31
0.0
  0
LINE
  5
40F
330
1F
100
AcDbEntity
  8
16
  6
Continuous
 62
     3
370
    25
100
AcDbLine
 10
-53.29999808222055
 20
-34.04999859631062
 30
0.0
 11
-53.29999808222055
 21
-33.44999858736992
 31
0.0
  0
LINE
  5
410
330
1F
100
AcDbEntity
  8
16
  6
Continuous
 62
     3
370
    25
100
AcDbLine
 10
-53.29999808222055
 20
-33.44999858736992
 30
0.0
 11
-53.79999808967113
 21
-33.44999858736992
 31
0.0
  0
LINE
  5
411
330
1F
100
AcDbEntity
  8
16
  6
Continuous
 62
     3
370
    25
100
AcDbLine
 10
-53.79999808967113
 20
-33.44999858736992
 30
0.0
 11
-53.79999808967113
 21
-33.37999858751893
 31
0.0
  0
LINE
  5
412
330
1F
100
AcDbEntity
  8
16
  6
Continuous
 62
     3
370
    25
100
AcDbLine
 10
-53.79999808967113
 20
-33.37999858751893
 30
0.0
 11
-53.29999808222055
 21
-33.37999858751893
 31
0.0
  0
LINE
  5
413
330
1F
100
AcDbEntity
  8
16
  6
Continuous
 62
     3
370
    25
100
AcDbLine
 10
-53.29999808222055
 20
-33.37999858751893
 30
0.0
 11
-53.29999808222055
 21
-33.44999858736992
 31
0.0
  0
LINE
  5
414
330
1F
100
AcDbEntity
  8
16
  6
Continuous
 62
     3
370
    25
100
AcDbLine
 10
-50.79999804496765
 20
-33.44999858736992
 30
0.0
 11
-50.79999804496765
 21
-34.04999859631062
 31
0.0
  0
LINE
  5
415
330
1F
100
AcDbEntity
  8
16
  6
Continuous
 62
     3
370
    25
100
AcDbLine
 10
-50.79999804496765
 20
-34.04999859631062
 30
0.0
 11
-50.69999804347754
 21
-34.24999859929085
 31
0.0
  0
LINE
  5
416
330
1F
100
AcDbEntity
  8
16
  6
Continuous
 62
     3
370
    25
100
AcDbLine
 10
-50.69999804347754
 20
-34.24999859929085
 30
0.0
 11
-50.69999804347754
 21
-35.14999861270189
 31
0.0
  0
LINE
  5
417
330
1F
100
AcDbEntity
  8
16
  6
Continuous
 62
     3
370
    25
100
AcDbLine
 10
-50.69999804347754
 20
-35.14999861270189
 30
0.0
 11
-50.79999804496765
 21
-35.34999861568212
 31
0.0
  0
LINE
  5
418
330
1F
100
AcDbEntity
  8
16
  6
Continuous
 62
     3
370
    25
100
AcDbLine
 10
-50.79999804496765
 20
-35.34999861568212
 30
0.0
 11
-50.79999804496765
 21
-35.94999862462282
 31
0.0
  0
LINE
  5
419
330
1F
100
AcDbEntity
  8
16
  6
Continuous
 62
     3
370
    25
100
AcDbLine
 10
-50.79999804496765
 20
-35.94999862462282
 30
0.0
 11
-50.29999803751707
 21
-35.94999862462282
 31
0.0
  0
LINE
  5
41A
330
1F
100
AcDbEntity
  8
16
  6
Continuous
 62
     3
370
    25
100
AcDbLine
 10
-50.29999803751707
 20
-35.94999862462282
 30
0.0
 11
-50.29999803751707
 21
-35.34999861568212
 31
0.0
  0
LINE
  5
41B
330
1F
100
AcDbEntity
  8
16
  6
Continuous
 62
     3
370
    25
100
AcDbLine
 10
-50.29999803751707
 20
-35.34999861568212
 30
0.0
 11
-50.39999803900719
 21
-35.14999861270189
 31
0.0
  0
LINE
  5
41C
330
1F
100
AcDbEntity
  8
16
  6
Continuous
 62
     3
370
    25
100
AcDbLine
 10
-50.39999803900719
 20
-35.14999861270189
 30
0.0
 11
-50.39999803900719
 21
-34.24999859929085
 31
0.0
  0
LINE
  5
41D
330
1F
100
AcDbEntity
  8
16
  6
Continuous
 62
     3
370
    25
100
AcDbLine
 10
-50.39999803900719
 20
-34.24999859929085
 30
0.0
 11
-50.29999803751707
 21
-34.04999859631062
 31
0.0
  0
LINE
  5
41E
330
1F
100
AcDbEntity
  8
16
  6
Continuous
 62
     3
370
    25
100
AcDbLine
 10
-50.29999803751707
 20
-34.04999859631062
 30
0.0
 11
-50.29999803751707
 21
-33.44999858736992
 31
0.0
  0
LINE
  5
41F
330
1F
100
AcDbEntity
  8
16
  6
Continuous
 62
     3
370
    25
100
AcDbLine
 10
-50.29999803751707
 20
-33.44999858736992
 30
0.0
 11
-50.79999804496765
 21
-33.44999858736992
 31
0.0
  0
LINE
  5
420
330
1F
100
AcDbEntity
  8
16
  6
Continuous
 62
     3
370
    25
100
AcDbLine
 10
-50.79999804496765
 20
-33.44999858736992
 30
0.0
 11
-50.79999804496765
 21
-33.37999858751893
 31
0.0
  0
LINE
  5
421
330
1F
100
AcDbEntity
  8
16
  6
Continuous
 62
     3
370
    25
100
AcDbLine
 10
-50.79999804496765
 20
-33.37999858751893
 30
0.0
 11
-50.29999803751707
 21
-33.37999858751893
 31
0.0
  0
LINE
  5
422
330
1F
100
AcDbEntity
  8
16
  6
Continuous
 62
     3
370
    25
100
AcDbLine
 10
-50.29999803751707
 20
-33.37999858751893
 30
0.0
 11
-50.29999803751707
 21
-33.44999858736992
 31
0.0
  0
LINE
  5
423
330
1F
100
AcDbEntity
  8
16
  6
Continuous
 62
     3
370
    25
100
AcDbLine
 10
-47.79999800026417
 20
-33.44999858736992
 30
0.0
 11
-47.79999800026417
 21
-34.04999859631062
 31
0.0
  0
LINE
  5
424
330
1F
100
AcDbEntity
  8
16
  6
Continuous
 62
     3
370
    25
100
AcDbLine
 10
-47.79999800026417
 20
-34.04999859631062
 30
0.0
 11
-47.69999799877405
 21
-34.24999859929085
 31
0.0
  0
LINE
  5
425
330
1F
100
AcDbEntity
  8
16
  6
Continuous
 62
     3
370
    25
100
AcDbLine
 10
-47.69999799877405
 20
-34.24999859929085
 30
0.0
 11
-47.69999799877405
 21
-35.14999861270189
 31
0.0
  0
LINE
  5
426
330
1F
100
AcDbEntity
  8
16
  6
Continuous
 62
     3
370
    25
100
AcDbLine
 10
-47.69999799877405
 20
-35.14999861270189
 30
0.0
 11
-47.79999800026417
 21
-35.34999861568212
 31
0.0
  0
LINE
  5
427
330
1F
100
AcDbEntity
  8
16
  6
Continuous
 62
     3
370
    25
100
AcDbLine
 10
-47.79999800026417
 20
-35.34999861568212
 30
0.0
 11
-47.79999800026417
 21
-35.94999862462282
 31
0.0
  0
LINE
  5
428
330
1F
100
AcDbEntity
  8
16
  6
Continuous
 62
     3
370
    25
100
AcDbLine
 10
-47.79999800026417
 20
-35.94999862462282
 30
0.0
 11
-47.29999799281359
 21
-35.94999862462282
 31
0.0
  0
LINE
  5
429
330
1F
100
AcDbEntity
  8
16
  6
Continuous
 62
     3
370
    25
100
AcDbLine
 10
-47.29999799281359
 20
-35.94999862462282
 30
0.0
 11
-47.29999799281359
 21
-35.34999861568212
 31
0.0
  0
LINE
  5
42A
330
1F
100
AcDbEntity
  8
16
  6
Continuous
 62
     3
370
    25
100
AcDbLine
 10
-47.29999799281359
 20
-35.34999861568212
 30
0.0
 11
-47.3999979943037
 21
-35.14999861270189
 31
0.0
  0
LINE
  5
42B
330
1F
100
AcDbEntity
  8
16
  6
Continuous
 62
     3
370
    25
100
AcDbLine
 10
-47.3999979943037
 20
-35.14999861270189
 30
0.0
 11
-47.3999979943037
 21
-34.24999859929085
 31
0.0
  0
LINE
  5
42C
330
1F
100
AcDbEntity
  8
16
  6
Continuous
 62
     3
370
    25
100
AcDbLine
 10
-47.3999979943037
 20
-34.24999859929085
 30
0.0
 11
-47.29999799281359
 21
-34.04999859631062
 31
0.0
  0
LINE
  5
42D
330
1F
100
AcDbEntity
  8
16
  6
Continuous
 62
     3
370
    25
100
AcDbLine
 10
-47.29999799281359
 20
-34.04999859631062
 30
0.0
 11
-47.29999799281359
 21
-33.44999858736992
 31
0.0
  0
LINE
  5
42E
330
1F
100
AcDbEntity
  8
16
  6
Continuous
 62
     3
370
    25
100
AcDbLine
 10
-47.29999799281359
 20
-33.44999858736992
 30
0.0
 11
-47.79999800026417
 21
-33.44999858736992
 31
0.0
  0
LINE
  5
42F
330
1F
100
AcDbEntity
  8
16
  6
Continuous
 62
     3
370
    25
100
AcDbLine
 10
-47.79999800026417
 20
-33.44999858736992
 30
0.0
 11
-47.79999800026417
 21
-33.37999858751893
 31
0.0
  0
LINE
  5
430
330
1F
100
AcDbEntity
  8
16
  6
Continuous
 62
     3
370
    25
100
AcDbLine
 10
-47.79999800026417
 20
-33.37999858751893
 30
0.0
 11
-47.29999799281359
 21
-33.37999858751893
 31
0.0
  0
LINE
  5
431
330
1F
100
AcDbEntity
  8
16
  6
Continuous
 62
     3
370
    25
100
AcDbLine
 10
-47.29999799281359
 20
-33.37999858751893
 30
0.0
 11
-47.29999799281359
 21
-33.44999858736992
 31
0.0
  0
LINE
  5
432
330
1F
100
AcDbEntity
  8
16
  6
Continuous
 62
     3
370
    25
100
AcDbLine
 10
-44.79999795556068
 20
-33.44999858736992
 30
0.0
 11
-44.79999795556068
 21
-34.04999859631062
 31
0.0
  0
LINE
  5
433
330
1F
100
AcDbEntity
  8
16
  6
Continuous
 62
     3
370
    25
100
AcDbLine
 10
-44.79999795556068
 20
-34.04999859631062
 30
0.0
 11
-44.69999795407057
 21
-34.24999859929085
 31
0.0
  0
LINE
  5
434
330
1F
100
AcDbEntity
  8
16
  6
Continuous
 62
     3
370
    25
100
AcDbLine
 10
-44.69999795407057
 20
-34.24999859929085
 30
0.0
 11
-44.69999795407057
 21
-35.14999861270189
 31
0.0
  0
LINE
  5
435
330
1F
100
AcDbEntity
  8
16
  6
Continuous
 62
     3
370
    25
100
AcDbLine
 10
-44.69999795407057
 20
-35.14999861270189
 30
0.0
 11
-44.79999795556068
 21
-35.34999861568212
 31
0.0
  0
LINE
  5
436
330
1F
100
AcDbEntity
  8
16
  6
Continuous
 62
     3
370
    25
100
AcDbLine
 10
-44.79999795556068
 20
-35.34999861568212
 30
0.0
 11
-44.79999795556068
 21
-35.94999862462282
 31
0.0
  0
LINE
  5
437
330
1F
100
AcDbEntity
  8
16
  6
Continuous
 62
     3
370
    25
100
AcDbLine
 10
-44.79999795556068
 20
-35.94999862462282
 30
0.0
 11
-44.2999979481101
 21
-35.94999862462282
 31
0.0
  0
LINE
  5
438
330
1F
100
AcDbEntity
  8
16
  6
Continuous
 62
     3
370
    25
100
AcDbLine
 10
-44.2999979481101
 20
-35.94999862462282
 30
0.0
 11
-44.2999979481101
 21
-35.34999861568212
 31
0.0
  0
LINE
  5
439
330
1F
100
AcDbEntity
  8
16
  6
Continuous
 62
     3
370
    25
100
AcDbLine
 10
-44.2999979481101
 20
-35.34999861568212
 30
0.0
 11
-44.39999794960022
 21
-35.14999861270189
 31
0.0
  0
LINE
  5
43A
330
1F
100
AcDbEntity
  8
16
  6
Continuous
 62
     3
370
    25
100
AcDbLine
 10
-44.39999794960022
 20
-35.14999861270189
 30
0.0
 11
-44.39999794960022
 21
-34.24999859929085
 31
0.0
  0
LINE
  5
43B
330
1F
100
AcDbEntity
  8
16
  6
Continuous
 62
     3
370
    25
100
AcDbLine
 10
-44.39999794960022
 20
-34.24999859929085
 30
0.0
 11
-44.2999979481101
 21
-34.04999859631062
 31
0.0
  0
LINE
  5
43C
330
1F
100
AcDbEntity
  8
16
  6
Continuous
 62
     3
370
    25
100
AcDbLine
 10
-44.2999979481101
 20
-34.04999859631062
 30
0.0
 11
-44.2999979481101
 21
-33.44999858736992
 31
0.0
  0
LINE
  5
43D
330
1F
100
AcDbEntity
  8
16
  6
Continuous
 62
     3
370
    25
100
AcDbLine
 10
-44.2999979481101
 20
-33.44999858736992
 30
0.0
 11
-44.79999795556068
 21
-33.44999858736992
 31
0.0
  0
LINE
  5
43E
330
1F
100
AcDbEntity
  8
16
  6
Continuous
 62
     3
370
    25
100
AcDbLine
 10
-44.79999795556068
 20
-33.44999858736992
 30
0.0
 11
-44.79999795556068
 21
-33.37999858751893
 31
0.0
  0
LINE
  5
43F
330
1F
100
AcDbEntity
  8
16
  6
Continuous
 62
     3
370
    25
100
AcDbLine
 10
-44.79999795556068
 20
-33.37999858751893
 30
0.0
 11
-44.2999979481101
 21
-33.37999858751893
 31
0.0
  0
LINE
  5
440
330
1F
100
AcDbEntity
  8
16
  6
Continuous
 62
     3
370
    25
100
AcDbLine
 10
-44.2999979481101
 20
-33.37999858751893
 30
0.0
 11
-44.2999979481101
 21
-33.44999858736992
 31
0.0
  0
LINE
  5
441
330
1F
100
AcDbEntity
  8
16
  6
Continuous
 62
     3
370
    25
100
AcDbLine
 10
-41.7999979108572
 20
-33.44999858736992
 30
0.0
 11
-41.7999979108572
 21
-34.04999859631062
 31
0.0
  0
LINE
  5
442
330
1F
100
AcDbEntity
  8
16
  6
Continuous
 62
     3
370
    25
100
AcDbLine
 10
-41.7999979108572
 20
-34.04999859631062
 30
0.0
 11
-41.69999790936708
 21
-34.24999859929085
 31
0.0
  0
LINE
  5
443
330
1F
100
AcDbEntity
  8
16
  6
Continuous
 62
     3
370
    25
100
AcDbLine
 10
-41.69999790936708
 20
-34.24999859929085
 30
0.0
 11
-41.69999790936708
 21
-35.14999861270189
 31
0.0
  0
LINE
  5
444
330
1F
100
AcDbEntity
  8
16
  6
Continuous
 62
     3
370
    25
100
AcDbLine
 10
-41.69999790936708
 20
-35.14999861270189
 30
0.0
 11
-41.7999979108572
 21
-35.34999861568212
 31
0.0
  0
LINE
  5
445
330
1F
100
AcDbEntity
  8
16
  6
Continuous
 62
     3
370
    25
100
AcDbLine
 10
-41.7999979108572
 20
-35.34999861568212
 30
0.0
 11
-41.7999979108572
 21
-35.94999862462282
 31
0.0
  0
LINE
  5
446
330
1F
100
AcDbEntity
  8
16
  6
Continuous
 62
     3
370
    25
100
AcDbLine
 10
-41.7999979108572
 20
-35.94999862462282
 30
0.0
 11
-41.29999790340662
 21
-35.94999862462282
 31
0.0
  0
LINE
  5
447
330
1F
100
AcDbEntity
  8
16
  6
Continuous
 62
     3
370
    25
100
AcDbLine
 10
-41.29999790340662
 20
-35.94999862462282
 30
0.0
 11
-41.29999790340662
 21
-35.34999861568212
 31
0.0
  0
LINE
  5
448
330
1F
100
AcDbEntity
  8
16
  6
Continuous
 62
     3
370
    25
100
AcDbLine
 10
-41.29999790340662
 20
-35.34999861568212
 30
0.0
 11
-41.39999790489674
 21
-35.14999861270189
 31
0.0
  0
LINE
  5
449
330
1F
100
AcDbEntity
  8
16
  6
Continuous
 62
     3
370
    25
100
AcDbLine
 10
-41.39999790489674
 20
-35.14999861270189
 30
0.0
 11
-41.39999790489674
 21
-34.24999859929085
 31
0.0
  0
LINE
  5
44A
330
1F
100
AcDbEntity
  8
16
  6
Continuous
 62
     3
370
    25
100
AcDbLine
 10
-41.39999790489674
 20
-34.24999859929085
 30
0.0
 11
-41.29999790340662
 21
-34.04999859631062
 31
0.0
  0
LINE
  5
44B
330
1F
100
AcDbEntity
  8
16
  6
Continuous
 62
     3
370
    25
100
AcDbLine
 10
-41.29999790340662
 20
-34.04999859631062
 30
0.0
 11
-41.29999790340662
 21
-33.44999858736992
 31
0.0
  0
LINE
  5
44C
330
1F
100
AcDbEntity
  8
16
  6
Continuous
 62
     3
370
    25
100
AcDbLine
 10
-41.29999790340662
 20
-33.44999858736992
 30
0.0
 11
-41.7999979108572
 21
-33.44999858736992
 31
0.0
  0
LINE
  5
44D
330
1F
100
AcDbEntity
  8
16
  6
Continuous
 62
     3
370
    25
100
AcDbLine
 10
-41.7999979108572
 20
-33.44999858736992
 30
0.0
 11
-41.7999979108572
 21
-33.37999858751893
 31
0.0
  0
LINE
  5
44E
330
1F
100
AcDbEntity
  8
16
  6
Continuous
 62
     3
370
    25
100
AcDbLine
 10
-41.7999979108572
 20
-33.37999858751893
 30
0.0
 11
-41.29999790340662
 21
-33.37999858751893
 31
0.0
  0
LINE
  5
44F
330
1F
100
AcDbEntity
  8
16
  6
Continuous
 62
     3
370
    25
100
AcDbLine
 10
-41.29999790340662
 20
-33.37999858751893
 30
0.0
 11
-41.29999790340662
 21
-33.44999858736992
 31
0.0
  0
LINE
  5
450
330
1F
100
AcDbEntity
  8
16
  6
Continuous
 62
     3
370
    25
100
AcDbLine
 10
-38.79999786615372
 20
-33.44999858736992
 30
0.0
 11
-38.79999786615372
 21
-34.04999859631062
 31
0.0
  0
LINE
  5
451
330
1F
100
AcDbEntity
  8
16
  6
Continuous
 62
     3
370
    25
100
AcDbLine
 10
-38.79999786615372
 20
-34.04999859631062
 30
0.0
 11
-38.6999978646636
 21
-34.24999859929085
 31
0.0
  0
LINE
  5
452
330
1F
100
AcDbEntity
  8
16
  6
Continuous
 62
     3
370
    25
100
AcDbLine
 10
-38.6999978646636
 20
-34.24999859929085
 30
0.0
 11
-38.6999978646636
 21
-35.14999861270189
 31
0.0
  0
LINE
  5
453
330
1F
100
AcDbEntity
  8
16
  6
Continuous
 62
     3
370
    25
100
AcDbLine
 10
-38.6999978646636
 20
-35.14999861270189
 30
0.0
 11
-38.79999786615372
 21
-35.34999861568212
 31
0.0
  0
LINE
  5
454
330
1F
100
AcDbEntity
  8
16
  6
Continuous
 62
     3
370
    25
100
AcDbLine
 10
-38.79999786615372
 20
-35.34999861568212
 30
0.0
 11
-38.79999786615372
 21
-35.94999862462282
 31
0.0
  0
LINE
  5
455
330
1F
100
AcDbEntity
  8
16
  6
Continuous
 62
     3
370
    25
100
AcDbLine
 10
-38.79999786615372
 20
-35.94999862462282
 30
0.0
 11
-38.29999785870314
 21
-35.94999862462282
 31
0.0
  0
LINE
  5
456
330
1F
100
AcDbEntity
  8
16
  6
Continuous
 62
     3
370
    25
100
AcDbLine
 10
-38.29999785870314
 20
-35.94999862462282
 30
0.0
 11
-38.29999785870314
 21
-35.34999861568212
 31
0.0
  0
LINE
  5
457
330
1F
100
AcDbEntity
  8
16
  6
Continuous
 62
     3
370
    25
100
AcDbLine
 10
-38.29999785870314
 20
-35.34999861568212
 30
0.0
 11
-38.39999786019325
 21
-35.14999861270189
 31
0.0
  0
LINE
  5
458
330
1F
100
AcDbEntity
  8
16
  6
Continuous
 62
     3
370
    25
100
AcDbLine
 10
-38.39999786019325
 20
-35.14999861270189
 30
0.0
 11
-38.39999786019325
 21
-34.24999859929085
 31
0.0
  0
LINE
  5
459
330
1F
100
AcDbEntity
  8
16
  6
Continuous
 62
     3
370
    25
100
AcDbLine
 10
-38.39999786019325
 20
-34.24999859929085
 30
0.0
 11
-38.29999785870314
 21
-34.04999859631062
 31
0.0
  0
LINE
  5
45A
330
1F
100
AcDbEntity
  8
16
  6
Continuous
 62
     3
370
    25
100
AcDbLine
 10
-38.29999785870314
 20
-34.04999859631062
 30
0.0
 11
-38.29999785870314
 21
-33.44999858736992
 31
0.0
  0
LINE
  5
45B
330
1F
100
AcDbEntity
  8
16
  6
Continuous
 62
     3
370
    25
100
AcDbLine
 10
-38.29999785870314
 20
-33.44999858736992
 30
0.0
 11
-38.79999786615372
 21
-33.44999858736992
 31
0.0
  0
LINE
  5
45C
330
1F
100
AcDbEntity
  8
16
  6
Continuous
 62
     3
370
    25
100
AcDbLine
 10
-38.79999786615372
 20
-33.44999858736992
 30
0.0
 11
-38.79999786615372
 21
-33.37999858751893
 31
0.0
  0
LINE
  5
45D
330
1F
100
AcDbEntity
  8
16
  6
Continuous
 62
     3
370
    25
100
AcDbLine
 10
-38.79999786615372
 20
-33.37999858751893
 30
0.0
 11
-38.29999785870314
 21
-33.37999858751893
 31
0.0
  0
LINE
  5
45E
330
1F
100
AcDbEntity
  8
16
  6
Continuous
 62
     3
370
    25
100
AcDbLine
 10
-38.29999785870314
 20
-33.37999858751893
 30
0.0
 11
-38.29999785870314
 21
-33.44999858736992
 31
0.0
  0
LINE
  5
45F
330
1F
100
AcDbEntity
  8
16
  6
Continuous
 62
     3
370
    25
100
AcDbLine
 10
-35.79999782145023
 20
-33.44999858736992
 30
0.0
 11
-35.79999782145023
 21
-34.04999859631062
 31
0.0
  0
LINE
  5
460
330
1F
100
AcDbEntity
  8
16
  6
Continuous
 62
     3
370
    25
100
AcDbLine
 10
-35.79999782145023
 20
-34.04999859631062
 30
0.0
 11
-35.69999781996012
 21
-34.24999859929085
 31
0.0
  0
LINE
  5
461
330
1F
100
AcDbEntity
  8
16
  6
Continuous
 62
     3
370
    25
100
AcDbLine
 10
-35.69999781996012
 20
-34.24999859929085
 30
0.0
 11
-35.69999781996012
 21
-35.14999861270189
 31
0.0
  0
LINE
  5
462
330
1F
100
AcDbEntity
  8
16
  6
Continuous
 62
     3
370
    25
100
AcDbLine
 10
-35.69999781996012
 20
-35.14999861270189
 30
0.0
 11
-35.79999782145023
 21
-35.34999861568212
 31
0.0
  0
LINE
  5
463
330
1F
100
AcDbEntity
  8
16
  6
Continuous
 62
     3
370
    25
100
AcDbLine
 10
-35.79999782145023
 20
-35.34999861568212
 30
0.0
 11
-35.79999782145023
 21
-35.94999862462282
 31
0.0
  0
LINE
  5
464
330
1F
100
AcDbEntity
  8
16
  6
Continuous
 62
     3
370
    25
100
AcDbLine
 10
-35.79999782145023
 20
-35.94999862462282
 30
0.0
 11
-35.29999781399965
 21
-35.94999862462282
 31
0.0
  0
LINE
  5
465
330
1F
100
AcDbEntity
  8
16
  6
Continuous
 62
     3
370
    25
100
AcDbLine
 10
-35.29999781399965
 20
-35.94999862462282
 30
0.0
 11
-35.29999781399965
 21
-35.34999861568212
 31
0.0
  0
LINE
  5
466
330
1F
100
AcDbEntity
  8
16
  6
Continuous
 62
     3
370
    25
100
AcDbLine
 10
-35.29999781399965
 20
-35.34999861568212
 30
0.0
 11
-35.39999781548977
 21
-35.14999861270189
 31
0.0
  0
LINE
  5
467
330
1F
100
AcDbEntity
  8
16
  6
Continuous
 62
     3
370
    25
100
AcDbLine
 10
-35.39999781548977
 20
-35.14999861270189
 30
0.0
 11
-35.39999781548977
 21
-34.24999859929085
 31
0.0
  0
LINE
  5
468
330
1F
100
AcDbEntity
  8
16
  6
Continuous
 62
     3
370
    25
100
AcDbLine
 10
-35.39999781548977
 20
-34.24999859929085
 30
0.0
 11
-35.29999781399965
 21
-34.04999859631062
 31
0.0
  0
LINE
  5
469
330
1F
100
AcDbEntity
  8
16
  6
Continuous
 62
     3
370
    25
100
AcDbLine
 10
-35.29999781399965
 20
-34.04999859631062
 30
0.0
 11
-35.29999781399965
 21
-33.44999858736992
 31
0.0
  0
LINE
  5
46A
330
1F
100
AcDbEntity
  8
16
  6
Continuous
 62
     3
370
    25
100
AcDbLine
 10
-35.29999781399965
 20
-33.44999858736992
 30
0.0
 11
-35.79999782145023
 21
-33.44999858736992
 31
0.0
  0
LINE
  5
46B
330
1F
100
AcDbEntity
  8
16
  6
Continuous
 62
     3
370
    25
100
AcDbLine
 10
-35.79999782145023
 20
-33.44999858736992
 30
0.0
 11
-35.79999782145023
 21
-33.37999858751893
 31
0.0
  0
LINE
  5
46C
330
1F
100
AcDbEntity
  8
16
  6
Continuous
 62
     3
370
    25
100
AcDbLine
 10
-35.79999782145023
 20
-33.37999858751893
 30
0.0
 11
-35.29999781399965
 21
-33.37999858751893
 31
0.0
  0
LINE
  5
46D
330
1F
100
AcDbEntity
  8
16
  6
Continuous
 62
     3
370
    25
100
AcDbLine
 10
-35.29999781399965
 20
-33.37999858751893
 30
0.0
 11
-35.29999781399965
 21
-33.44999858736992
 31
0.0
  0
LINE
  5
46E
330
1F
100
AcDbEntity
  8
16
  6
Continuous
 62
     3
370
    25
100
AcDbLine
 10
-134.7999992966652
 20
-33.44999858736992
 30
0.0
 11
-134.7999992966652
 21
-36.4499986320734
 31
0.0
  0
LINE
  5
46F
330
1F
100
AcDbEntity
  8
16
  6
Continuous
 62
     3
370
    25
100
AcDbLine
 10
-134.7999992966652
 20
-36.4499986320734
 30
0.0
 11
-35.29999781399965
 21
-36.4499986320734
 31
0.0
  0
LINE
  5
470
330
1F
100
AcDbEntity
  8
16
  6
Continuous
 62
     3
370
    25
100
AcDbLine
 10
-35.29999781399965
 20
-36.4499986320734
 30
0.0
 11
-35.29999781399965
 21
-33.44999858736992
 31
0.0
  0
LINE
  5
471
330
1F
100
AcDbEntity
  8
16
  6
Continuous
 62
     3
370
    25
100
AcDbLine
 10
-134.2999992892146
 20
-33.44999858736992
 30
0.0
 11
-131.7999992519617
 21
-33.44999858736992
 31
0.0
  0
LINE
  5
472
330
1F
100
AcDbEntity
  8
16
  6
Continuous
 62
     3
370
    25
100
AcDbLine
 10
-134.2999992892146
 20
-34.04999859631062
 30
0.0
 11
-131.7999992519617
 21
-33.44999858736992
 31
0.0
  0
LINE
  5
473
330
1F
100
AcDbEntity
  8
16
  6
Continuous
 62
     3
370
    25
100
AcDbLine
 10
-134.2999992892146
 20
-34.04999859631062
 30
0.0
 11
-131.7999992519617
 21
-34.04999859631062
 31
0.0
  0
LINE
  5
474
330
1F
100
AcDbEntity
  8
16
  6
Continuous
 62
     3
370
    25
100
AcDbLine
 10
-131.2999992445111
 20
-33.44999858736992
 30
0.0
 11
-128.7999992072582
 21
-33.44999858736992
 31
0.0
  0
LINE
  5
475
330
1F
100
AcDbEntity
  8
16
  6
Continuous
 62
     3
370
    25
100
AcDbLine
 10
-131.2999992445111
 20
-34.04999859631062
 30
0.0
 11
-128.7999992072582
 21
-33.44999858736992
 31
0.0
  0
LINE
  5
476
330
1F
100
AcDbEntity
  8
16
  6
Continuous
 62
     3
370
    25
100
AcDbLine
 10
-131.2999992445111
 20
-34.04999859631062
 30
0.0
 11
-128.7999992072582
 21
-34.04999859631062
 31
0.0
  0
LINE
  5
477
330
1F
100
AcDbEntity
  8
16
  6
Continuous
 62
     3
370
    25
100
AcDbLine
 10
-128.2999991998076
 20
-33.44999858736992
 30
0.0
 11
-125.7999991625547
 21
-33.44999858736992
 31
0.0
  0
LINE
  5
478
330
1F
100
AcDbEntity
  8
16
  6
Continuous
 62
     3
370
    25
100
AcDbLine
 10
-128.2999991998076
 20
-34.04999859631062
 30
0.0
 11
-125.7999991625547
 21
-33.44999858736992
 31
0.0
  0
LINE
  5
479
330
1F
100
AcDbEntity
  8
16
  6
Continuous
 62
     3
370
    25
100
AcDbLine
 10
-128.2999991998076
 20
-34.04999859631062
 30
0.0
 11
-125.7999991625547
 21
-34.04999859631062
 31
0.0
  0
LINE
  5
47A
330
1F
100
AcDbEntity
  8
16
  6
Continuous
 62
     3
370
    25
100
AcDbLine
 10
-125.2999991551042
 20
-33.44999858736992
 30
0.0
 11
-122.7999991178513
 21
-33.44999858736992
 31
0.0
  0
LINE
  5
47B
330
1F
100
AcDbEntity
  8
16
  6
Continuous
 62
     3
370
    25
100
AcDbLine
 10
-125.2999991551042
 20
-34.04999859631062
 30
0.0
 11
-122.7999991178513
 21
-33.44999858736992
 31
0.0
  0
LINE
  5
47C
330
1F
100
AcDbEntity
  8
16
  6
Continuous
 62
     3
370
    25
100
AcDbLine
 10
-125.2999991551042
 20
-34.04999859631062
 30
0.0
 11
-122.7999991178513
 21
-34.04999859631062
 31
0.0
  0
LINE
  5
47D
330
1F
100
AcDbEntity
  8
16
  6
Continuous
 62
     3
370
    25
100
AcDbLine
 10
-122.2999991104007
 20
-33.44999858736992
 30
0.0
 11
-119.7999990731478
 21
-33.44999858736992
 31
0.0
  0
LINE
  5
47E
330
1F
100
AcDbEntity
  8
16
  6
Continuous
 62
     3
370
    25
100
AcDbLine
 10
-122.2999991104007
 20
-34.04999859631062
 30
0.0
 11
-119.7999990731478
 21
-33.44999858736992
 31
0.0
  0
LINE
  5
47F
330
1F
100
AcDbEntity
  8
16
  6
Continuous
 62
     3
370
    25
100
AcDbLine
 10
-122.2999991104007
 20
-34.04999859631062
 30
0.0
 11
-119.7999990731478
 21
-34.04999859631062
 31
0.0
  0
LINE
  5
480
330
1F
100
AcDbEntity
  8
16
  6
Continuous
 62
     3
370
    25
100
AcDbLine
 10
-119.2999990656972
 20
-33.44999858736992
 30
0.0
 11
-116.7999990284443
 21
-33.44999858736992
 31
0.0
  0
LINE
  5
481
330
1F
100
AcDbEntity
  8
16
  6
Continuous
 62
     3
370
    25
100
AcDbLine
 10
-119.2999990656972
 20
-34.04999859631062
 30
0.0
 11
-116.7999990284443
 21
-33.44999858736992
 31
0.0
  0
LINE
  5
482
330
1F
100
AcDbEntity
  8
16
  6
Continuous
 62
     3
370
    25
100
AcDbLine
 10
-119.2999990656972
 20
-34.04999859631062
 30
0.0
 11
-116.7999990284443
 21
-34.04999859631062
 31
0.0
  0
LINE
  5
483
330
1F
100
AcDbEntity
  8
16
  6
Continuous
 62
     3
370
    25
100
AcDbLine
 10
-116.2999990209937
 20
-33.44999858736992
 30
0.0
 11
-113.7999989837408
 21
-33.44999858736992
 31
0.0
  0
LINE
  5
484
330
1F
100
AcDbEntity
  8
16
  6
Continuous
 62
     3
370
    25
100
AcDbLine
 10
-116.2999990209937
 20
-34.04999859631062
 30
0.0
 11
-113.7999989837408
 21
-33.44999858736992
 31
0.0
  0
LINE
  5
485
330
1F
100
AcDbEntity
  8
16
  6
Continuous
 62
     3
370
    25
100
AcDbLine
 10
-116.2999990209937
 20
-34.04999859631062
 30
0.0
 11
-113.7999989837408
 21
-34.04999859631062
 31
0.0
  0
LINE
  5
486
330
1F
100
AcDbEntity
  8
16
  6
Continuous
 62
     3
370
    25
100
AcDbLine
 10
-113.2999989762902
 20
-33.44999858736992
 30
0.0
 11
-110.7999989390373
 21
-33.44999858736992
 31
0.0
  0
LINE
  5
487
330
1F
100
AcDbEntity
  8
16
  6
Continuous
 62
     3
370
    25
100
AcDbLine
 10
-113.2999989762902
 20
-34.04999859631062
 30
0.0
 11
-110.7999989390373
 21
-33.44999858736992
 31
0.0
  0
LINE
  5
488
330
1F
100
AcDbEntity
  8
16
  6
Continuous
 62
     3
370
    25
100
AcDbLine
 10
-113.2999989762902
 20
-34.04999859631062
 30
0.0
 11
-110.7999989390373
 21
-34.04999859631062
 31
0.0
  0
LINE
  5
489
330
1F
100
AcDbEntity
  8
16
  6
Continuous
 62
     3
370
    25
100
AcDbLine
 10
-110.2999989315867
 20
-33.44999858736992
 30
0.0
 11
-107.7999988943338
 21
-33.44999858736992
 31
0.0
  0
LINE
  5
48A
330
1F
100
AcDbEntity
  8
16
  6
Continuous
 62
     3
370
    25
100
AcDbLine
 10
-110.2999989315867
 20
-34.04999859631062
 30
0.0
 11
-107.7999988943338
 21
-33.44999858736992
 31
0.0
  0
LINE
  5
48B
330
1F
100
AcDbEntity
  8
16
  6
Continuous
 62
     3
370
    25
100
AcDbLine
 10
-110.2999989315867
 20
-34.04999859631062
 30
0.0
 11
-107.7999988943338
 21
-34.04999859631062
 31
0.0
  0
LINE
  5
48C
330
1F
100
AcDbEntity
  8
16
  6
Continuous
 62
     3
370
    25
100
AcDbLine
 10
-107.2999988868833
 20
-33.44999858736992
 30
0.0
 11
-104.7999988496304
 21
-33.44999858736992
 31
0.0
  0
LINE
  5
48D
330
1F
100
AcDbEntity
  8
16
  6
Continuous
 62
     3
370
    25
100
AcDbLine
 10
-107.2999988868833
 20
-34.04999859631062
 30
0.0
 11
-104.7999988496304
 21
-33.44999858736992
 31
0.0
  0
LINE
  5
48E
330
1F
100
AcDbEntity
  8
16
  6
Continuous
 62
     3
370
    25
100
AcDbLine
 10
-107.2999988868833
 20
-34.04999859631062
 30
0.0
 11
-104.7999988496304
 21
-34.04999859631062
 31
0.0
  0
LINE
  5
48F
330
1F
100
AcDbEntity
  8
16
  6
Continuous
 62
     3
370
    25
100
AcDbLine
 10
-104.2999988421798
 20
-33.44999858736992
 30
0.0
 11
-101.7999988049269
 21
-33.44999858736992
 31
0.0
  0
LINE
  5
490
330
1F
100
AcDbEntity
  8
16
  6
Continuous
 62
     3
370
    25
100
AcDbLine
 10
-104.2999988421798
 20
-34.04999859631062
 30
0.0
 11
-101.7999988049269
 21
-33.44999858736992
 31
0.0
  0
LINE
  5
491
330
1F
100
AcDbEntity
  8
16
  6
Continuous
 62
     3
370
    25
100
AcDbLine
 10
-104.2999988421798
 20
-34.04999859631062
 30
0.0
 11
-101.7999988049269
 21
-34.04999859631062
 31
0.0
  0
LINE
  5
492
330
1F
100
AcDbEntity
  8
16
  6
Continuous
 62
     3
370
    25
100
AcDbLine
 10
-101.2999987974763
 20
-33.44999858736992
 30
0.0
 11
-98.79999876022339
 21
-33.44999858736992
 31
0.0
  0
LINE
  5
493
330
1F
100
AcDbEntity
  8
16
  6
Continuous
 62
     3
370
    25
100
AcDbLine
 10
-101.2999987974763
 20
-34.04999859631062
 30
0.0
 11
-98.79999876022339
 21
-33.44999858736992
 31
0.0
  0
LINE
  5
494
330
1F
100
AcDbEntity
  8
16
  6
Continuous
 62
     3
370
    25
100
AcDbLine
 10
-101.2999987974763
 20
-34.04999859631062
 30
0.0
 11
-98.79999876022339
 21
-34.04999859631062
 31
0.0
  0
LINE
  5
495
330
1F
100
AcDbEntity
  8
16
  6
Continuous
 62
     3
370
    25
100
AcDbLine
 10
-98.29999875277281
 20
-33.44999858736992
 30
0.0
 11
-95.7999987155199
 21
-33.44999858736992
 31
0.0
  0
LINE
  5
496
330
1F
100
AcDbEntity
  8
16
  6
Continuous
 62
     3
370
    25
100
AcDbLine
 10
-98.29999875277281
 20
-34.04999859631062
 30
0.0
 11
-95.7999987155199
 21
-33.44999858736992
 31
0.0
  0
LINE
  5
497
330
1F
100
AcDbEntity
  8
16
  6
Continuous
 62
     3
370
    25
100
AcDbLine
 10
-98.29999875277281
 20
-34.04999859631062
 30
0.0
 11
-95.7999987155199
 21
-34.04999859631062
 31
0.0
  0
LINE
  5
498
330
1F
100
AcDbEntity
  8
16
  6
Continuous
 62
     3
370
    25
100
AcDbLine
 10
-95.29999870806932
 20
-33.44999858736992
 30
0.0
 11
-92.79999867081642
 21
-33.44999858736992
 31
0.0
  0
LINE
  5
499
330
1F
100
AcDbEntity
  8
16
  6
Continuous
 62
     3
370
    25
100
AcDbLine
 10
-95.29999870806932
 20
-34.04999859631062
 30
0.0
 11
-92.79999867081642
 21
-33.44999858736992
 31
0.0
  0
LINE
  5
49A
330
1F
100
AcDbEntity
  8
16
  6
Continuous
 62
     3
370
    25
100
AcDbLine
 10
-95.29999870806932
 20
-34.04999859631062
 30
0.0
 11
-92.79999867081642
 21
-34.04999859631062
 31
0.0
  0
LINE
  5
49B
330
1F
100
AcDbEntity
  8
16
  6
Continuous
 62
     3
370
    25
100
AcDbLine
 10
-92.29999866336584
 20
-33.44999858736992
 30
0.0
 11
-89.79999862611294
 21
-33.44999858736992
 31
0.0
  0
LINE
  5
49C
330
1F
100
AcDbEntity
  8
16
  6
Continuous
 62
     3
370
    25
100
AcDbLine
 10
-92.29999866336584
 20
-34.04999859631062
 30
0.0
 11
-89.79999862611294
 21
-33.44999858736992
 31
0.0
  0
LINE
  5
49D
330
1F
100
AcDbEntity
  8
16
  6
Continuous
 62
     3
370
    25
100
AcDbLine
 10
-92.29999866336584
 20
-34.04999859631062
 30
0.0
 11
-89.79999862611294
 21
-34.04999859631062
 31
0.0
  0
LINE
  5
49E
330
1F
100
AcDbEntity
  8
16
  6
Continuous
 62
     3
370
    25
100
AcDbLine
 10
-89.29999861866236
 20
-33.44999858736992
 30
0.0
 11
-86.79999858140945
 21
-33.44999858736992
 31
0.0
  0
LINE
  5
49F
330
1F
100
AcDbEntity
  8
16
  6
Continuous
 62
     3
370
    25
100
AcDbLine
 10
-89.29999861866236
 20
-34.04999859631062
 30
0.0
 11
-86.79999858140945
 21
-33.44999858736992
 31
0.0
  0
LINE
  5
4A0
330
1F
100
AcDbEntity
  8
16
  6
Continuous
 62
     3
370
    25
100
AcDbLine
 10
-89.29999861866236
 20
-34.04999859631062
 30
0.0
 11
-86.79999858140945
 21
-34.04999859631062
 31
0.0
  0
LINE
  5
4A1
330
1F
100
AcDbEntity
  8
16
  6
Continuous
 62
     3
370
    25
100
AcDbLine
 10
-86.29999857395887
 20
-33.44999858736992
 30
0.0
 11
-83.79999853670597
 21
-33.44999858736992
 31
0.0
  0
LINE
  5
4A2
330
1F
100
AcDbEntity
  8
16
  6
Continuous
 62
     3
370
    25
100
AcDbLine
 10
-86.29999857395887
 20
-34.04999859631062
 30
0.0
 11
-83.79999853670597
 21
-33.44999858736992
 31
0.0
  0
LINE
  5
4A3
330
1F
100
AcDbEntity
  8
16
  6
Continuous
 62
     3
370
    25
100
AcDbLine
 10
-86.29999857395887
 20
-34.04999859631062
 30
0.0
 11
-83.79999853670597
 21
-34.04999859631062
 31
0.0
  0
LINE
  5
4A4
330
1F
100
AcDbEntity
  8
16
  6
Continuous
 62
     3
370
    25
100
AcDbLine
 10
-83.29999852925539
 20
-33.44999858736992
 30
0.0
 11
-80.79999849200249
 21
-33.44999858736992
 31
0.0
  0
LINE
  5
4A5
330
1F
100
AcDbEntity
  8
16
  6
Continuous
 62
     3
370
    25
100
AcDbLine
 10
-83.29999852925539
 20
-34.04999859631062
 30
0.0
 11
-80.79999849200249
 21
-33.44999858736992
 31
0.0
  0
LINE
  5
4A6
330
1F
100
AcDbEntity
  8
16
  6
Continuous
 62
     3
370
    25
100
AcDbLine
 10
-83.29999852925539
 20
-34.04999859631062
 30
0.0
 11
-80.79999849200249
 21
-34.04999859631062
 31
0.0
  0
LINE
  5
4A7
330
1F
100
AcDbEntity
  8
16
  6
Continuous
 62
     3
370
    25
100
AcDbLine
 10
-80.2999984845519
 20
-33.44999858736992
 30
0.0
 11
-77.799998447299
 21
-33.44999858736992
 31
0.0
  0
LINE
  5
4A8
330
1F
100
AcDbEntity
  8
16
  6
Continuous
 62
     3
370
    25
100
AcDbLine
 10
-80.2999984845519
 20
-34.04999859631062
 30
0.0
 11
-77.799998447299
 21
-33.44999858736992
 31
0.0
  0
LINE
  5
4A9
330
1F
100
AcDbEntity
  8
16
  6
Continuous
 62
     3
370
    25
100
AcDbLine
 10
-80.2999984845519
 20
-34.04999859631062
 30
0.0
 11
-77.799998447299
 21
-34.04999859631062
 31
0.0
  0
LINE
  5
4AA
330
1F
100
AcDbEntity
  8
16
  6
Continuous
 62
     3
370
    25
100
AcDbLine
 10
-77.29999843984842
 20
-33.44999858736992
 30
0.0
 11
-74.79999840259552
 21
-33.44999858736992
 31
0.0
  0
LINE
  5
4AB
330
1F
100
AcDbEntity
  8
16
  6
Continuous
 62
     3
370
    25
100
AcDbLine
 10
-77.29999843984842
 20
-34.04999859631062
 30
0.0
 11
-74.79999840259552
 21
-33.44999858736992
 31
0.0
  0
LINE
  5
4AC
330
1F
100
AcDbEntity
  8
16
  6
Continuous
 62
     3
370
    25
100
AcDbLine
 10
-77.29999843984842
 20
-34.04999859631062
 30
0.0
 11
-74.79999840259552
 21
-34.04999859631062
 31
0.0
  0
LINE
  5
4AD
330
1F
100
AcDbEntity
  8
16
  6
Continuous
 62
     3
370
    25
100
AcDbLine
 10
-74.29999839514494
 20
-33.44999858736992
 30
0.0
 11
-71.79999835789204
 21
-33.44999858736992
 31
0.0
  0
LINE
  5
4AE
330
1F
100
AcDbEntity
  8
16
  6
Continuous
 62
     3
370
    25
100
AcDbLine
 10
-74.29999839514494
 20
-34.04999859631062
 30
0.0
 11
-71.79999835789204
 21
-33.44999858736992
 31
0.0
  0
LINE
  5
4AF
330
1F
100
AcDbEntity
  8
16
  6
Continuous
 62
     3
370
    25
100
AcDbLine
 10
-74.29999839514494
 20
-34.04999859631062
 30
0.0
 11
-71.79999835789204
 21
-34.04999859631062
 31
0.0
  0
LINE
  5
4B0
330
1F
100
AcDbEntity
  8
16
  6
Continuous
 62
     3
370
    25
100
AcDbLine
 10
-71.29999835044146
 20
-33.44999858736992
 30
0.0
 11
-68.79999831318855
 21
-33.44999858736992
 31
0.0
  0
LINE
  5
4B1
330
1F
100
AcDbEntity
  8
16
  6
Continuous
 62
     3
370
    25
100
AcDbLine
 10
-71.29999835044146
 20
-34.04999859631062
 30
0.0
 11
-68.79999831318855
 21
-33.44999858736992
 31
0.0
  0
LINE
  5
4B2
330
1F
100
AcDbEntity
  8
16
  6
Continuous
 62
     3
370
    25
100
AcDbLine
 10
-71.29999835044146
 20
-34.04999859631062
 30
0.0
 11
-68.79999831318855
 21
-34.04999859631062
 31
0.0
  0
LINE
  5
4B3
330
1F
100
AcDbEntity
  8
16
  6
Continuous
 62
     3
370
    25
100
AcDbLine
 10
-68.29999830573797
 20
-33.44999858736992
 30
0.0
 11
-65.79999826848507
 21
-33.44999858736992
 31
0.0
  0
LINE
  5
4B4
330
1F
100
AcDbEntity
  8
16
  6
Continuous
 62
     3
370
    25
100
AcDbLine
 10
-68.29999830573797
 20
-34.04999859631062
 30
0.0
 11
-65.79999826848507
 21
-33.44999858736992
 31
0.0
  0
LINE
  5
4B5
330
1F
100
AcDbEntity
  8
16
  6
Continuous
 62
     3
370
    25
100
AcDbLine
 10
-68.29999830573797
 20
-34.04999859631062
 30
0.0
 11
-65.79999826848507
 21
-34.04999859631062
 31
0.0
  0
LINE
  5
4B6
330
1F
100
AcDbEntity
  8
16
  6
Continuous
 62
     3
370
    25
100
AcDbLine
 10
-65.29999826103449
 20
-33.44999858736992
 30
0.0
 11
-62.79999822378158
 21
-33.44999858736992
 31
0.0
  0
LINE
  5
4B7
330
1F
100
AcDbEntity
  8
16
  6
Continuous
 62
     3
370
    25
100
AcDbLine
 10
-65.29999826103449
 20
-34.04999859631062
 30
0.0
 11
-62.79999822378158
 21
-33.44999858736992
 31
0.0
  0
LINE
  5
4B8
330
1F
100
AcDbEntity
  8
16
  6
Continuous
 62
     3
370
    25
100
AcDbLine
 10
-65.29999826103449
 20
-34.04999859631062
 30
0.0
 11
-62.79999822378158
 21
-34.04999859631062
 31
0.0
  0
LINE
  5
4B9
330
1F
100
AcDbEntity
  8
16
  6
Continuous
 62
     3
370
    25
100
AcDbLine
 10
-62.299998216331
 20
-33.44999858736992
 30
0.0
 11
-59.7999981790781
 21
-33.44999858736992
 31
0.0
  0
LINE
  5
4BA
330
1F
100
AcDbEntity
  8
16
  6
Continuous
 62
     3
370
    25
100
AcDbLine
 10
-62.299998216331
 20
-34.04999859631062
 30
0.0
 11
-59.7999981790781
 21
-33.44999858736992
 31
0.0
  0
LINE
  5
4BB
330
1F
100
AcDbEntity
  8
16
  6
Continuous
 62
     3
370
    25
100
AcDbLine
 10
-62.299998216331
 20
-34.04999859631062
 30
0.0
 11
-59.7999981790781
 21
-34.04999859631062
 31
0.0
  0
LINE
  5
4BC
330
1F
100
AcDbEntity
  8
16
  6
Continuous
 62
     3
370
    25
100
AcDbLine
 10
-59.29999817162752
 20
-33.44999858736992
 30
0.0
 11
-56.79999813437462
 21
-33.44999858736992
 31
0.0
  0
LINE
  5
4BD
330
1F
100
AcDbEntity
  8
16
  6
Continuous
 62
     3
370
    25
100
AcDbLine
 10
-59.29999817162752
 20
-34.04999859631062
 30
0.0
 11
-56.79999813437462
 21
-33.44999858736992
 31
0.0
  0
LINE
  5
4BE
330
1F
100
AcDbEntity
  8
16
  6
Continuous
 62
     3
370
    25
100
AcDbLine
 10
-59.29999817162752
 20
-34.04999859631062
 30
0.0
 11
-56.79999813437462
 21
-34.04999859631062
 31
0.0
  0
LINE
  5
4BF
330
1F
100
AcDbEntity
  8
16
  6
Continuous
 62
     3
370
    25
100
AcDbLine
 10
-56.29999812692404
 20
-33.44999858736992
 30
0.0
 11
-53.79999808967113
 21
-33.44999858736992
 31
0.0
  0
LINE
  5
4C0
330
1F
100
AcDbEntity
  8
16
  6
Continuous
 62
     3
370
    25
100
AcDbLine
 10
-56.29999812692404
 20
-34.04999859631062
 30
0.0
 11
-53.79999808967113
 21
-33.44999858736992
 31
0.0
  0
LINE
  5
4C1
330
1F
100
AcDbEntity
  8
16
  6
Continuous
 62
     3
370
    25
100
AcDbLine
 10
-56.29999812692404
 20
-34.04999859631062
 30
0.0
 11
-53.79999808967113
 21
-34.04999859631062
 31
0.0
  0
LINE
  5
4C2
330
1F
100
AcDbEntity
  8
16
  6
Continuous
 62
     3
370
    25
100
AcDbLine
 10
-53.29999808222055
 20
-33.44999858736992
 30
0.0
 11
-50.79999804496765
 21
-33.44999858736992
 31
0.0
  0
LINE
  5
4C3
330
1F
100
AcDbEntity
  8
16
  6
Continuous
 62
     3
370
    25
100
AcDbLine
 10
-53.29999808222055
 20
-34.04999859631062
 30
0.0
 11
-50.79999804496765
 21
-33.44999858736992
 31
0.0
  0
LINE
  5
4C4
330
1F
100
AcDbEntity
  8
16
  6
Continuous
 62
     3
370
    25
100
AcDbLine
 10
-53.29999808222055
 20
-34.04999859631062
 30
0.0
 11
-50.79999804496765
 21
-34.04999859631062
 31
0.0
  0
LINE
  5
4C5
330
1F
100
AcDbEntity
  8
16
  6
Continuous
 62
     3
370
    25
100
AcDbLine
 10
-50.29999803751707
 20
-33.44999858736992
 30
0.0
 11
-47.79999800026417
 21
-33.44999858736992
 31
0.0
  0
LINE
  5
4C6
330
1F
100
AcDbEntity
  8
16
  6
Continuous
 62
     3
370
    25
100
AcDbLine
 10
-50.29999803751707
 20
-34.04999859631062
 30
0.0
 11
-47.79999800026417
 21
-33.44999858736992
 31
0.0
  0
LINE
  5
4C7
330
1F
100
AcDbEntity
  8
16
  6
Continuous
 62
     3
370
    25
100
AcDbLine
 10
-50.29999803751707
 20
-34.04999859631062
 30
0.0
 11
-47.79999800026417
 21
-34.04999859631062
 31
0.0
  0
LINE
  5
4C8
330
1F
100
AcDbEntity
  8
16
  6
Continuous
 62
     3
370
    25
100
AcDbLine
 10
-47.29999799281359
 20
-33.44999858736992
 30
0.0
 11
-44.79999795556068
 21
-33.44999858736992
 31
0.0
  0
LINE
  5
4C9
330
1F
100
AcDbEntity
  8
16
  6
Continuous
 62
     3
370
    25
100
AcDbLine
 10
-47.29999799281359
 20
-34.04999859631062
 30
0.0
 11
-44.79999795556068
 21
-33.44999858736992
 31
0.0
  0
LINE
  5
4CA
330
1F
100
AcDbEntity
  8
16
  6
Continuous
 62
     3
370
    25
100
AcDbLine
 10
-47.29999799281359
 20
-34.04999859631062
 30
0.0
 11
-44.79999795556068
 21
-34.04999859631062
 31
0.0
  0
LINE
  5
4CB
330
1F
100
AcDbEntity
  8
16
  6
Continuous
 62
     3
370
    25
100
AcDbLine
 10
-44.2999979481101
 20
-33.44999858736992
 30
0.0
 11
-41.7999979108572
 21
-33.44999858736992
 31
0.0
  0
LINE
  5
4CC
330
1F
100
AcDbEntity
  8
16
  6
Continuous
 62
     3
370
    25
100
AcDbLine
 10
-44.2999979481101
 20
-34.04999859631062
 30
0.0
 11
-41.7999979108572
 21
-33.44999858736992
 31
0.0
  0
LINE
  5
4CD
330
1F
100
AcDbEntity
  8
16
  6
Continuous
 62
     3
370
    25
100
AcDbLine
 10
-44.2999979481101
 20
-34.04999859631062
 30
0.0
 11
-41.7999979108572
 21
-34.04999859631062
 31
0.0
  0
LINE
  5
4CE
330
1F
100
AcDbEntity
  8
16
  6
Continuous
 62
     3
370
    25
100
AcDbLine
 10
-41.29999790340662
 20
-33.44999858736992
 30
0.0
 11
-38.79999786615372
 21
-33.44999858736992
 31
0.0
  0
LINE
  5
4CF
330
1F
100
AcDbEntity
  8
16
  6
Continuous
 62
     3
370
    25
100
AcDbLine
 10
-41.29999790340662
 20
-34.04999859631062
 30
0.0
 11
-38.79999786615372
 21
-33.44999858736992
 31
0.0
  0
LINE
  5
4D0
330
1F
100
AcDbEntity
  8
16
  6
Continuous
 62
     3
370
    25
100
AcDbLine
 10
-41.29999790340662
 20
-34.04999859631062
 30
0.0
 11
-38.79999786615372
 21
-34.04999859631062
 31
0.0
  0
LINE
  5
4D1
330
1F
100
AcDbEntity
  8
16
  6
Continuous
 62
     3
370
    25
100
AcDbLine
 10
-38.29999785870314
 20
-33.44999858736992
 30
0.0
 11
-35.79999782145023
 21
-33.44999858736992
 31
0.0
  0
LINE
  5
4D2
330
1F
100
AcDbEntity
  8
16
  6
Continuous
 62
     3
370
    25
100
AcDbLine
 10
-38.29999785870314
 20
-34.04999859631062
 30
0.0
 11
-35.79999782145023
 21
-33.44999858736992
 31
0.0
  0
LINE
  5
4D3
330
1F
100
AcDbEntity
  8
16
  6
Continuous
 62
     3
370
    25
100
AcDbLine
 10
-38.29999785870314
 20
-34.04999859631062
 30
0.0
 11
-35.79999782145023
 21
-34.04999859631062
 31
0.0
  0
LINE
  5
4D4
330
1F
100
AcDbEntity
  8
16
  6
Continuous
 62
     3
370
    25
100
AcDbLine
 10
11.20000287890434
 20
19.05000219494104
 30
0.0
 11
14.20000292360783
 21
19.05000219494104
 31
0.0
  0
ARC
  5
4D5
330
1F
100
AcDbEntity
  8
16
  6
Continuous
 62
     3
370
    25
100
AcDbCircle
 10
13.90000291913748
 20
19.05000219494104
 30
0.0
 40
0.3000000044703484
100
AcDbArc
 50
0.0
 51
90.0000000000002
  0
LINE
  5
4D6
330
1F
100
AcDbEntity
  8
16
  6
Continuous
 62
     3
370
    25
100
AcDbLine
 10
13.90000301717595
 20
19.35000219941137
 30
0.0
 11
12.00000298886374
 21
19.35000219941137
 31
0.0
  0
ARC
  5
4D7
330
1F
100
AcDbEntity
  8
16
  6
Continuous
 62
     3
370
    25
100
AcDbCircle
 10
12.00000282546629
 20
19.85000220686193
 30
0.0
 40
0.5000000074505806
100
AcDbArc
 50
180.0000000000004
 51
270.0000000000006
  0
LINE
  5
4D8
330
1F
100
AcDbEntity
  8
16
  6
Continuous
 62
     3
370
    25
100
AcDbLine
 10
11.50000281801582
 20
19.85000188006703
 30
0.0
 11
11.50000281801582
 21
21.75000190837923
 31
0.0
  0
ARC
  5
4D9
330
1F
100
AcDbEntity
  8
16
  6
Continuous
 62
     3
370
    25
100
AcDbCircle
 10
11.20000281354547
 20
21.75000190837923
 30
0.0
 40
0.3000000044703484
100
AcDbArc
 50
0.0
 51
90.0000000000002
  0
LINE
  5
4DA
330
1F
100
AcDbEntity
  8
16
  6
Continuous
 62
     3
370
    25
100
AcDbLine
 10
11.20000291158394
 20
22.05000191284956
 30
0.0
 11
11.20000291158394
 21
19.05000186814608
 31
0.0
  0
LINE
  5
4DB
330
1F
100
AcDbEntity
  8
16
  6
Continuous
 62
     3
370
    25
100
AcDbLine
 10
11.20000287890434
 20
11.55000208318233
 30
0.0
 11
14.20000292360783
 21
11.55000208318233
 31
0.0
  0
ARC
  5
4DC
330
1F
100
AcDbEntity
  8
16
  6
Continuous
 62
     3
370
    25
100
AcDbCircle
 10
13.90000291913748
 20
11.55000208318233
 30
0.0
 40
0.3000000044703484
100
AcDbArc
 50
270.0000000000006
 51
0.0000000000008142
  0
LINE
  5
4DD
330
1F
100
AcDbEntity
  8
16
  6
Continuous
 62
     3
370
    25
100
AcDbLine
 10
13.90000301717595
 20
11.250002078712
 30
0.0
 11
12.00000298886374
 21
11.250002078712
 31
0.0
  0
ARC
  5
4DE
330
1F
100
AcDbEntity
  8
16
  6
Continuous
 62
     3
370
    25
100
AcDbCircle
 10
12.00000282546629
 20
10.75000207126145
 30
0.0
 40
0.5000000074505806
100
AcDbArc
 50
90.0000000000002
 51
180.0000000000004
  0
LINE
  5
4DF
330
1F
100
AcDbEntity
  8
16
  6
Continuous
 62
     3
370
    25
100
AcDbLine
 10
11.50000281801582
 20
10.75000239805635
 30
0.0
 11
11.50000281801582
 21
8.850002369744146
 31
0.0
  0
ARC
  5
4E0
330
1F
100
AcDbEntity
  8
16
  6
Continuous
 62
     3
370
    25
100
AcDbCircle
 10
11.20000281354547
 20
8.850002369744146
 30
0.0
 40
0.3000000044703484
100
AcDbArc
 50
270.0000000000006
 51
0.0000000000008142
  0
LINE
  5
4E1
330
1F
100
AcDbEntity
  8
16
  6
Continuous
 62
     3
370
    25
100
AcDbLine
 10
11.20000291158394
 20
8.550002365273816
 30
0.0
 11
11.20000291158394
 21
11.5500024099773
 31
0.0
  0
LINE
  5
4E2
330
1F
100
AcDbEntity
  8
16
  6
Continuous
 62
     3
370
    25
100
AcDbLine
 10
11.20000287890434
 20
19.05000219494104
 30
0.0
 11
11.20000287890434
 21
11.55000208318233
 31
0.0
  0
LINE
  5
4E3
330
1F
100
AcDbEntity
  8
16
  6
Continuous
 62
     3
370
    25
100
AcDbLine
 10
11.20000287890434
 20
11.55000208318233
 30
0.0
 11
11.13000287905335
 21
11.55000208318233
 31
0.0
  0
LINE
  5
4E4
330
1F
100
AcDbEntity
  8
16
  6
Continuous
 62
     3
370
    25
100
AcDbLine
 10
11.13000287905335
 20
11.55000208318233
 30
0.0
 11
11.13000287905335
 21
19.05000219494104
 31
0.0
  0
LINE
  5
4E5
330
1F
100
AcDbEntity
  8
16
  6
Continuous
 62
     3
370
    25
100
AcDbLine
 10
11.13000287905335
 20
19.05000219494104
 30
0.0
 11
11.20000287890434
 21
19.05000219494104
 31
0.0
  0
LINE
  5
4E6
330
1F
100
AcDbEntity
  8
16
  6
Continuous
 62
     3
370
    25
100
AcDbLine
 10
11.20000287890434
 20
11.55000208318233
 30
0.0
 11
13.70000291615725
 21
11.55000208318233
 31
0.0
  0
LINE
  5
4E7
330
1F
100
AcDbEntity
  8
16
  6
Continuous
 62
     3
370
    25
100
AcDbLine
 10
13.70000291615725
 20
11.55000208318233
 30
0.0
 11
13.70000291615725
 21
19.05000219494104
 31
0.0
  0
LINE
  5
4E8
330
1F
100
AcDbEntity
  8
16
  6
Continuous
 62
     3
370
    25
100
AcDbLine
 10
13.70000291615725
 20
19.05000219494104
 30
0.0
 11
11.20000287890434
 21
19.05000219494104
 31
0.0
  0
LINE
  5
4E9
330
1F
100
AcDbEntity
  8
16
  6
Continuous
 62
     3
370
    25
100
AcDbLine
 10
12.00000289082527
 20
19.05000219494104
 30
0.0
 11
12.00000289082527
 21
11.55000208318233
 31
0.0
  0
LINE
  5
4EA
330
1F
100
AcDbEntity
  8
16
  6
Continuous
 62
     3
370
    25
100
AcDbLine
 10
12.90000290423632
 20
11.55000208318233
 30
0.0
 11
12.90000290423632
 21
19.05000219494104
 31
0.0
  0
LINE
  5
4EB
330
1F
100
AcDbEntity
  8
16
  6
Continuous
 62
     3
370
    25
100
AcDbLine
 10
12.00000289082527
 20
15.30000213906169
 30
0.0
 11
11.79757971072017
 21
15.64780007271468
 31
0.0
  0
LINE
  5
4EC
330
1F
100
AcDbEntity
  8
16
  6
Continuous
 62
     3
370
    25
100
AcDbLine
 10
11.79757971072017
 20
15.64780007271468
 30
0.0
 11
11.3975895270293
 21
15.64500770037647
 31
0.0
  0
LINE
  5
4ED
330
1F
100
AcDbEntity
  8
16
  6
Continuous
 62
     3
370
    25
100
AcDbLine
 10
11.3975895270293
 20
15.64500770037647
 30
0.0
 11
11.20001262479321
 21
15.2972098969114
 31
0.0
  0
LINE
  5
4EE
330
1F
100
AcDbEntity
  8
16
  6
Continuous
 62
     3
370
    25
100
AcDbLine
 10
11.20001262479321
 20
15.2972098969114
 30
0.0
 11
11.40242583169231
 21
14.95220433454297
 31
0.0
  0
LINE
  5
4EF
330
1F
100
AcDbEntity
  8
16
  6
Continuous
 62
     3
370
    25
100
AcDbLine
 10
11.40242583169231
 20
14.95220433454297
 30
0.0
 11
11.80241601720816
 21
14.95499644545168
 31
0.0
  0
LINE
  5
4F0
330
1F
100
AcDbEntity
  8
16
  6
Continuous
 62
     3
370
    25
100
AcDbLine
 10
11.80241601720816
 20
14.95499644545168
 30
0.0
 11
11.9999931467613
 21
15.30279411978243
 31
0.0
  0
LINE
  5
4F1
330
1F
100
AcDbEntity
  8
16
  6
DASHED2
 62
     3
370
    25
100
AcDbLine
 10
-134.7999992966652
 20
19.35000219941139
 30
0.0
 11
-35.29999781399965
 21
19.35000219941139
 31
0.0
  0
LINE
  5
4F2
330
1F
100
AcDbEntity
  8
16
  6
DASHED2
 62
     3
370
    25
100
AcDbLine
 10
-134.7999992966652
 20
11.25000207871199
 30
0.0
 11
-35.29999781399965
 21
11.25000207871199
 31
0.0
  0
LINE
  5
4F3
330
1F
100
AcDbEntity
  8
22
  6
Continuous
 62
     4
370
    25
100
AcDbLine
 10
-128.2999991998076
 20
13.72500211559236
 30
0.0
 11
-127.9999991953373
 21
15.18500217549503
 31
0.0
  0
LINE
  5
4F4
330
1F
100
AcDbEntity
  8
22
  6
Continuous
 62
     4
370
    25
100
AcDbLine
 10
-128.2999991998076
 20
13.72500211559236
 30
0.0
 11
-127.2999991849065
 21
14.82500213198364
 31
0.0
  0
LINE
  5
4F5
330
1F
100
AcDbEntity
  8
22
  6
Continuous
 62
     4
370
    25
100
AcDbLine
 10
-128.2999991998076
 20
13.72500211559236
 30
0.0
 11
-110.7874989388511
 21
48.75000263750553
 31
0.0
  0
LINE
  5
4F6
330
1F
100
AcDbEntity
  8
22
  6
Continuous
 62
     4
370
    25
100
AcDbLine
 10
-110.7874989388511
 20
48.75000263750553
 30
0.0
 11
-64.78749825339764
 21
48.75000263750553
 31
0.0
  0
LINE
  5
4F7
330
1F
100
AcDbEntity
  8
22
  6
Continuous
 62
     4
370
    25
100
AcDbLine
 10
-121.0499990917742
 20
15.60000214353204
 30
0.0
 11
-120.7499990873039
 21
17.06000220343471
 31
0.0
  0
LINE
  5
4F8
330
1F
100
AcDbEntity
  8
22
  6
Continuous
 62
     4
370
    25
100
AcDbLine
 10
-121.0499990917742
 20
15.60000214353204
 30
0.0
 11
-120.0499990768731
 21
16.70000215992331
 31
0.0
  0
LINE
  5
4F9
330
1F
100
AcDbEntity
  8
22
  6
Continuous
 62
     4
370
    25
100
AcDbLine
 10
-121.0499990917742
 20
15.60000214353204
 30
0.0
 11
-106.8249988798052
 21
44.05000256747007
 31
0.0
  0
LINE
  5
4FA
330
1F
100
AcDbEntity
  8
22
  6
Continuous
 62
     4
370
    25
100
AcDbLine
 10
-106.8249988798052
 20
44.05000256747007
 30
0.0
 11
-80.32499848492444
 21
44.05000256747007
 31
0.0
  0
LINE
  5
4FB
330
1F
100
AcDbEntity
  8
22
  6
Continuous
 62
     4
370
    25
100
AcDbLine
 10
-85.82499856688082
 20
45.95000259578228
 30
0.0
 11
-86.3249435550438
 21
46.82649968563362
 31
0.0
  0
LINE
  5
4FC
330
1F
100
AcDbEntity
  8
22
  6
Continuous
 62
     4
370
    25
100
AcDbLine
 10
-86.3249435550438
 20
46.82649968563362
 30
0.0
 11
-87.32494338126979
 21
46.82650001242846
 31
0.0
  0
LINE
  5
4FD
330
1F
100
AcDbEntity
  8
22
  6
Continuous
 62
     4
370
    25
100
AcDbLine
 10
-87.32494338126979
 20
46.82650001242846
 30
0.0
 11
-87.82494376607043
 21
45.96047503146587
 31
0.0
  0
LINE
  5
4FE
330
1F
100
AcDbEntity
  8
22
  6
Continuous
 62
     4
370
    25
100
AcDbLine
 10
-87.82494376607043
 20
45.96047503146587
 30
0.0
 11
-87.32494451332037
 21
45.09444939691371
 31
0.0
  0
LINE
  5
4FF
330
1F
100
AcDbEntity
  8
22
  6
Continuous
 62
     4
370
    25
100
AcDbLine
 10
-87.32494451332037
 20
45.09444939691371
 30
0.0
 11
-86.32494468709484
 21
45.09444841652917
 31
0.0
  0
LINE
  5
500
330
1F
100
AcDbEntity
  8
22
  6
Continuous
 62
     4
370
    25
100
AcDbLine
 10
-86.32494468709484
 20
45.09444841652917
 30
0.0
 11
-85.82494373626919
 21
45.96047307069645
 31
0.0
  0
LINE
  5
501
330
1F
100
AcDbEntity
  8
22
  6
Continuous
 62
     4
370
    25
100
AcDbLine
 10
-112.0499989576638
 20
22.05000223964453
 30
0.0
 11
-111.7499989531934
 21
23.5100022995472
 31
0.0
  0
LINE
  5
502
330
1F
100
AcDbEntity
  8
22
  6
Continuous
 62
     4
370
    25
100
AcDbLine
 10
-112.0499989576638
 20
22.05000223964453
 30
0.0
 11
-111.0499989427626
 21
23.1500022560358
 31
0.0
  0
LINE
  5
503
330
1F
100
AcDbEntity
  8
22
  6
Continuous
 62
     4
370
    25
100
AcDbLine
 10
-112.0499989576638
 20
22.05000223964453
 30
0.0
 11
-103.5499988310039
 21
39.05000249296427
 31
0.0
  0
LINE
  5
504
330
1F
100
AcDbEntity
  8
22
  6
Continuous
 62
     4
370
    25
100
AcDbLine
 10
-103.5499988310039
 20
39.05000249296427
 30
0.0
 11
-59.54999817535281
 21
39.05000249296427
 31
0.0
  0
LINE
  5
505
330
1F
100
AcDbEntity
  8
22
  6
Continuous
 62
     4
370
    25
100
AcDbLine
 10
-101.5499988012016
 20
-32.94999857991934
 30
0.0
 11
-101.5499988012016
 21
-27.94999850541353
 31
0.0
  0
LINE
  5
506
330
1F
100
AcDbEntity
  8
22
  6
Continuous
 62
     4
370
    25
100
AcDbLine
 10
-101.5499988012016
 20
-28.94999852031469
 30
0.0
 11
-103.0499988235533
 21
-28.54999851435423
 31
0.0
  0
LINE
  5
507
330
1F
100
AcDbEntity
  8
22
  6
Continuous
 62
     4
370
    25
100
AcDbLine
 10
-103.0499988235533
 20
-29.34999852627517
 30
0.0
 11
-101.5499988012016
 21
-28.94999852031469
 31
0.0
  0
LINE
  5
508
330
1F
100
AcDbEntity
  8
22
  6
Continuous
 62
     4
370
    25
100
AcDbLine
 10
-101.5499988012016
 20
-28.94999852031469
 30
0.0
 11
-104.5499988459051
 21
-28.94999852031469
 31
0.0
  0
LINE
  5
509
330
1F
100
AcDbEntity
  8
22
  6
Continuous
 62
     4
370
    25
100
AcDbLine
 10
-101.5499988012016
 20
-28.94999852031469
 30
0.0
 11
-98.5499987564981
 21
-28.94999852031469
 31
0.0
  0
LINE
  5
50A
330
1F
100
AcDbEntity
  8
22
  6
Continuous
 62
     4
370
    25
100
AcDbLine
 10
-98.5499987564981
 20
-28.94999852031469
 30
0.0
 11
-97.04999873414636
 21
-28.54999851435423
 31
0.0
  0
LINE
  5
50B
330
1F
100
AcDbEntity
  8
22
  6
Continuous
 62
     4
370
    25
100
AcDbLine
 10
-97.04999873414636
 20
-29.34999852627517
 30
0.0
 11
-98.5499987564981
 21
-28.94999852031469
 31
0.0
  0
LINE
  5
50C
330
1F
100
AcDbEntity
  8
22
  6
Continuous
 62
     4
370
    25
100
AcDbLine
 10
-98.5499987564981
 20
-28.94999852031469
 30
0.0
 11
-91.54999865218997
 21
-28.94999852031469
 31
0.0
  0
LINE
  5
50D
330
1F
100
AcDbEntity
  8
22
  6
Continuous
 62
     4
370
    25
100
AcDbLine
 10
-98.5499987564981
 20
-27.94999850541353
 30
0.0
 11
-98.5499987564981
 21
-32.94999857991934
 31
0.0
  0
LINE
  5
50E
330
1F
100
AcDbEntity
  8
22
  6
Continuous
 62
     4
370
    25
100
AcDbLine
 10
-134.7999992966652
 20
-32.94999857991934
 30
0.0
 11
-134.7999992966652
 21
-20.9499984011054
 31
0.0
  0
LINE
  5
50F
330
1F
100
AcDbEntity
  8
22
  6
Continuous
 62
     4
370
    25
100
AcDbLine
 10
-134.7999992966652
 20
-21.94999841600657
 30
0.0
 11
-133.2999992743134
 21
-21.5499984100461
 31
0.0
  0
LINE
  5
510
330
1F
100
AcDbEntity
  8
22
  6
Continuous
 62
     4
370
    25
100
AcDbLine
 10
-133.2999992743134
 20
-22.34999842196703
 30
0.0
 11
-134.7999992966652
 21
-21.94999841600657
 31
0.0
  0
LINE
  5
511
330
1F
100
AcDbEntity
  8
22
  6
Continuous
 62
     4
370
    25
100
AcDbLine
 10
-134.7999992966652
 20
-21.94999841600657
 30
0.0
 11
-35.29999781399965
 21
-21.94999841600657
 31
0.0
  0
LINE
  5
512
330
1F
100
AcDbEntity
  8
22
  6
Continuous
 62
     4
370
    25
100
AcDbLine
 10
-35.29999781399965
 20
-21.94999841600657
 30
0.0
 11
-36.79999783635139
 21
-21.5499984100461
 31
0.0
  0
LINE
  5
513
330
1F
100
AcDbEntity
  8
22
  6
Continuous
 62
     4
370
    25
100
AcDbLine
 10
-36.79999783635139
 20
-22.34999842196703
 30
0.0
 11
-35.29999781399965
 21
-21.94999841600657
 31
0.0
  0
LINE
  5
514
330
1F
100
AcDbEntity
  8
22
  6
Continuous
 62
     4
370
    25
100
AcDbLine
 10
-35.29999781399965
 20
-32.94999857991934
 30
0.0
 11
-35.29999781399965
 21
-20.9499984011054
 31
0.0
  0
LINE
  5
515
330
1F
100
AcDbEntity
  8
22
  6
Continuous
 62
     4
370
    25
100
AcDbLine
 10
10.40000286698341
 20
22.05000223964453
 30
0.0
 11
-1.599997311830521
 21
22.05000223964453
 31
0.0
  0
LINE
  5
516
330
1F
100
AcDbEntity
  8
22
  6
Continuous
 62
     4
370
    25
100
AcDbLine
 10
-0.5999972969293594
 20
22.05000223964453
 30
0.0
 11
-0.9999973028898239
 21
23.55000226199627
 31
0.0
  0
LINE
  5
517
330
1F
100
AcDbEntity
  8
22
  6
Continuous
 62
     4
370
    25
100
AcDbLine
 10
-0.199997290968895
 20
23.55000226199627
 30
0.0
 11
-0.5999972969293594
 21
22.05000223964453
 31
0.0
  0
LINE
  5
518
330
1F
100
AcDbEntity
  8
22
  6
Continuous
 62
     4
370
    25
100
AcDbLine
 10
-0.5999972969293594
 20
22.05000223964453
 30
0.0
 11
-0.5999972969293594
 21
29.05000234395266
 31
0.0
  0
LINE
  5
519
330
1F
100
AcDbEntity
  8
22
  6
Continuous
 62
     4
370
    25
100
AcDbLine
 10
-0.5999972969293594
 20
22.05000223964453
 30
0.0
 11
-0.5999972969293594
 21
19.05000219494104
 31
0.0
  0
LINE
  5
51A
330
1F
100
AcDbEntity
  8
22
  6
Continuous
 62
     4
370
    25
100
AcDbLine
 10
-1.599997311830521
 20
19.05000219494104
 30
0.0
 11
10.40000286698341
 21
19.05000219494104
 31
0.0
  0
LINE
  5
51B
330
1F
100
AcDbEntity
  8
22
  6
Continuous
 62
     4
370
    25
100
AcDbLine
 10
-0.9999973028898239
 20
17.5500021725893
 30
0.0
 11
-0.5999972969293594
 21
19.05000219494104
 31
0.0
  0
LINE
  5
51C
330
1F
100
AcDbEntity
  8
22
  6
Continuous
 62
     4
370
    25
100
AcDbLine
 10
-0.199997290968895
 20
17.5500021725893
 30
0.0
 11
-0.5999972969293594
 21
19.05000219494104
 31
0.0
  0
LINE
  5
51D
330
1F
100
AcDbEntity
  8
22
  6
Continuous
 62
     4
370
    25
100
AcDbLine
 10
-0.5999972969293594
 20
11.55000208318233
 30
0.0
 11
-0.5999972969293594
 21
19.05000219494104
 31
0.0
  0
LINE
  5
51E
330
1F
100
AcDbEntity
  8
22
  6
Continuous
 62
     4
370
    25
100
AcDbLine
 10
-0.5999972969293594
 20
11.55000208318233
 30
0.0
 11
-0.9999973028898239
 21
13.05000210553408
 31
0.0
  0
LINE
  5
51F
330
1F
100
AcDbEntity
  8
22
  6
Continuous
 62
     4
370
    25
100
AcDbLine
 10
-0.5999972969293594
 20
11.55000208318233
 30
0.0
 11
-0.199997290968895
 21
13.05000210553408
 31
0.0
  0
LINE
  5
520
330
1F
100
AcDbEntity
  8
22
  6
Continuous
 62
     4
370
    25
100
AcDbLine
 10
-1.599997311830521
 20
11.55000208318233
 30
0.0
 11
10.40000286698341
 21
11.55000208318233
 31
0.0
  0
LINE
  5
521
330
1F
100
AcDbEntity
  8
22
  6
Continuous
 62
     4
370
    25
100
AcDbLine
 10
-0.5999972969293594
 20
8.550002038478851
 30
0.0
 11
-0.5999972969293594
 21
11.55000208318233
 31
0.0
  0
LINE
  5
522
330
1F
100
AcDbEntity
  8
22
  6
Continuous
 62
     4
370
    25
100
AcDbLine
 10
-0.9999973028898239
 20
7.050002016127109
 30
0.0
 11
-0.5999972969293594
 21
8.550002038478851
 31
0.0
  0
LINE
  5
523
330
1F
100
AcDbEntity
  8
22
  6
Continuous
 62
     4
370
    25
100
AcDbLine
 10
-0.199997290968895
 20
7.050002016127109
 30
0.0
 11
-0.5999972969293594
 21
8.550002038478851
 31
0.0
  0
LINE
  5
524
330
1F
100
AcDbEntity
  8
22
  6
Continuous
 62
     4
370
    25
100
AcDbLine
 10
-0.5999972969293594
 20
1.550001934170723
 30
0.0
 11
-0.5999972969293594
 21
8.550002038478851
 31
0.0
  0
LINE
  5
525
330
1F
100
AcDbEntity
  8
22
  6
Continuous
 62
     4
370
    25
100
AcDbLine
 10
-1.599997311830521
 20
8.550002038478851
 30
0.0
 11
10.40000286698341
 21
8.550002038478851
 31
0.0
  0
LINE
  5
526
330
1F
100
AcDbEntity
  8
22
  6
Continuous
 62
     4
370
    25
100
AcDbLine
 10
-8.599997416138649
 20
22.05000223964453
 30
0.0
 11
10.40000286698341
 21
22.05000223964453
 31
0.0
  0
LINE
  5
527
330
1F
100
AcDbEntity
  8
22
  6
Continuous
 62
     4
370
    25
100
AcDbLine
 10
-7.999997407197952
 20
20.55000221729279
 30
0.0
 11
-7.599997401237488
 21
22.05000223964453
 31
0.0
  0
LINE
  5
528
330
1F
100
AcDbEntity
  8
22
  6
Continuous
 62
     4
370
    25
100
AcDbLine
 10
-7.199997395277023
 20
20.55000221729279
 30
0.0
 11
-7.599997401237488
 21
22.05000223964453
 31
0.0
  0
LINE
  5
529
330
1F
100
AcDbEntity
  8
22
  6
Continuous
 62
     4
370
    25
100
AcDbLine
 10
-7.599997401237488
 20
8.550002038478851
 30
0.0
 11
-7.599997401237488
 21
22.05000223964453
 31
0.0
  0
LINE
  5
52A
330
1F
100
AcDbEntity
  8
22
  6
Continuous
 62
     4
370
    25
100
AcDbLine
 10
-7.599997401237488
 20
8.550002038478851
 30
0.0
 11
-7.999997407197952
 21
10.05000206083059
 31
0.0
  0
LINE
  5
52B
330
1F
100
AcDbEntity
  8
22
  6
Continuous
 62
     4
370
    25
100
AcDbLine
 10
-7.599997401237488
 20
8.550002038478851
 30
0.0
 11
-7.199997395277023
 21
10.05000206083059
 31
0.0
  0
LINE
  5
52C
330
1F
100
AcDbEntity
  8
22
  6
Continuous
 62
     4
370
    25
100
AcDbLine
 10
-8.599997416138649
 20
8.550002038478851
 30
0.0
 11
10.40000286698341
 21
8.550002038478851
 31
0.0
  0
LINE
  5
52D
330
1F
100
AcDbEntity
  8
22
  6
Continuous
 62
     4
370
    25
100
AcDbLine
 10
14.70000293105841
 20
19.35000219941139
 30
0.0
 11
22.7000030502677
 21
19.35000219941139
 31
0.0
  0
LINE
  5
52E
330
1F
100
AcDbEntity
  8
22
  6
Continuous
 62
     4
370
    25
100
AcDbLine
 10
21.30000302940607
 20
17.85000217705965
 30
0.0
 11
21.70000303536654
 21
19.35000219941139
 31
0.0
  0
LINE
  5
52F
330
1F
100
AcDbEntity
  8
22
  6
Continuous
 62
     4
370
    25
100
AcDbLine
 10
22.100003041327
 20
17.85000217705965
 30
0.0
 11
21.70000303536654
 21
19.35000219941139
 31
0.0
  0
LINE
  5
530
330
1F
100
AcDbEntity
  8
22
  6
Continuous
 62
     4
370
    25
100
AcDbLine
 10
21.70000303536654
 20
11.25000207871199
 30
0.0
 11
21.70000303536654
 21
19.35000219941139
 31
0.0
  0
LINE
  5
531
330
1F
100
AcDbEntity
  8
22
  6
Continuous
 62
     4
370
    25
100
AcDbLine
 10
21.70000303536654
 20
11.25000207871199
 30
0.0
 11
21.30000302940607
 21
12.75000210106373
 31
0.0
  0
LINE
  5
532
330
1F
100
AcDbEntity
  8
22
  6
Continuous
 62
     4
370
    25
100
AcDbLine
 10
21.70000303536654
 20
11.25000207871199
 30
0.0
 11
22.100003041327
 21
12.75000210106373
 31
0.0
  0
LINE
  5
533
330
1F
100
AcDbEntity
  8
22
  6
Continuous
 62
     4
370
    25
100
AcDbLine
 10
14.70000293105841
 20
11.25000207871199
 30
0.0
 11
22.7000030502677
 21
11.25000207871199
 31
0.0
  0
LINE
  5
534
330
1F
100
AcDbEntity
  8
22
  6
Continuous
 62
     4
370
    25
100
AcDbLine
 10
11.50000288337469
 20
19.80000220611691
 30
0.0
 11
11.50000288337469
 21
30.05000235885382
 31
0.0
  0
LINE
  5
535
330
1F
100
AcDbEntity
  8
22
  6
Continuous
 62
     4
370
    25
100
AcDbLine
 10
11.50000288337469
 20
19.80000220611691
 30
0.0
 11
29.70000315457582
 21
19.80000220611691
 31
0.0
  0
LINE
  5
536
330
1F
100
AcDbEntity
  8
22
  6
Continuous
 62
     4
370
    25
100
AcDbLine
 10
11.50000288337469
 20
23.05000225454569
 30
0.0
 11
13.50000291317701
 21
25.05000228434801
 31
0.0
  0
LINE
  5
537
330
1F
100
AcDbEntity
  8
22
  6
Continuous
 62
     4
370
    25
100
AcDbLine
 10
11.50000288337469
 20
22.05000223964453
 30
0.0
 11
13.50000291317701
 21
24.05000226944685
 31
0.0
  0
LINE
  5
538
330
1F
100
AcDbEntity
  8
22
  6
Continuous
 62
     4
370
    25
100
AcDbLine
 10
18.20000298321247
 20
19.80000220611691
 30
0.0
 11
20.20000301301479
 21
21.80000223591924
 31
0.0
  0
LINE
  5
539
330
1F
100
AcDbEntity
  8
22
  6
Continuous
 62
     4
370
    25
100
AcDbLine
 10
17.20000296831131
 20
19.80000220611691
 30
0.0
 11
19.20000299811363
 21
21.80000223591924
 31
0.0
  0
LINE
  5
53A
330
1F
100
AcDbEntity
  8
22
  6
Continuous
 62
     4
370
    25
100
AcDbLine
 10
28.3000031337142
 20
18.30000218376517
 30
0.0
 11
28.70000313967466
 21
19.80000220611691
 31
0.0
  0
LINE
  5
53B
330
1F
100
AcDbEntity
  8
22
  6
Continuous
 62
     4
370
    25
100
AcDbLine
 10
29.10000314563514
 20
18.30000218376517
 30
0.0
 11
28.70000313967466
 21
19.80000220611691
 31
0.0
  0
LINE
  5
53C
330
1F
100
AcDbEntity
  8
22
  6
Continuous
 62
     4
370
    25
100
AcDbLine
 10
28.70000313967466
 20
10.80000207200646
 30
0.0
 11
28.70000313967466
 21
19.80000220611691
 31
0.0
  0
LINE
  5
53D
330
1F
100
AcDbEntity
  8
22
  6
Continuous
 62
     4
370
    25
100
AcDbLine
 10
28.70000313967466
 20
10.80000207200646
 30
0.0
 11
28.3000031337142
 21
12.30000209435821
 31
0.0
  0
LINE
  5
53E
330
1F
100
AcDbEntity
  8
22
  6
Continuous
 62
     4
370
    25
100
AcDbLine
 10
28.70000313967466
 20
10.80000207200646
 30
0.0
 11
29.10000314563514
 21
12.30000209435821
 31
0.0
  0
LINE
  5
53F
330
1F
100
AcDbEntity
  8
22
  6
Continuous
 62
     4
370
    25
100
AcDbLine
 10
11.50000288337469
 20
10.80000207200646
 30
0.0
 11
29.70000315457582
 21
10.80000207200646
 31
0.0
  0
LINE
  5
540
330
1F
100
AcDbEntity
  8
22
  6
Continuous
 62
     4
370
    25
100
AcDbLine
 10
11.50000288337469
 20
0.5500019192695618
 30
0.0
 11
11.50000288337469
 21
10.80000207200646
 31
0.0
  0
LINE
  5
541
330
1F
100
AcDbEntity
  8
22
  6
Continuous
 62
     4
370
    25
100
AcDbLine
 10
13.50000291317701
 20
7.55000202357769
 30
0.0
 11
11.50000288337469
 21
9.550002053380013
 31
0.0
  0
LINE
  5
542
330
1F
100
AcDbEntity
  8
22
  6
Continuous
 62
     4
370
    25
100
AcDbLine
 10
13.50000291317701
 20
8.550002038478851
 30
0.0
 11
11.50000288337469
 21
10.55000206828117
 31
0.0
  0
LINE
  5
543
330
1F
100
AcDbEntity
  8
22
  6
Continuous
 62
     4
370
    25
100
AcDbLine
 10
21.70000303536654
 20
8.800002042204142
 30
0.0
 11
19.70000300556421
 21
10.80000207200646
 31
0.0
  0
LINE
  5
544
330
1F
100
AcDbEntity
  8
22
  6
Continuous
 62
     4
370
    25
100
AcDbLine
 10
20.70000302046537
 20
8.800002042204142
 30
0.0
 11
18.70000299066305
 21
10.80000207200646
 31
0.0
  0
LINE
  5
545
330
1F
100
AcDbEntity
  8
22
  6
Continuous
 62
     4
370
    25
100
AcDbLine
 10
11.20000287890434
 20
-8.549998216331005
 30
0.0
 11
11.20000287890434
 21
8.05000203102827
 31
0.0
  0
LINE
  5
546
330
1F
100
AcDbEntity
  8
22
  6
Continuous
 62
     4
370
    25
100
AcDbLine
 10
11.20000287890434
 20
-7.549998201429844
 30
0.0
 11
9.7000028565526
 21
-7.149998195469379
 31
0.0
  0
LINE
  5
547
330
1F
100
AcDbEntity
  8
22
  6
Continuous
 62
     4
370
    25
100
AcDbLine
 10
9.7000028565526
 20
-7.949998207390308
 30
0.0
 11
11.20000287890434
 21
-7.549998201429844
 31
0.0
  0
LINE
  5
548
330
1F
100
AcDbEntity
  8
22
  6
Continuous
 62
     4
370
    25
100
AcDbLine
 10
4.200002774596214
 20
-7.549998201429844
 30
0.0
 11
11.20000287890434
 21
-7.549998201429844
 31
0.0
  0
LINE
  5
549
330
1F
100
AcDbEntity
  8
22
  6
Continuous
 62
     4
370
    25
100
AcDbLine
 10
11.20000287890434
 20
-7.549998201429844
 30
0.0
 11
13.70000291615725
 21
-7.549998201429844
 31
0.0
  0
LINE
  5
54A
330
1F
100
AcDbEntity
  8
22
  6
Continuous
 62
     4
370
    25
100
AcDbLine
 10
13.70000291615725
 20
-7.549998201429844
 30
0.0
 11
15.20000293850899
 21
-7.149998195469379
 31
0.0
  0
LINE
  5
54B
330
1F
100
AcDbEntity
  8
22
  6
Continuous
 62
     4
370
    25
100
AcDbLine
 10
15.20000293850899
 20
-7.949998207390308
 30
0.0
 11
13.70000291615725
 21
-7.549998201429844
 31
0.0
  0
LINE
  5
54C
330
1F
100
AcDbEntity
  8
22
  6
Continuous
 62
     4
370
    25
100
AcDbLine
 10
13.70000291615725
 20
-7.549998201429844
 30
0.0
 11
16.70000296086073
 21
-7.549998201429844
 31
0.0
  0
LINE
  5
54D
330
1F
100
AcDbEntity
  8
22
  6
Continuous
 62
     4
370
    25
100
AcDbLine
 10
13.70000291615725
 20
-8.549998216331005
 30
0.0
 11
13.70000291615725
 21
10.45000206679106
 31
0.0
  0
TEXT
  5
54E
330
1F
100
AcDbEntity
  8
24
 62
     2
100
AcDbText
 10
94.40000412
 20
92.85000329000002
 30
0.0
 40
4.0
  1
◇　荷　重　計　算　◇
 41
0.833333335542929
  7
dcStyle0
 72
     5
 11
138.40000482
 21
92.85000329000002
 31
0.0
100
AcDbText
  0
TEXT
  5
54F
330
1F
100
AcDbEntity
  8
24
 62
     2
100
AcDbText
 10
65.05000367999999
 20
82.85000314999999
 30
0.0
 40
3.3
  1
設計条件
 41
0.8583691004600379
  7
dcStyle0
 72
     5
 11
81.05000390999999
 21
82.85000314999999
 31
0.0
100
AcDbText
  0
TEXT
  5
550
330
1F
100
AcDbEntity
  8
24
 62
     2
100
AcDbText
 10
70.30000376
 20
76.85000305999999
 30
0.0
 40
3.3
  1
荷重基準：　
 41
0.8413461557530508
  7
dcStyle0
 72
     5
 11
91.30000405999999
 21
76.85000305999999
 31
0.0
100
AcDbText
  0
TEXT
  5
551
330
1F
100
AcDbEntity
  8
24
 62
     2
100
AcDbText
 10
91.20000407
 20
76.85000305999999
 30
0.0
 40
3.3
  1
鋼道路橋等設計示方書による
 41
0.8413461557237141
  7
dcStyle0
 72
     5
 11
136.70000471
 21
76.85000305999999
 31
0.0
100
AcDbText
  0
TEXT
  5
552
330
1F
100
AcDbEntity
  8
24
 62
     2
100
AcDbText
 10
70.30000376
 20
71.85000298
 30
0.0
 40
3.3
  1
荷　　重：　
 41
0.8413461557530508
  7
dcStyle0
 72
     5
 11
91.30000405999999
 21
71.85000298
 31
0.0
100
AcDbText
  0
TEXT
  5
553
330
1F
100
AcDbEntity
  8
24
 62
     2
100
AcDbText
 10
91.30000407
 20
71.85000298
 30
0.0
 40
3.0
  1
 5000
 41
0.8333333355555557
  7
dcStyle0
 72
     5
 11
103.80000427
 21
71.85000298
 31
0.0
100
AcDbText
  0
TEXT
  5
554
330
1F
100
AcDbEntity
  8
24
 62
     2
100
AcDbText
 10
103.80000426
 20
71.85000298
 30
0.0
 40
3.0
  1
N
  7
dcStyle0
 72
     5
 11
106.80000426
 21
71.85000298
 31
0.0
100
AcDbText
  0
TEXT
  5
555
330
1F
100
AcDbEntity
  8
24
 62
     2
100
AcDbText
 10
106.8000043
 20
71.85000298
 30
0.0
 40
3.0
  1
/
  7
dcStyle0
 72
     5
 11
109.8000043
 21
71.85000298
 31
0.0
100
AcDbText
  0
TEXT
  5
556
330
1F
100
AcDbEntity
  8
24
 62
     2
100
AcDbText
 10
109.80000435
 20
71.85000298
 30
0.0
 40
3.0
  1
m
  7
dcStyle0
 72
     5
 11
112.80000435
 21
71.85000298
 31
0.0
100
AcDbText
  0
TEXT
  5
557
330
1F
100
AcDbEntity
  8
24
 62
     2
100
AcDbText
 10
113.3000044
 20
73.350003
 30
0.0
 40
1.5
  1
2
  7
dcStyle0
 72
     5
 11
114.8000044
 21
73.350003
 31
0.0
100
AcDbText
  0
TEXT
  5
558
330
1F
100
AcDbEntity
  8
24
 62
     2
100
AcDbText
 10
114.80000442
 20
71.85000298
 30
0.0
 40
3.3
  1
（等分布荷重）
 41
0.8333333354978357
  7
dcStyle0
 72
     5
 11
137.90000478
 21
71.85000298
 31
0.0
100
AcDbText
  0
TEXT
  5
559
330
1F
100
AcDbEntity
  8
24
 62
     2
100
AcDbText
 10
70.30000376
 20
66.85000291000001
 30
0.0
 40
3.3
  1
載荷寸法：　
 41
0.8413461557530508
  7
dcStyle0
 72
     5
 11
91.30000405999999
 21
66.85000291000001
 31
0.0
100
AcDbText
  0
TEXT
  5
55A
330
1F
100
AcDbEntity
  8
24
 62
     2
100
AcDbText
 10
91.20000407
 20
66.85000291000001
 30
0.0
 40
3.3
  1
全面等分布負載
 41
0.8413461556985681
  7
dcStyle0
 72
     5
 11
115.70000441
 21
66.85000291000001
 31
0.0
100
AcDbText
  0
TEXT
  5
55B
330
1F
100
AcDbEntity
  8
24
 62
     2
100
AcDbText
 10
70.30000376
 20
61.85000283
 30
0.0
 40
3.3
  1
許容応力：　
 41
0.8413461557530508
  7
dcStyle0
 72
     5
 11
91.30000405999999
 21
61.85000283
 31
0.0
100
AcDbText
  0
TEXT
  5
55C
330
1F
100
AcDbEntity
  8
24
 62
     2
100
AcDbText
 10
91.30000407
 20
61.85000283
 30
0.0
 40
3.3
  1
σｂ＝
 41
0.6313131350372407
  7
dcStyle0
 72
     5
 11
98.80000419
 21
61.85000283
 31
0.0
100
AcDbText
  0
TEXT
  5
55D
330
1F
100
AcDbEntity
  8
24
 62
     2
100
AcDbText
 10
98.80000418
 20
61.85000283000001
 30
0.0
 40
3.0
  1
180.0
 41
0.8333333355555557
  7
dcStyle0
 72
     5
 11
111.30000438
 21
61.85000283000001
 31
0.0
100
AcDbText
  0
TEXT
  5
55E
330
1F
100
AcDbEntity
  8
24
 62
     2
100
AcDbText
 10
111.90000438
 20
61.85000283000001
 30
0.0
 40
3.0
  1
N
  7
dcStyle0
 72
     5
 11
114.90000438
 21
61.85000283000001
 31
0.0
100
AcDbText
  0
TEXT
  5
55F
330
1F
100
AcDbEntity
  8
24
 62
     2
100
AcDbText
 10
114.65000442
 20
61.85000283000001
 30
0.0
 40
3.0
  1
／
 41
0.8333333333333334
  7
dcStyle0
 72
     5
 11
117.65000442
 21
61.85000283000001
 31
0.0
100
AcDbText
  0
TEXT
  5
560
330
1F
100
AcDbEntity
  8
24
 62
     2
100
AcDbText
 10
118.15000447
 20
61.85000283000001
 30
0.0
 40
3.0
  1
mm
 41
0.6666666700000008
  7
dcStyle0
 72
     5
 11
122.15000453
 21
61.85000283000001
 31
0.0
100
AcDbText
  0
TEXT
  5
561
330
1F
100
AcDbEntity
  8
24
 62
     2
100
AcDbText
 10
122.15000453
 20
63.85000286
 30
0.0
 40
1.8
  1
2
 41
0.8333333333333333
  7
dcStyle0
 72
     5
 11
123.65000453
 21
63.85000286
 31
0.0
100
AcDbText
  0
TEXT
  5
562
330
1F
100
AcDbEntity
  8
24
 62
     2
100
AcDbText
 10
124.65000457
 20
61.85000283
 30
0.0
 40
3.3
  1
（ＳＳ４００使用）
 41
0.7575757602965685
  7
dcStyle0
 72
     5
 11
151.65000497
 21
61.85000283
 31
0.0
100
AcDbText
  0
TEXT
  5
563
330
1F
100
AcDbEntity
  8
24
 62
     2
100
AcDbText
 10
70.30000376
 20
51.85000268
 30
0.0
 40
3.3
  1
スパン　：　
 41
0.8413461557530508
  7
dcStyle0
 72
     5
 11
91.30000405999999
 21
51.85000268
 31
0.0
100
AcDbText
  0
TEXT
  5
564
330
1F
100
AcDbEntity
  8
24
 62
     2
100
AcDbText
 10
91.30000407
 20
51.85000268
 30
0.0
 40
3.0
  1
L =
 41
0.8333333355555551
  7
dcStyle0
 72
     5
 11
98.80000419
 21
51.85000268
 31
0.0
100
AcDbText
  0
TEXT
  5
565
330
1F
100
AcDbEntity
  8
24
 62
     2
100
AcDbText
 10
98.80000418
 20
51.85000268
 30
0.0
 40
3.0
  1
 110 
 41
0.8333333355555557
  7
dcStyle0
 72
     5
 11
111.30000438
 21
51.85000268
 31
0.0
100
AcDbText
  0
TEXT
  5
566
330
1F
100
AcDbEntity
  8
24
 62
     2
100
AcDbText
 10
111.30000437
 20
51.85000268
 30
0.0
 40
3.0
  1
mm
 41
0.6666666700000008
  7
dcStyle0
 72
     5
 11
115.30000443
 21
51.85000268
 31
0.0
100
AcDbText
  0
TEXT
  5
567
330
1F
100
AcDbEntity
  8
24
 62
     2
100
AcDbText
 10
80.30000391000002
 20
43.85000256
 30
0.0
 40
3.3
  1
　Ｗ　：主部材が支える最大全面荷重
 41
0.841346155999826
  7
dcStyle0
 72
     5
 11
139.80000487
 21
43.85000256
 31
0.0
100
AcDbText
  0
TEXT
  5
568
330
1F
100
AcDbEntity
  8
24
 62
     2
100
AcDbText
 10
139.8000048
 20
43.85000256000001
 30
0.0
 40
3.0
  1
（Ｎ）
 41
0.833333335493827
  7
dcStyle0
 72
     5
 11
148.80000494
 21
43.85000256000001
 31
0.0
100
AcDbText
  0
TEXT
  5
569
330
1F
100
AcDbEntity
  8
24
 62
     2
100
AcDbText
 10
80.30000391000002
 20
39.8500025
 30
0.0
 40
3.3
  1
　Ｎ　：荷重を受ける主部材本数
 41
0.8413461558293267
  7
dcStyle0
 72
     5
 11
132.80000469
 21
39.8500025
 31
0.0
100
AcDbText
  0
TEXT
  5
56A
330
1F
100
AcDbEntity
  8
24
 62
     2
100
AcDbText
 10
80.30000391000002
 20
35.85000245000001
 30
0.0
 40
3.3
  1
〔Ｚ〕：主部材断面係数（㎜
 41
0.8413461557237141
  7
dcStyle0
 72
     5
 11
125.80000455
 21
35.85000245000001
 31
0.0
100
AcDbText
  0
TEXT
  5
56B
330
1F
100
AcDbEntity
  8
24
 62
     2
100
AcDbText
 10
125.80000459
 20
37.35000247
 30
0.0
 40
1.5
  1
3
  7
dcStyle0
 72
     5
 11
127.30000459
 21
37.35000247
 31
0.0
100
AcDbText
  0
TEXT
  5
56C
330
1F
100
AcDbEntity
  8
24
 62
     2
100
AcDbText
 10
127.30000461
 20
35.85000245000001
 30
0.0
 40
3.3
  1
）
 41
0.8333333333333363
  7
dcStyle0
 72
     5
 11
130.60000461
 21
35.85000245000001
 31
0.0
100
AcDbText
  0
TEXT
  5
56D
330
1F
100
AcDbEntity
  8
24
 62
     2
100
AcDbText
 10
80.30000391000002
 20
31.85000239
 30
0.0
 40
3.3
  1
　Ａ　：実効負載面積（ｍ
 41
0.8413461560073039
  7
dcStyle0
 72
     5
 11
122.30000459
 21
31.85000239
 31
0.0
100
AcDbText
  0
TEXT
  5
56E
330
1F
100
AcDbEntity
  8
24
 62
     2
100
AcDbText
 10
122.30000453
 20
33.35000241
 30
0.0
 40
1.5
  1
2
  7
dcStyle0
 72
     5
 11
123.80000453
 21
33.35000241
 31
0.0
100
AcDbText
  0
TEXT
  5
56F
330
1F
100
AcDbEntity
  8
24
 62
     2
100
AcDbText
 10
123.80000456
 20
31.85000239
 30
0.0
 40
3.3
  1
）
 41
0.8333333333333326
  7
dcStyle0
 72
     5
 11
127.10000456
 21
31.85000239
 31
0.0
100
AcDbText
  0
TEXT
  5
570
330
1F
100
AcDbEntity
  8
24
 62
     2
100
AcDbText
 10
65.05000367999999
 20
26.85000231
 30
0.0
 40
3.3
  1
荷重計算
 41
0.8583691004600379
  7
dcStyle0
 72
     5
 11
81.05000390999999
 21
26.85000231
 31
0.0
100
AcDbText
  0
TEXT
  5
571
330
1F
100
AcDbEntity
  8
24
 62
     2
100
AcDbText
 10
70.30000376
 20
19.85000221000001
 30
0.0
 40
3.3
  1
群集荷重
 41
0.841346155943741
  7
dcStyle0
 72
     5
 11
84.30000398
 21
19.85000221000001
 31
0.0
100
AcDbText
  0
TEXT
  5
572
330
1F
100
AcDbEntity
  8
24
 62
     2
100
AcDbText
 10
70.40000376
 20
9.85000206
 30
0.0
 40
3.3
  1
Ｗ　＝
 41
0.6313131350372407
  7
dcStyle0
 72
     5
 11
77.90000388
 21
9.85000206
 31
0.0
100
AcDbText
  0
TEXT
  5
573
330
1F
100
AcDbEntity
  8
24
 62
     2
100
AcDbText
 10
82.40000394
 20
12.3500021
 30
0.0
 40
3.3
  1
８
 41
0.8333333333333326
  7
dcStyle0
 72
     5
 11
85.70000394
 21
12.3500021
 31
0.0
100
AcDbText
  0
TEXT
  5
574
330
1F
100
AcDbEntity
  8
24
 62
     2
100
AcDbText
 10
85.70000399000001
 20
12.3500021
 30
0.0
 40
3.3
  1
σｂ
 41
0.6313131345717272
  7
dcStyle0
 72
     5
 11
90.70000406000001
 21
12.3500021
 31
0.0
100
AcDbText
  0
TEXT
  5
575
330
1F
100
AcDbEntity
  8
24
 62
     2
100
AcDbText
 10
90.70000406
 20
12.3500021
 30
0.0
 40
3.3
  1
Ｚ
 41
0.8333333333333326
  7
dcStyle0
 72
     5
 11
94.00000406
 21
12.3500021
 31
0.0
100
AcDbText
  0
TEXT
  5
576
330
1F
100
AcDbEntity
  8
24
 62
     2
100
AcDbText
 10
80.90000392000002
 20
7.35000202
 30
0.0
 40
3.0
  1
 L 
  7
dcStyle0
 72
     5
 11
92.90000410000002
 21
7.35000202
 31
0.0
100
AcDbText
  0
TEXT
  5
577
330
1F
100
AcDbEntity
  8
24
 62
     2
100
AcDbText
 10
93.4000041
 20
9.85000206
 30
0.0
 40
3.3
  1
＝
 41
0.7575757575757576
  7
dcStyle0
 72
     5
 11
96.4000041
 21
9.85000206
 31
0.0
100
AcDbText
  0
TEXT
  5
578
330
1F
100
AcDbEntity
  8
24
 62
     2
100
AcDbText
 10
97.90000417
 20
12.3500021
 30
0.0
 40
3.0
  1
8
 41
0.8333333333333334
  7
dcStyle0
 72
     5
 11
100.40000417
 21
12.3500021
 31
0.0
100
AcDbText
  0
TEXT
  5
579
330
1F
100
AcDbEntity
  8
24
 62
     2
100
AcDbText
 10
100.40000421
 20
12.3500021
 30
0.0
 40
3.3
  1
×
 41
0.7575757575757576
  7
dcStyle0
 72
     5
 11
103.40000421
 21
12.3500021
 31
0.0
100
AcDbText
  0
TEXT
  5
57A
330
1F
100
AcDbEntity
  8
24
 62
     2
100
AcDbText
 10
101.40000422
 20
12.3500021
 30
0.0
 40
3.0
  1
 180 
 41
0.8333333355555557
  7
dcStyle0
 72
     5
 11
113.90000442
 21
12.3500021
 31
0.0
100
AcDbText
  0
TEXT
  5
57B
330
1F
100
AcDbEntity
  8
24
 62
     2
100
AcDbText
 10
111.90000438
 20
12.3500021
 30
0.0
 40
3.3
  1
×
 41
0.7575757575757576
  7
dcStyle0
 72
     5
 11
114.90000438
 21
12.3500021
 31
0.0
100
AcDbText
  0
TEXT
  5
57C
330
1F
100
AcDbEntity
  8
24
 62
     2
100
AcDbText
 10
114.90000442
 20
12.3500021
 30
0.0
 40
3.0
  1
Z
 41
0.8333333333333334
  7
dcStyle0
 72
     5
 11
117.40000442
 21
12.3500021
 31
0.0
100
AcDbText
  0
TEXT
  5
57D
330
1F
100
AcDbEntity
  8
24
 62
     2
100
AcDbText
 10
100.40000421
 20
7.35000202
 30
0.0
 40
3.0
  1
 110 
 41
0.8333333355555557
  7
dcStyle0
 72
     5
 11
112.90000441
 21
7.35000202
 31
0.0
100
AcDbText
  0
TEXT
  5
57E
330
1F
100
AcDbEntity
  8
24
 62
     2
100
AcDbText
 10
125.40000458
 20
9.85000206
 30
0.0
 40
3.3
  1
＝
 41
0.7575757575757576
  7
dcStyle0
 72
     5
 11
128.40000458
 21
9.85000206
 31
0.0
100
AcDbText
  0
TEXT
  5
57F
330
1F
100
AcDbEntity
  8
24
 62
     2
100
AcDbText
 10
128.40000463
 20
9.850002060000001
 30
0.0
 40
3.0
  1
13.091
 41
0.8333333351851846
  7
dcStyle0
 72
     5
 11
143.40000483
 21
9.850002060000001
 31
0.0
100
AcDbText
  0
TEXT
  5
580
330
1F
100
AcDbEntity
  8
24
 62
     2
100
AcDbText
 10
143.40000485
 20
9.85000206
 30
0.0
 40
3.3
  1
×
 41
0.7575757575757576
  7
dcStyle0
 72
     5
 11
146.40000485
 21
9.85000206
 31
0.0
100
AcDbText
  0
TEXT
  5
581
330
1F
100
AcDbEntity
  8
24
 62
     2
100
AcDbText
 10
146.40000489
 20
9.850002060000001
 30
0.0
 40
3.0
  1
Z
 41
0.8333333333333334
  7
dcStyle0
 72
     5
 11
148.90000489
 21
9.850002060000001
 31
0.0
100
AcDbText
  0
TEXT
  5
582
330
1F
100
AcDbEntity
  8
24
 62
     2
100
AcDbText
 10
70.40000376
 20
0.8500019199999997
 30
0.0
 40
3.3
  1
Ｚ　＝　Ｎ〔Ｚ〕＝
 41
0.6313131346234511
  7
dcStyle0
 72
     5
 11
92.90000408
 21
0.8500019199999997
 31
0.0
100
AcDbText
  0
TEXT
  5
583
330
1F
100
AcDbEntity
  8
24
 62
     2
100
AcDbText
 10
90.90000407000001
 20
0.85000192
 30
0.0
 40
3.0
  1
 34 
 41
0.8333333354166671
  7
dcStyle0
 72
     5
 11
100.90000422
 21
0.85000192
 31
0.0
100
AcDbText
  0
TEXT
  5
584
330
1F
100
AcDbEntity
  8
24
 62
     2
100
AcDbText
 10
98.90000419
 20
0.8500019199999997
 30
0.0
 40
3.3
  1
×
 41
0.7575757575757576
  7
dcStyle0
 72
     5
 11
101.90000419
 21
0.8500019199999997
 31
0.0
100
AcDbText
  0
TEXT
  5
585
330
1F
100
AcDbEntity
  8
24
 62
     2
100
AcDbText
 10
101.90000423
 20
0.85000192
 30
0.0
 40
3.0
  1
0.485
 41
0.8333333355555557
  7
dcStyle0
 72
     5
 11
114.40000443
 21
0.85000192
 31
0.0
100
AcDbText
  0
TEXT
  5
586
330
1F
100
AcDbEntity
  8
24
 62
     2
100
AcDbText
 10
114.30000442
 20
0.8500019199999997
 30
0.0
 40
3.3
  1
×
 41
0.8333333333333326
  7
dcStyle0
 72
     5
 11
117.60000442
 21
0.8500019199999997
 31
0.0
100
AcDbText
  0
TEXT
  5
587
330
1F
100
AcDbEntity
  8
24
 62
     2
100
AcDbText
 10
117.80000447
 20
0.85000192
 30
0.0
 40
3.0
  1
10
 41
0.8333333352777776
  7
dcStyle0
 72
     5
 11
122.80000454
 21
0.85000192
 31
0.0
100
AcDbText
  0
TEXT
  5
588
330
1F
100
AcDbEntity
  8
24
 62
     2
100
AcDbText
 10
122.80000454
 20
2.85000195
 30
0.0
 40
1.8
  1
3
 41
0.8333333333333333
  7
dcStyle0
 72
     5
 11
124.30000454
 21
2.85000195
 31
0.0
100
AcDbText
  0
TEXT
  5
589
330
1F
100
AcDbEntity
  8
24
 62
     2
100
AcDbText
 10
125.30000458
 20
0.85000192
 30
0.0
 40
3.0
  1
=
  7
dcStyle0
 72
     5
 11
128.30000458
 21
0.85000192
 31
0.0
100
AcDbText
  0
TEXT
  5
58A
330
1F
100
AcDbEntity
  8
24
 62
     2
100
AcDbText
 10
128.30000462
 20
0.85000192
 30
0.0
 40
3.0
  1
16.49
 41
0.8333333355555547
  7
dcStyle0
 72
     5
 11
140.80000482
 21
0.85000192
 31
0.0
100
AcDbText
  0
TEXT
  5
58B
330
1F
100
AcDbEntity
  8
24
 62
     2
100
AcDbText
 10
140.70000481
 20
0.8500019199999997
 30
0.0
 40
3.3
  1
×
 41
0.8333333333333363
  7
dcStyle0
 72
     5
 11
144.00000481
 21
0.8500019199999997
 31
0.0
100
AcDbText
  0
TEXT
  5
58C
330
1F
100
AcDbEntity
  8
24
 62
     2
100
AcDbText
 10
144.20000486
 20
0.85000192
 30
0.0
 40
3.0
  1
10
 41
0.8333333352777776
  7
dcStyle0
 72
     5
 11
149.20000493
 21
0.85000192
 31
0.0
100
AcDbText
  0
TEXT
  5
58D
330
1F
100
AcDbEntity
  8
24
 62
     2
100
AcDbText
 10
149.20000494
 20
2.85000195
 30
0.0
 40
1.8
  1
3
 41
0.8333333333333333
  7
dcStyle0
 72
     5
 11
150.70000494
 21
2.85000195
 31
0.0
100
AcDbText
  0
TEXT
  5
58E
330
1F
100
AcDbEntity
  8
24
 62
     2
100
AcDbText
 10
65.40000369
 20
-6.149998180000001
 30
0.0
 40
3.3
  1
∴　Ｗ　＝
 41
0.6313131350372412
  7
dcStyle0
 72
     5
 11
77.90000389000001
 21
-6.149998180000001
 31
0.0
100
AcDbText
  0
TEXT
  5
58F
330
1F
100
AcDbEntity
  8
24
 62
     2
100
AcDbText
 10
77.90000387
 20
-6.14999818
 30
0.0
 40
3.0
  1
 13.091
 41
0.8333333352380948
  7
dcStyle0
 72
     5
 11
95.40000411
 21
-6.14999818
 31
0.0
100
AcDbText
  0
TEXT
  5
590
330
1F
100
AcDbEntity
  8
24
 62
     2
100
AcDbText
 10
95.30000413
 20
-6.149998180000001
 30
0.0
 40
3.3
  1
×
 41
0.8333333333333326
  7
dcStyle0
 72
     5
 11
98.60000413
 21
-6.149998180000001
 31
0.0
100
AcDbText
  0
TEXT
  5
591
330
1F
100
AcDbEntity
  8
24
 62
     2
100
AcDbText
 10
98.80000418
 20
-6.14999818
 30
0.0
 40
3.0
  1
16.49
 41
0.8333333355555557
  7
dcStyle0
 72
     5
 11
111.30000438
 21
-6.14999818
 31
0.0
100
AcDbText
  0
TEXT
  5
592
330
1F
100
AcDbEntity
  8
24
 62
     2
100
AcDbText
 10
111.20000437
 20
-6.149998180000001
 30
0.0
 40
3.3
  1
×
 41
0.8333333333333326
  7
dcStyle0
 72
     5
 11
114.50000437
 21
-6.149998180000001
 31
0.0
100
AcDbText
  0
TEXT
  5
593
330
1F
100
AcDbEntity
  8
24
 62
     2
100
AcDbText
 10
114.70000442
 20
-6.14999818
 30
0.0
 40
3.0
  1
10
 41
0.8333333352777776
  7
dcStyle0
 72
     5
 11
119.70000449
 21
-6.14999818
 31
0.0
100
AcDbText
  0
TEXT
  5
594
330
1F
100
AcDbEntity
  8
24
 62
     2
100
AcDbText
 10
119.7000045
 20
-4.149998150000001
 30
0.0
 40
1.8
  1
3
 41
0.8333333333333333
  7
dcStyle0
 72
     5
 11
121.2000045
 21
-4.149998150000001
 31
0.0
100
AcDbText
  0
TEXT
  5
595
330
1F
100
AcDbEntity
  8
24
 62
     2
100
AcDbText
 10
122.20000453
 20
-6.14999818
 30
0.0
 40
3.0
  1
=
  7
dcStyle0
 72
     5
 11
125.20000453
 21
-6.14999818
 31
0.0
100
AcDbText
  0
TEXT
  5
596
330
1F
100
AcDbEntity
  8
24
 62
     2
100
AcDbText
 10
125.20000458
 20
-6.14999818
 30
0.0
 40
3.0
  1
215.87
 41
0.8333333351851854
  7
dcStyle0
 72
     5
 11
140.20000478
 21
-6.14999818
 31
0.0
100
AcDbText
  0
TEXT
  5
597
330
1F
100
AcDbEntity
  8
24
 62
     2
100
AcDbText
 10
140.1000048
 20
-6.149998180000001
 30
0.0
 40
3.3
  1
×
 41
0.8333333333333363
  7
dcStyle0
 72
     5
 11
143.4000048
 21
-6.149998180000001
 31
0.0
100
AcDbText
  0
TEXT
  5
598
330
1F
100
AcDbEntity
  8
24
 62
     2
100
AcDbText
 10
143.60000485
 20
-6.14999818
 30
0.0
 40
3.0
  1
10
 41
0.8333333352777776
  7
dcStyle0
 72
     5
 11
148.60000492
 21
-6.14999818
 31
0.0
100
AcDbText
  0
TEXT
  5
599
330
1F
100
AcDbEntity
  8
24
 62
     2
100
AcDbText
 10
148.60000493
 20
-4.149998150000001
 30
0.0
 40
1.8
  1
3
 41
0.8333333333333333
  7
dcStyle0
 72
     5
 11
150.10000493
 21
-4.149998150000001
 31
0.0
100
AcDbText
  0
TEXT
  5
59A
330
1F
100
AcDbEntity
  8
24
 62
     2
100
AcDbText
 10
151.10000496
 20
-6.14999818
 30
0.0
 40
3.0
  1
(N)
 41
0.8333333355555567
  7
dcStyle0
 72
     5
 11
158.60000508
 21
-6.14999818
 31
0.0
100
AcDbText
  0
TEXT
  5
59B
330
1F
100
AcDbEntity
  8
24
 62
     2
100
AcDbText
 10
70.40000376
 20
-13.14999828
 30
0.0
 40
3.0
  1
A = 
 41
0.8333333354166671
  7
dcStyle0
 72
     5
 11
80.40000391000001
 21
-13.14999828
 31
0.0
100
AcDbText
  0
TEXT
  5
59C
330
1F
100
AcDbEntity
  8
24
 62
     2
100
AcDbText
 10
80.40000391000001
 20
-13.14999828
 30
0.0
 40
3.0
  1
0.11
 41
0.8333333354166671
  7
dcStyle0
 72
     5
 11
90.40000406000001
 21
-13.14999828
 31
0.0
100
AcDbText
  0
TEXT
  5
59D
330
1F
100
AcDbEntity
  8
24
 62
     2
100
AcDbText
 10
91.15000407000001
 20
-13.14999828
 30
0.0
 40
3.0
  1
×
 41
0.8333333333333334
  7
dcStyle0
 72
     5
 11
94.15000407000001
 21
-13.14999828
 31
0.0
100
AcDbText
  0
TEXT
  5
59E
330
1F
100
AcDbEntity
  8
24
 62
     2
100
AcDbText
 10
94.65000412
 20
-13.14999828
 30
0.0
 40
3.0
  1
1.00
 41
0.8333333354166671
  7
dcStyle0
 72
     5
 11
104.65000427
 21
-13.14999828
 31
0.0
100
AcDbText
  0
TEXT
  5
59F
330
1F
100
AcDbEntity
  8
24
 62
     2
100
AcDbText
 10
106.4000043
 20
-13.14999828
 30
0.0
 40
3.0
  1
=
  7
dcStyle0
 72
     5
 11
109.4000043
 21
-13.14999828
 31
0.0
100
AcDbText
  0
TEXT
  5
5A0
330
1F
100
AcDbEntity
  8
24
 62
     2
100
AcDbText
 10
109.90000435
 20
-13.14999828
 30
0.0
 40
3.0
  1
0.11
 41
0.8333333354166671
  7
dcStyle0
 72
     5
 11
119.9000045
 21
-13.14999828
 31
0.0
100
AcDbText
  0
TEXT
  5
5A1
330
1F
100
AcDbEntity
  8
24
 62
     2
100
AcDbText
 10
120.90000451
 20
-13.14999828
 30
0.0
 40
3.0
  1
(m
 41
0.8333333352777776
  7
dcStyle0
 72
     5
 11
125.90000458
 21
-13.14999828
 31
0.0
100
AcDbText
  0
TEXT
  5
5A2
330
1F
100
AcDbEntity
  8
24
 62
     2
100
AcDbText
 10
125.90000459
 20
-11.14999826
 30
0.0
 40
1.8
  1
2
 41
0.8333333333333333
  7
dcStyle0
 72
     5
 11
127.40000459
 21
-11.14999826
 31
0.0
100
AcDbText
  0
TEXT
  5
5A3
330
1F
100
AcDbEntity
  8
24
 62
     2
100
AcDbText
 10
127.15000461
 20
-13.14999828
 30
0.0
 40
3.0
  1
)
  7
dcStyle0
 72
     5
 11
130.15000461
 21
-13.14999828
 31
0.0
100
AcDbText
  0
TEXT
  5
5A4
330
1F
100
AcDbEntity
  8
24
 62
     2
100
AcDbText
 10
65.40000369
 20
-23.14999843
 30
0.0
 40
3.3
  1
∴　Ｗ／Ａ＝
 41
0.6313131344165562
  7
dcStyle0
 72
     5
 11
80.40000389000001
 21
-23.14999843
 31
0.0
100
AcDbText
  0
TEXT
  5
5A5
330
1F
100
AcDbEntity
  8
24
 62
     2
100
AcDbText
 10
82.40000394000002
 20
-20.6499984
 30
0.0
 40
3.0
  1
 215.87
 41
0.8333333352380955
  7
dcStyle0
 72
     5
 11
99.90000418000002
 21
-20.6499984
 31
0.0
100
AcDbText
  0
TEXT
  5
5A6
330
1F
100
AcDbEntity
  8
24
 62
     2
100
AcDbText
 10
99.80000419999999
 20
-20.6499984
 30
0.0
 40
3.3
  1
×
 41
0.8333333333333326
  7
dcStyle0
 72
     5
 11
103.1000042
 21
-20.6499984
 31
0.0
100
AcDbText
  0
TEXT
  5
5A7
330
1F
100
AcDbEntity
  8
24
 62
     2
100
AcDbText
 10
103.30000425
 20
-20.6499984
 30
0.0
 40
3.0
  1
10
 41
0.8333333352777776
  7
dcStyle0
 72
     5
 11
108.30000432
 21
-20.6499984
 31
0.0
100
AcDbText
  0
TEXT
  5
5A8
330
1F
100
AcDbEntity
  8
24
 62
     2
100
AcDbText
 10
108.30000433
 20
-18.64999837
 30
0.0
 40
1.8
  1
3
 41
0.8333333333333333
  7
dcStyle0
 72
     5
 11
109.80000433
 21
-18.64999837
 31
0.0
100
AcDbText
  0
TEXT
  5
5A9
330
1F
100
AcDbEntity
  8
24
 62
     2
100
AcDbText
 10
90.40000406000001
 20
-25.64999847
 30
0.0
 40
3.0
  1
0.11
 41
0.8333333354166671
  7
dcStyle0
 72
     5
 11
100.40000421
 21
-25.64999847
 31
0.0
100
AcDbText
  0
TEXT
  5
5AA
330
1F
100
AcDbEntity
  8
24
 62
     2
100
AcDbText
 10
112.15000438
 20
-23.14999843
 30
0.0
 40
3.0
  1
=
  7
dcStyle0
 72
     5
 11
115.15000438
 21
-23.14999843
 31
0.0
100
AcDbText
  0
TEXT
  5
5AB
330
1F
100
AcDbEntity
  8
24
 62
     2
100
AcDbText
 10
115.65000444
 20
-23.14999843
 30
0.0
 40
3.0
  1
 1962454 
 41
0.8333333353086418
  7
dcStyle0
 72
     5
 11
138.15000476
 21
-23.14999843
 31
0.0
100
AcDbText
  0
TEXT
  5
5AC
330
1F
100
AcDbEntity
  8
24
 62
     2
100
AcDbText
 10
138.15000477
 20
-23.14999843
 30
0.0
 40
3.0
  1
>
 41
0.7666666666666705
  7
dcStyle0
 72
     5
 11
140.45000477
 21
-23.14999843
 31
0.0
100
AcDbText
  0
TEXT
  5
5AD
330
1F
100
AcDbEntity
  8
24
 62
     2
100
AcDbText
 10
140.4500048
 20
-23.14999843
 30
0.0
 40
3.0
  1
 5000 
 41
0.7666666692592593
  7
dcStyle0
 72
     5
 11
154.250005
 21
-23.14999843
 31
0.0
100
AcDbText
  0
TEXT
  5
5AE
330
1F
100
AcDbEntity
  8
24
 62
     2
100
AcDbText
 10
154.25000501
 20
-23.14999843
 30
0.0
 40
3.0
  1
(N/m
 41
0.7666666695833327
  7
dcStyle0
 72
     5
 11
163.45000516
 21
-23.14999843
 31
0.0
100
AcDbText
  0
TEXT
  5
5AF
330
1F
100
AcDbEntity
  8
24
 62
     2
100
AcDbText
 10
163.45000515
 20
-21.1499984
 30
0.0
 40
1.8
  1
2
 41
0.8333333333333333
  7
dcStyle0
 72
     5
 11
164.95000515
 21
-21.1499984
 31
0.0
100
AcDbText
  0
TEXT
  5
5B0
330
1F
100
AcDbEntity
  8
24
 62
     2
100
AcDbText
 10
164.70000517
 20
-23.14999843
 30
0.0
 40
3.0
  1
)
  7
dcStyle0
 72
     5
 11
167.70000517
 21
-23.14999843
 31
0.0
100
AcDbText
  0
TEXT
  5
5B1
330
1F
100
AcDbEntity
  8
24
 62
     2
100
AcDbText
 10
85.30000398000001
 20
-39.14999867
 30
0.0
 40
3.3
  1
以上より群集荷重は充分である
 41
0.8413461557802923
  7
dcStyle0
 72
     5
 11
134.30000469
 21
-39.14999867
 31
0.0
100
AcDbText
  0
LINE
  5
5B2
330
1F
100
AcDbEntity
  8
24
  6
Continuous
 62
     4
370
    25
100
AcDbLine
 10
92.40000408887863
 20
94.85000332444906
 30
0.0
 11
87.40000401437283
 21
94.85000332444906
 31
0.0
  0
LINE
  5
5B3
330
1F
100
AcDbEntity
  8
24
  6
Continuous
 62
     4
370
    25
100
AcDbLine
 10
87.40000401437283
 20
94.85000332444906
 30
0.0
 11
87.40000401437283
 21
90.85000326484442
 31
0.0
  0
LINE
  5
5B4
330
1F
100
AcDbEntity
  8
24
  6
Continuous
 62
     4
370
    25
100
AcDbLine
 10
87.40000401437283
 20
90.85000326484442
 30
0.0
 11
145.4000048786402
 21
90.85000326484442
 31
0.0
  0
LINE
  5
5B5
330
1F
100
AcDbEntity
  8
24
  6
Continuous
 62
     4
370
    25
100
AcDbLine
 10
145.4000048786402
 20
90.85000326484442
 30
0.0
 11
145.4000048786402
 21
94.85000332444906
 31
0.0
  0
LINE
  5
5B6
330
1F
100
AcDbEntity
  8
24
  6
Continuous
 62
     4
370
    25
100
AcDbLine
 10
145.4000048786402
 20
94.85000332444906
 30
0.0
 11
140.4000048041344
 21
94.85000332444906
 31
0.0
  0
LINE
  5
5B7
330
1F
100
AcDbEntity
  8
24
  6
Continuous
 62
     4
370
    25
100
AcDbLine
 10
69.40000374615192
 20
21.35000222921371
 30
0.0
 11
68.40000373125076
 21
21.35000222921371
 31
0.0
  0
LINE
  5
5B8
330
1F
100
AcDbEntity
  8
24
  6
Continuous
 62
     4
370
    25
100
AcDbLine
 10
68.40000373125076
 20
21.35000222921371
 30
0.0
 11
68.40000373125076
 21
18.85000219196081
 31
0.0
  0
LINE
  5
5B9
330
1F
100
AcDbEntity
  8
24
  6
Continuous
 62
     4
370
    25
100
AcDbLine
 10
68.40000373125076
 20
18.85000219196081
 30
0.0
 11
85.90000399202108
 21
18.85000219196081
 31
0.0
  0
LINE
  5
5BA
330
1F
100
AcDbEntity
  8
24
  6
Continuous
 62
     4
370
    25
100
AcDbLine
 10
85.90000399202108
 20
18.85000219196081
 30
0.0
 11
85.90000399202108
 21
21.35000222921371
 31
0.0
  0
LINE
  5
5BB
330
1F
100
AcDbEntity
  8
24
  6
Continuous
 62
     4
370
    25
100
AcDbLine
 10
85.90000399202108
 20
21.35000222921371
 30
0.0
 11
84.90000397711992
 21
21.35000222921371
 31
0.0
  0
LINE
  5
5BC
330
1F
100
AcDbEntity
  8
24
  6
Continuous
 62
     4
370
    25
100
AcDbLine
 10
80.4000039100647
 20
11.3500020802021
 30
0.0
 11
92.40000408887863
 21
11.3500020802021
 31
0.0
  0
LINE
  5
5BD
330
1F
100
AcDbEntity
  8
24
  6
Continuous
 62
     4
370
    25
100
AcDbLine
 10
96.90000415593386
 20
11.3500020802021
 30
0.0
 11
123.9000045582652
 21
11.3500020802021
 31
0.0
  0
LINE
  5
5BE
330
1F
100
AcDbEntity
  8
24
  6
Continuous
 62
     4
370
    25
100
AcDbLine
 10
82.40000393986702
 20
-21.64999841153622
 30
0.0
 11
111.4000043720007
 21
-21.64999841153622
 31
0.0
  0
LINE
  5
5BF
330
1F
100
AcDbEntity
  8
24
  6
Continuous
 62
     4
370
    25
100
AcDbLine
 10
83.40000395476818
 20
-40.1499986872077
 30
0.0
 11
134.4000047147274
 21
-40.1499986872077
 31
0.0
  0
ARC
  5
5C0
330
1F
100
AcDbEntity
  8
24
  6
Continuous
 62
     4
370
    25
100
AcDbCircle
 10
60.40000361204147
 20
101.8500034287572
 30
0.0
 40
5.000000074505806
100
AcDbArc
 50
270.0000000000006
 51
0.0000000000008142
  0
LINE
  5
5C1
330
1F
100
AcDbEntity
  8
24
  6
Continuous
 62
     4
370
    25
100
AcDbLine
 10
60.40000524601599
 20
96.85000335425167
 30
0.0
 11
60.40000361204147
 21
-58.1499989554286
 31
0.0
  0
ARC
  5
5C2
330
1F
100
AcDbEntity
  8
24
  6
Continuous
 62
     4
370
    25
100
AcDbCircle
 10
60.40000197806697
 20
-63.14999902993415
 30
0.0
 40
5.000000074505806
100
AcDbArc
 50
0.0
 51
90.0000000000002
  0
LINE
  5
5C3
330
1F
100
AcDbEntity
  8
24
  6
Continuous
 62
     4
370
    25
100
AcDbLine
 10
65.40000205257277
 20
-63.14999902993415
 30
0.0
 11
165.4000051766634
 21
-63.14999902993442
 31
0.0
  0
ARC
  5
5C4
330
1F
100
AcDbEntity
  8
24
  6
Continuous
 62
     4
370
    25
100
AcDbCircle
 10
170.4000052511681
 20
-63.15000229788342
 30
0.0
 40
5.000000074505806
100
AcDbArc
 50
90.0000000000002
 51
180.0000000000004
  0
LINE
  5
5C5
330
1F
100
AcDbEntity
  8
24
  6
Continuous
 62
     4
370
    25
100
AcDbLine
 10
170.4000068851426
 20
-58.15000222337789
 30
0.0
 11
170.4000052511692
 21
96.85000335425138
 31
0.0
  0
ARC
  5
5C6
330
1F
100
AcDbEntity
  8
24
  6
Continuous
 62
     4
370
    25
100
AcDbCircle
 10
170.4000101530927
 20
101.8500034287548
 30
0.0
 40
5.000000074505806
100
AcDbArc
 50
180.0000000000004
 51
270.0000000000006
  0
LINE
  5
5C7
330
1F
100
AcDbEntity
  8
24
  6
Continuous
 62
     4
370
    25
100
AcDbLine
 10
165.400010078588
 20
101.8500066967038
 30
0.0
 11
65.40000368654728
 21
101.8500034287572
 31
0.0
  0
VIEWPORT
  5
78
330
1B
100
AcDbEntity
 67
     1
  8
0
100
AcDbViewport
 10
-4.19999735057354
 20
-11.69999826326963
 30
0.0
 40
1066.800015896559
 41
699.300010420382
 68
     1
 69
     1
 12
-4.19999735057354
 22
-11.69999826326963
 13
0.0
 23
0.0
 14
0.5
 24
0.5
 15
0.0
 25
0.0
 16
0.0
 26
0.0
 36
1.0
 17
0.0
 27
0.0
 37
0.0
 42
50.0
 43
0.0
 44
0.0
 45
699.300010420382
 50
0.0
 51
0.0
 72
   100
 90
   557152
  1

281
     0
 71
     1
 74
     0
110
0.0
120
0.0
130
0.0
111
1.0
121
0.0
131
0.0
112
0.0
122
1.0
132
0.0
 79
     0
146
0.0
  0
ENDSEC
  0
SECTION
  2
OBJECTS
  0
DICTIONARY
  5
C
330
0
100
AcDbDictionary
281
     1
  3
ACAD_GROUP
350
D
  3
ACAD_LAYOUT
350
1A
  3
ACAD_MATERIAL
350
3B
  3
ACAD_MLEADERSTYLE
350
5EC
  3
ACAD_MLINESTYLE
350
17
  3
ACAD_PLOTSETTINGS
350
19
  3
ACAD_PLOTSTYLENAME
350
E
  3
ACAD_SCALELIST
350
5C8
  3
ACAD_VISUALSTYLE
350
2A
  3
AcDbVariableDictionary
350
5EA
  0
DICTIONARY
  5
D
102
{ACAD_REACTORS
330
C
102
}
330
C
100
AcDbDictionary
281
     1
  0
DICTIONARY
  5
1A
102
{ACAD_REACTORS
330
C
102
}
330
C
100
AcDbDictionary
281
     1
  3
Layout1
350
1E
  3
Layout2
350
26
  3
Model
350
22
  0
DICTIONARY
  5
3B
102
{ACAD_REACTORS
330
C
102
}
330
C
100
AcDbDictionary
281
     1
  3
ByBlock
350
3D
  3
ByLayer
350
3C
  3
Global
350
3E
  0
DICTIONARY
  5
5EC
102
{ACAD_REACTORS
330
C
102
}
330
C
100
AcDbDictionary
281
     1
  0
DICTIONARY
  5
17
102
{ACAD_REACTORS
330
C
102
}
330
C
100
AcDbDictionary
281
     1
  3
Standard
350
18
  0
DICTIONARY
  5
19
102
{ACAD_REACTORS
330
C
102
}
330
C
100
AcDbDictionary
281
     1
  0
ACDBDICTIONARYWDFLT
  5
E
102
{ACAD_REACTORS
330
C
102
}
330
C
100
AcDbDictionary
281
     1
  3
Normal
350
F
100
AcDbDictionaryWithDefault
340
F
  0
DICTIONARY
  5
5C8
102
{ACAD_REACTORS
330
C
102
}
330
C
100
AcDbDictionary
281
     1
  3
A0
350
5C9
  3
A1
350
5CA
  3
A2
350
5CB
  3
A3
350
5CC
  3
A4
350
5CD
  3
A5
350
5CE
  3
A6
350
5CF
  3
A7
350
5D0
  3
A8
350
5D1
  3
A9
350
5D2
  3
B0
350
5D3
  3
B1
350
5D4
  3
B2
350
5D5
  3
B3
350
5D6
  3
B4
350
5D7
  3
B5
350
5D8
  3
B6
350
5D9
  3
B7
350
5DA
  3
B8
350
5DB
  3
B9
350
5DC
  3
C0
350
5DD
  3
C1
350
5DE
  3
C2
350
5DF
  3
C3
350
5E0
  3
C4
350
5E1
  3
C5
350
5E2
  3
C6
350
5E3
  3
C7
350
5E4
  3
C8
350
5E5
  3
C9
350
5E6
  3
D0
350
5E7
  3
D1
350
5E8
  3
D2
350
5E9
  0
DICTIONARY
  5
2A
102
{ACAD_REACTORS
330
C
102
}
330
C
100
AcDbDictionary
281
     1
  3
2dWireframe
350
2F
  3
3D Hidden
350
31
  3
3dWireframe
350
30
  3
Basic
350
32
  3
Brighten
350
36
  3
ColorChange
350
3A
  3
Conceptual
350
34
  3
Dim
350
35
  3
Facepattern
350
39
  3
Flat
350
2B
  3
FlatWithEdges
350
2C
  3
Gouraud
350
2D
  3
GouraudWithEdges
350
2E
  3
Linepattern
350
38
  3
Realistic
350
33
  3
Thicken
350
37
  0
DICTIONARY
  5
5EA
102
{ACAD_REACTORS
330
C
102
}
330
C
100
AcDbDictionary
281
     1
  3
CANNOSCALE
350
5ED
  3
DIMASSOC
350
5EE
  3
HIDETEXT
350
5EF
  0
LAYOUT
  5
1E
102
{ACAD_REACTORS
330
1A
102
}
330
1A
100
AcDbPlotSettings
  1

  2
none_device
  4

  6

 40
0.0
 41
0.0
 42
0.0
 43
0.0
 44
0.0
 45
0.0
 46
0.0
 47
0.0
 48
0.0
 49
0.0
140
0.0
141
0.0
142
1.0
143
1.0
 70
   688
 72
     0
 73
     0
 74
     5
  7

 75
    16
147
1.0
148
0.0
149
0.0
100
AcDbLayout
  1
Layout1
 70
     0
 71
     1
 10
0.0
 20
0.0
 11
12.0
 21
9.0
 12
0.0
 22
0.0
 32
0.0
 14
1.000000000000000E+20
 24
1.000000000000000E+20
 34
1.000000000000000E+20
 15
-1.000000000000000E+20
 25
-1.000000000000000E+20
 35
-1.000000000000000E+20
146
0.0
 13
0.0
 23
0.0
 33
0.0
 16
1.0
 26
0.0
 36
0.0
 17
0.0
 27
1.0
 37
0.0
 76
     0
330
1B
331
78
  0
LAYOUT
  5
26
102
{ACAD_REACTORS
330
1A
102
}
330
1A
100
AcDbPlotSettings
  1

  2
none_device
  4

  6

 40
0.0
 41
0.0
 42
0.0
 43
0.0
 44
0.0
 45
0.0
 46
0.0
 47
0.0
 48
0.0
 49
0.0
140
0.0
141
0.0
142
1.0
143
1.0
 70
   688
 72
     0
 73
     0
 74
     5
  7

 75
    16
147
1.0
148
0.0
149
0.0
100
AcDbLayout
  1
Layout2
 70
     1
 71
     2
 10
0.0
 20
0.0
 11
0.0
 21
0.0
 12
0.0
 22
0.0
 32
0.0
 14
0.0
 24
0.0
 34
0.0
 15
0.0
 25
0.0
 35
0.0
146
0.0
 13
0.0
 23
0.0
 33
0.0
 16
1.0
 26
0.0
 36
0.0
 17
0.0
 27
1.0
 37
0.0
 76
     0
330
23
  0
LAYOUT
  5
22
102
{ACAD_REACTORS
330
1A
102
}
330
1A
100
AcDbPlotSettings
  1

  2
none_device
  4

  6

 40
0.0
 41
0.0
 42
0.0
 43
0.0
 44
0.0
 45
0.0
 46
0.0
 47
0.0
 48
0.0
 49
0.0
140
0.0
141
0.0
142
1.0
143
1.0
 70
  1712
 72
     0
 73
     0
 74
     0
  7

 75
     0
147
1.0
148
0.0
149
0.0
100
AcDbLayout
  1
Model
 70
     1
 71
     0
 10
-182.0
 20
-128.5
 11
182.0
 21
128.5
 12
0.0
 22
0.0
 32
0.0
 14
-537.6000052988529
 24
-361.3500034734607
 34
0.0
 15
529.2000105977058
 25
337.9500069469214
 35
0.0
146
0.0
 13
0.0
 23
0.0
 33
0.0
 16
1.0
 26
0.0
 36
0.0
 17
0.0
 27
1.0
 37
0.0
 76
     0
330
1F
331
29
  0
MATERIAL
  5
3D
102
{ACAD_REACTORS
330
3B
102
}
102
{ACAD_XDICTIONARY
360
612
102
}
330
3B
100
AcDbMaterial
  1
ByBlock
  0
MATERIAL
  5
3C
102
{ACAD_REACTORS
330
3B
102
}
102
{ACAD_XDICTIONARY
360
610
102
}
330
3B
100
AcDbMaterial
  1
ByLayer
  0
MATERIAL
  5
3E
102
{ACAD_REACTORS
330
3B
102
}
102
{ACAD_XDICTIONARY
360
614
102
}
330
3B
100
AcDbMaterial
  1
Global
  0
MLINESTYLE
  5
18
102
{ACAD_REACTORS
330
17
102
}
330
17
100
AcDbMlineStyle
  2
Standard
 70
     0
  3

 62
   256
 51
90.0
 52
90.0
 71
     2
 49
0.5
 62
   256
  6
BYLAYER
 49
-0.5
 62
   256
  6
BYLAYER
  0
ACDBPLACEHOLDER
  5
F
102
{ACAD_REACTORS
330
E
102
}
330
E
  0
SCALE
  5
5C9
102
{ACAD_REACTORS
330
5C8
102
}
330
5C8
100
AcDbScale
 70
     0
300
1:1
140
1.0
141
1.0
290
     1
  0
SCALE
  5
5CA
102
{ACAD_REACTORS
330
5C8
102
}
330
5C8
100
AcDbScale
 70
     0
300
1:2
140
1.0
141
2.0
290
     0
  0
SCALE
  5
5CB
102
{ACAD_REACTORS
330
5C8
102
}
330
5C8
100
AcDbScale
 70
     0
300
1:4
140
1.0
141
4.0
290
     0
  0
SCALE
  5
5CC
102
{ACAD_REACTORS
330
5C8
102
}
330
5C8
100
AcDbScale
 70
     0
300
1:5
140
1.0
141
5.0
290
     0
  0
SCALE
  5
5CD
102
{ACAD_REACTORS
330
5C8
102
}
330
5C8
100
AcDbScale
 70
     0
300
1:8
140
1.0
141
8.0
290
     0
  0
SCALE
  5
5CE
102
{ACAD_REACTORS
330
5C8
102
}
330
5C8
100
AcDbScale
 70
     0
300
1:10
140
1.0
141
10.0
290
     0
  0
SCALE
  5
5CF
102
{ACAD_REACTORS
330
5C8
102
}
330
5C8
100
AcDbScale
 70
     0
300
1:16
140
1.0
141
16.0
290
     0
  0
SCALE
  5
5D0
102
{ACAD_REACTORS
330
5C8
102
}
330
5C8
100
AcDbScale
 70
     0
300
1:20
140
1.0
141
20.0
290
     0
  0
SCALE
  5
5D1
102
{ACAD_REACTORS
330
5C8
102
}
330
5C8
100
AcDbScale
 70
     0
300
1:30
140
1.0
141
30.0
290
     0
  0
SCALE
  5
5D2
102
{ACAD_REACTORS
330
5C8
102
}
330
5C8
100
AcDbScale
 70
     0
300
1:40
140
1.0
141
40.0
290
     0
  0
SCALE
  5
5D3
102
{ACAD_REACTORS
330
5C8
102
}
330
5C8
100
AcDbScale
 70
     0
300
1:50
140
1.0
141
50.0
290
     0
  0
SCALE
  5
5D4
102
{ACAD_REACTORS
330
5C8
102
}
330
5C8
100
AcDbScale
 70
     0
300
1:100
140
1.0
141
100.0
290
     0
  0
SCALE
  5
5D5
102
{ACAD_REACTORS
330
5C8
102
}
330
5C8
100
AcDbScale
 70
     0
300
2:1
140
2.0
141
1.0
290
     0
  0
SCALE
  5
5D6
102
{ACAD_REACTORS
330
5C8
102
}
330
5C8
100
AcDbScale
 70
     0
300
4:1
140
4.0
141
1.0
290
     0
  0
SCALE
  5
5D7
102
{ACAD_REACTORS
330
5C8
102
}
330
5C8
100
AcDbScale
 70
     0
300
8:1
140
8.0
141
1.0
290
     0
  0
SCALE
  5
5D8
102
{ACAD_REACTORS
330
5C8
102
}
330
5C8
100
AcDbScale
 70
     0
300
10:1
140
10.0
141
1.0
290
     0
  0
SCALE
  5
5D9
102
{ACAD_REACTORS
330
5C8
102
}
330
5C8
100
AcDbScale
 70
     0
300
100:1
140
100.0
141
1.0
290
     0
  0
SCALE
  5
5DA
102
{ACAD_REACTORS
330
5C8
102
}
330
5C8
100
AcDbScale
 70
     0
300
1/128" = 1'-0"
140
0.0078125
141
12.0
290
     0
  0
SCALE
  5
5DB
102
{ACAD_REACTORS
330
5C8
102
}
330
5C8
100
AcDbScale
 70
     0
300
1/64" = 1'-0"
140
0.015625
141
12.0
290
     0
  0
SCALE
  5
5DC
102
{ACAD_REACTORS
330
5C8
102
}
330
5C8
100
AcDbScale
 70
     0
300
1/32" = 1'-0"
140
0.03125
141
12.0
290
     0
  0
SCALE
  5
5DD
102
{ACAD_REACTORS
330
5C8
102
}
330
5C8
100
AcDbScale
 70
     0
300
1/16" = 1'-0"
140
0.0625
141
12.0
290
     0
  0
SCALE
  5
5DE
102
{ACAD_REACTORS
330
5C8
102
}
330
5C8
100
AcDbScale
 70
     0
300
3/32" = 1'-0"
140
0.09375
141
12.0
290
     0
  0
SCALE
  5
5DF
102
{ACAD_REACTORS
330
5C8
102
}
330
5C8
100
AcDbScale
 70
     0
300
1/8" = 1'-0"
140
0.125
141
12.0
290
     0
  0
SCALE
  5
5E0
102
{ACAD_REACTORS
330
5C8
102
}
330
5C8
100
AcDbScale
 70
     0
300
3/16" = 1'-0"
140
0.1875
141
12.0
290
     0
  0
SCALE
  5
5E1
102
{ACAD_REACTORS
330
5C8
102
}
330
5C8
100
AcDbScale
 70
     0
300
1/4" = 1'-0"
140
0.25
141
12.0
290
     0
  0
SCALE
  5
5E2
102
{ACAD_REACTORS
330
5C8
102
}
330
5C8
100
AcDbScale
 70
     0
300
3/8" = 1'-0"
140
0.375
141
12.0
290
     0
  0
SCALE
  5
5E3
102
{ACAD_REACTORS
330
5C8
102
}
330
5C8
100
AcDbScale
 70
     0
300
1/2" = 1'-0"
140
0.5
141
12.0
290
     0
  0
SCALE
  5
5E4
102
{ACAD_REACTORS
330
5C8
102
}
330
5C8
100
AcDbScale
 70
     0
300
3/4" = 1'-0"
140
0.75
141
12.0
290
     0
  0
SCALE
  5
5E5
102
{ACAD_REACTORS
330
5C8
102
}
330
5C8
100
AcDbScale
 70
     0
300
1" = 1'-0"
140
1.0
141
12.0
290
     0
  0
SCALE
  5
5E6
102
{ACAD_REACTORS
330
5C8
102
}
330
5C8
100
AcDbScale
 70
     0
300
1-1/2" = 1'-0"
140
1.5
141
12.0
290
     0
  0
SCALE
  5
5E7
102
{ACAD_REACTORS
330
5C8
102
}
330
5C8
100
AcDbScale
 70
     0
300
3" = 1'-0"
140
3.0
141
12.0
290
     0
  0
SCALE
  5
5E8
102
{ACAD_REACTORS
330
5C8
102
}
330
5C8
100
AcDbScale
 70
     0
300
6" = 1'-0"
140
6.0
141
12.0
290
     0
  0
SCALE
  5
5E9
102
{ACAD_REACTORS
330
5C8
102
}
330
5C8
100
AcDbScale
 70
     0
300
1'-0" = 1'-0"
140
12.0
141
12.0
290
     0
  0
VISUALSTYLE
  5
2F
102
{ACAD_REACTORS
330
2A
102
}
102
{ACAD_XDICTIONARY
360
5F8
102
}
330
2A
100
AcDbVisualStyle
  2
2dWireframe
 70
     4
 71
     0
 72
     2
 73
     0
 90
        0
 40
-0.6
 41
-30.0
 62
     5
 63
     7
 74
     1
 91
        4
 64
     7
 65
   257
 75
     1
175
     1
 42
1.0
 92
        0
 66
   257
 43
1.0
 76
     1
 77
     6
 78
     2
 67
     7
 79
     5
170
     0
171
     0
290
     0
174
     0
 93
        1
 44
0.0
173
     0
291
     0
 45
0.0
1001
ACAD
1000
AcDbSavedByObjectVersion
1070
     0
  0
VISUALSTYLE
  5
31
102
{ACAD_REACTORS
330
2A
102
}
102
{ACAD_XDICTIONARY
360
5FC
102
}
330
2A
100
AcDbVisualStyle
  2
3D Hidden
 70
     6
 71
     1
 72
     2
 73
     2
 90
        0
 40
-0.6
 41
-30.0
 62
     5
 63
     7
 74
     2
 91
        2
 64
     7
 65
   257
 75
     2
175
     1
 42
40.0
 92
        0
 66
   257
 43
1.0
 76
     1
 77
     6
 78
     2
 67
     7
 79
     3
170
     0
171
     0
290
     0
174
     0
 93
        1
 44
0.0
173
     0
291
     0
 45
0.0
1001
ACAD
1000
AcDbSavedByObjectVersion
1070
     0
  0
VISUALSTYLE
  5
30
102
{ACAD_REACTORS
330
2A
102
}
102
{ACAD_XDICTIONARY
360
5FA
102
}
330
2A
100
AcDbVisualStyle
  2
3dWireframe
 70
     5
 71
     0
 72
     2
 73
     0
 90
        0
 40
-0.6
 41
-30.0
 62
     5
 63
     7
 74
     1
 91
        4
 64
     7
 65
   257
 75
     1
175
     1
 42
1.0
 92
        0
 66
   257
 43
1.0
 76
     1
 77
     6
 78
     2
 67
     7
 79
     5
170
     0
171
     0
290
     0
174
     0
 93
        1
 44
0.0
173
     0
291
     0
 45
0.0
1001
ACAD
1000
AcDbSavedByObjectVersion
1070
     0
  0
VISUALSTYLE
  5
32
102
{ACAD_REACTORS
330
2A
102
}
102
{ACAD_XDICTIONARY
360
5FE
102
}
330
2A
100
AcDbVisualStyle
  2
Basic
 70
     7
 71
     1
 72
     0
 73
     1
 90
        0
 40
-0.6
 41
-30.0
 62
     5
 63
     7
 74
     0
 91
        4
 64
     7
 65
   257
 75
     1
175
     1
 42
1.0
 92
        8
 66
     7
 43
1.0
 76
     1
 77
     6
 78
     2
 67
     7
 79
     5
170
     0
171
     0
290
     0
174
     0
 93
        1
 44
0.0
173
     0
291
     1
 45
0.0
1001
ACAD
1000
AcDbSavedByObjectVersion
1070
     0
  0
VISUALSTYLE
  5
36
102
{ACAD_REACTORS
330
2A
102
}
102
{ACAD_XDICTIONARY
360
606
102
}
330
2A
100
AcDbVisualStyle
  2
Brighten
 70
    12
 71
     2
 72
     2
 73
     0
 90
        0
 40
-0.6
 41
-30.0
 62
     5
 63
     7
 74
     1
 91
        4
 64
     7
 65
   257
 75
     1
175
     1
 42
1.0
 92
        8
 66
     7
 43
1.0
 76
     1
 77
     6
 78
     2
 67
     7
 79
     5
170
     0
171
     0
290
     0
174
     0
 93
        1
 44
50.0
173
     0
291
     1
 45
0.0
1001
ACAD
1000
AcDbSavedByObjectVersion
1070
     0
  0
VISUALSTYLE
  5
3A
102
{ACAD_REACTORS
330
2A
102
}
102
{ACAD_XDICTIONARY
360
60E
102
}
330
2A
100
AcDbVisualStyle
  2
ColorChange
 70
    16
 71
     2
 72
     2
 73
     3
 90
        0
 40
-0.6
 41
-30.0
 62
     5
 63
     8
 74
     1
 91
        4
 64
     7
 65
   257
 75
     1
175
     1
 42
1.0
 92
        8
 66
     8
 43
1.0
 76
     1
 77
     6
 78
     2
 67
     7
 79
     5
170
     0
171
     0
290
     0
174
     0
 93
        1
 44
0.0
173
     0
291
     1
 45
0.0
1001
ACAD
1000
AcDbSavedByObjectVersion
1070
     0
  0
VISUALSTYLE
  5
34
102
{ACAD_REACTORS
330
2A
102
}
102
{ACAD_XDICTIONARY
360
602
102
}
330
2A
100
AcDbVisualStyle
  2
Conceptual
 70
     9
 71
     3
 72
     2
 73
     0
 90
        0
 40
-0.6
 41
-30.0
 62
     5
 63
     7
 74
     2
 91
        2
 64
     7
 65
   257
 75
     1
175
     1
 42
40.0
 92
        8
 66
     7
 43
1.0
 76
     1
 77
     6
 78
     2
 67
     7
 79
     3
170
     0
171
     0
290
     0
174
     0
 93
        1
 44
0.0
173
     0
291
     0
 45
0.0
1001
ACAD
1000
AcDbSavedByObjectVersion
1070
     0
  0
VISUALSTYLE
  5
35
102
{ACAD_REACTORS
330
2A
102
}
102
{ACAD_XDICTIONARY
360
604
102
}
330
2A
100
AcDbVisualStyle
  2
Dim
 70
    11
 71
     2
 72
     2
 73
     0
 90
        0
 40
-0.6
 41
-30.0
 62
     5
 63
     7
 74
     1
 91
        4
 64
     7
 65
   257
 75
     1
175
     1
 42
1.0
 92
        8
 66
     7
 43
1.0
 76
     1
 77
     6
 78
     2
 67
     7
 79
     5
170
     0
171
     0
290
     0
174
     0
 93
        1
 44
-50.0
173
     0
291
     1
 45
0.0
1001
ACAD
1000
AcDbSavedByObjectVersion
1070
     0
  0
VISUALSTYLE
  5
39
102
{ACAD_REACTORS
330
2A
102
}
102
{ACAD_XDICTIONARY
360
60C
102
}
330
2A
100
AcDbVisualStyle
  2
Facepattern
 70
    15
 71
     2
 72
     2
 73
     0
 90
        0
 40
-0.6
 41
-30.0
 62
     5
 63
     7
 74
     1
 91
        4
 64
     7
 65
   257
 75
     1
175
     1
 42
1.0
 92
        8
 66
     7
 43
1.0
 76
     1
 77
     6
 78
     2
 67
     7
 79
     5
170
     0
171
     0
290
     0
174
     0
 93
        1
 44
0.0
173
     0
291
     1
 45
0.0
1001
ACAD
1000
AcDbSavedByObjectVersion
1070
     0
  0
VISUALSTYLE
  5
2B
102
{ACAD_REACTORS
330
2A
102
}
102
{ACAD_XDICTIONARY
360
5F0
102
}
330
2A
100
AcDbVisualStyle
  2
Flat
 70
     0
 71
     2
 72
     1
 73
     1
 90
        2
 40
-0.6
 41
30.0
 62
     5
 63
     7
 74
     0
 91
        4
 64
     7
 65
   257
 75
     1
175
     1
 42
1.0
 92
        8
 66
     7
 43
1.0
 76
     1
 77
     6
 78
     2
 67
     7
 79
     5
170
     0
171
     0
290
     0
174
     0
 93
       13
 44
0.0
173
     0
291
     1
 45
0.0
1001
ACAD
1000
AcDbSavedByObjectVersion
1070
     0
  0
VISUALSTYLE
  5
2C
102
{ACAD_REACTORS
330
2A
102
}
102
{ACAD_XDICTIONARY
360
5F2
102
}
330
2A
100
AcDbVisualStyle
  2
FlatWithEdges
 70
     1
 71
     2
 72
     1
 73
     1
 90
        2
 40
-0.6
 41
30.0
 62
     5
 63
     7
 74
     1
 91
        4
 64
     7
 65
   257
 75
     1
175
     1
 42
1.0
 92
        0
 66
   257
 43
1.0
 76
     1
 77
     6
 78
     2
 67
     7
 79
     5
170
     0
171
     0
290
     0
174
     0
 93
       13
 44
0.0
173
     0
291
     1
 45
0.0
1001
ACAD
1000
AcDbSavedByObjectVersion
1070
     0
  0
VISUALSTYLE
  5
2D
102
{ACAD_REACTORS
330
2A
102
}
102
{ACAD_XDICTIONARY
360
5F4
102
}
330
2A
100
AcDbVisualStyle
  2
Gouraud
 70
     2
 71
     2
 72
     2
 73
     1
 90
        2
 40
-0.6
 41
30.0
 62
     5
 63
     7
 74
     0
 91
        4
 64
     7
 65
   257
 75
     1
175
     1
 42
1.0
 92
        0
 66
     7
 43
1.0
 76
     1
 77
     6
 78
     2
 67
     7
 79
     5
170
     0
171
     0
290
     0
174
     0
 93
       13
 44
0.0
173
     0
291
     1
 45
0.0
1001
ACAD
1000
AcDbSavedByObjectVersion
1070
     0
  0
VISUALSTYLE
  5
2E
102
{ACAD_REACTORS
330
2A
102
}
102
{ACAD_XDICTIONARY
360
5F6
102
}
330
2A
100
AcDbVisualStyle
  2
GouraudWithEdges
 70
     3
 71
     2
 72
     2
 73
     1
 90
        2
 40
-0.6
 41
30.0
 62
     5
 63
     7
 74
     1
 91
        4
 64
     7
 65
   257
 75
     1
175
     1
 42
1.0
 92
        0
 66
   257
 43
1.0
 76
     1
 77
     6
 78
     2
 67
     7
 79
     5
170
     0
171
     0
290
     0
174
     0
 93
       13
 44
0.0
173
     0
291
     1
 45
0.0
1001
ACAD
1000
AcDbSavedByObjectVersion
1070
     0
  0
VISUALSTYLE
  5
38
102
{ACAD_REACTORS
330
2A
102
}
102
{ACAD_XDICTIONARY
360
60A
102
}
330
2A
100
AcDbVisualStyle
  2
Linepattern
 70
    14
 71
     2
 72
     2
 73
     0
 90
        0
 40
-0.6
 41
-30.0
 62
     5
 63
     7
 74
     1
 91
        4
 64
     7
 65
   257
 75
     7
175
     7
 42
1.0
 92
        8
 66
     7
 43
1.0
 76
     1
 77
     6
 78
     2
 67
     7
 79
     5
170
     0
171
     0
290
     0
174
     0
 93
        1
 44
0.0
173
     0
291
     1
 45
0.0
1001
ACAD
1000
AcDbSavedByObjectVersion
1070
     0
  0
VISUALSTYLE
  5
33
102
{ACAD_REACTORS
330
2A
102
}
102
{ACAD_XDICTIONARY
360
600
102
}
330
2A
100
AcDbVisualStyle
  2
Realistic
 70
     8
 71
     2
 72
     2
 73
     0
 90
        0
 40
-0.6
 41
-30.0
 62
     5
 63
     7
 74
     1
 91
        0
 64
     7
 65
   257
 75
     1
175
     1
 42
1.0
 92
        8
 66
     8
 43
1.0
 76
     1
 77
     6
 78
     2
 67
     7
 79
     5
170
     0
171
     0
290
     0
174
     0
 93
       13
 44
0.0
173
     0
291
     0
 45
0.0
1001
ACAD
1000
AcDbSavedByObjectVersion
1070
     0
  0
VISUALSTYLE
  5
37
102
{ACAD_REACTORS
330
2A
102
}
102
{ACAD_XDICTIONARY
360
608
102
}
330
2A
100
AcDbVisualStyle
  2
Thicken
 70
    13
 71
     2
 72
     2
 73
     0
 90
        0
 40
-0.6
 41
-30.0
 62
     5
 63
     7
 74
     1
 91
        4
 64
     7
 65
   257
 75
     1
175
     1
 42
1.0
 92
       12
 66
     7
 43
1.0
 76
     1
 77
     6
 78
     2
 67
     7
 79
     5
170
     0
171
     0
290
     0
174
     0
 93
        1
 44
0.0
173
     0
291
     1
 45
0.0
1001
ACAD
1000
AcDbSavedByObjectVersion
1070
     0
  0
DICTIONARYVAR
  5
5ED
102
{ACAD_REACTORS
330
5EA
102
}
330
5EA
100
DictionaryVariables
280
     0
  1
1:1
  0
DICTIONARYVAR
  5
5EE
102
{ACAD_REACTORS
330
5EA
102
}
330
5EA
100
DictionaryVariables
280
     0
  1
2
  0
DICTIONARYVAR
  5
5EF
102
{ACAD_REACTORS
330
5EA
102
}
330
5EA
100
DictionaryVariables
280
     0
  1
1
  0
DICTIONARY
  5
612
330
3D
100
AcDbDictionary
280
     1
281
     1
  3
ACAD_XREC_ROUNDTRIP
360
613
  0
DICTIONARY
  5
610
330
3C
100
AcDbDictionary
280
     1
281
     1
  3
ACAD_XREC_ROUNDTRIP
360
611
  0
DICTIONARY
  5
614
330
3E
100
AcDbDictionary
280
     1
281
     1
  3
ACAD_XREC_ROUNDTRIP
360
615
  0
DICTIONARY
  5
5F8
330
2F
100
AcDbDictionary
280
     1
281
     1
  3
ACAD_XREC_ROUNDTRIP
360
5F9
  0
DICTIONARY
  5
5FC
330
31
100
AcDbDictionary
280
     1
281
     1
  3
ACAD_XREC_ROUNDTRIP
360
5FD
  0
DICTIONARY
  5
5FA
330
30
100
AcDbDictionary
280
     1
281
     1
  3
ACAD_XREC_ROUNDTRIP
360
5FB
  0
DICTIONARY
  5
5FE
330
32
100
AcDbDictionary
280
     1
281
     1
  3
ACAD_XREC_ROUNDTRIP
360
5FF
  0
DICTIONARY
  5
606
330
36
100
AcDbDictionary
280
     1
281
     1
  3
ACAD_XREC_ROUNDTRIP
360
607
  0
DICTIONARY
  5
60E
330
3A
100
AcDbDictionary
280
     1
281
     1
  3
ACAD_XREC_ROUNDTRIP
360
60F
  0
DICTIONARY
  5
602
330
34
100
AcDbDictionary
280
     1
281
     1
  3
ACAD_XREC_ROUNDTRIP
360
603
  0
DICTIONARY
  5
604
330
35
100
AcDbDictionary
280
     1
281
     1
  3
ACAD_XREC_ROUNDTRIP
360
605
  0
DICTIONARY
  5
60C
330
39
100
AcDbDictionary
280
     1
281
     1
  3
ACAD_XREC_ROUNDTRIP
360
60D
  0
DICTIONARY
  5
5F0
330
2B
100
AcDbDictionary
280
     1
281
     1
  3
ACAD_XREC_ROUNDTRIP
360
5F1
  0
DICTIONARY
  5
5F2
330
2C
100
AcDbDictionary
280
     1
281
     1
  3
ACAD_XREC_ROUNDTRIP
360
5F3
  0
DICTIONARY
  5
5F4
330
2D
100
AcDbDictionary
280
     1
281
     1
  3
ACAD_XREC_ROUNDTRIP
360
5F5
  0
DICTIONARY
  5
5F6
330
2E
100
AcDbDictionary
280
     1
281
     1
  3
ACAD_XREC_ROUNDTRIP
360
5F7
  0
DICTIONARY
  5
60A
330
38
100
AcDbDictionary
280
     1
281
     1
  3
ACAD_XREC_ROUNDTRIP
360
60B
  0
DICTIONARY
  5
600
330
33
100
AcDbDictionary
280
     1
281
     1
  3
ACAD_XREC_ROUNDTRIP
360
601
  0
DICTIONARY
  5
608
330
37
100
AcDbDictionary
280
     1
281
     1
  3
ACAD_XREC_ROUNDTRIP
360
609
  0
XRECORD
  5
613
102
{ACAD_REACTORS
330
612
102
}
330
612
100
AcDbXrecord
280
     1
102
MATERIAL
148
0.0
149
0.0
149
0.0
 93
        0
 94
      127
282
     0
 72
     1
 77
     1
171
     1
175
     1
179
     1
273
     0
  0
XRECORD
  5
611
102
{ACAD_REACTORS
330
610
102
}
330
610
100
AcDbXrecord
280
     1
102
MATERIAL
148
0.0
149
0.0
149
0.0
 93
        0
 94
      127
282
     0
 72
     1
 77
     1
171
     1
175
     1
179
     1
273
     0
  0
XRECORD
  5
615
102
{ACAD_REACTORS
330
614
102
}
330
614
100
AcDbXrecord
280
     1
102
MATERIAL
148
0.0
149
0.0
149
0.0
 93
        0
 94
      127
282
     0
 72
     1
 77
     1
171
     1
175
     1
179
     1
273
     0
  0
XRECORD
  5
5F9
102
{ACAD_REACTORS
330
5F8
102
}
330
5F8
100
AcDbXrecord
280
     1
102
RTVSPropertyOp0
 70
     1
102
RTVSPropertyOp1
 70
     1
102
RTVSPropertyOp2
 70
     1
102
RTVSPropertyOp3
 70
     1
102
RTVSPropertyOp4
 70
     1
102
RTVSPropertyOp5
 70
     1
102
RTVSPropertyOp6
 70
     1
102
RTVSPropertyOp7
 70
     1
102
RTVSPropertyOp8
 70
     1
102
RTVSPropertyOp9
 70
     1
102
RTVSPropertyOp10
 70
     1
102
RTVSPropertyOp11
 70
     1
102
RTVSPropertyOp12
 70
     1
102
RTVSPropertyOp13
 70
     1
102
RTVSPropertyOp14
 70
     1
102
RTVSPropertyOp15
 70
     1
102
RTVSPropertyOp16
 70
     1
102
RTVSPropertyOp17
 70
     1
102
RTVSPropertyOp18
 70
     1
102
RTVSPropertyOp19
 70
     1
102
RTVSPropertyOp20
 70
     1
102
RTVSPropertyOp21
 70
     1
102
RTVSPropertyOp22
 70
     1
102
RTVSPropertyOp23
 70
     1
102
RTVSPropertyOp24
 70
     1
102
RTVSPropertyOp25
 70
     1
102
RTVSPropertyOp26
 70
     1
102
RTVSPropertyOp27
 70
     1
  0
XRECORD
  5
5FD
102
{ACAD_REACTORS
330
5FC
102
}
330
5FC
100
AcDbXrecord
280
     1
102
RTVSPropertyOp0
 70
     1
102
RTVSPropertyOp1
 70
     1
102
RTVSPropertyOp2
 70
     1
102
RTVSPropertyOp3
 70
     1
102
RTVSPropertyOp4
 70
     1
102
RTVSPropertyOp5
 70
     1
102
RTVSPropertyOp6
 70
     1
102
RTVSPropertyOp7
 70
     1
102
RTVSPropertyOp8
 70
     1
102
RTVSPropertyOp9
 70
     1
102
RTVSPropertyOp10
 70
     1
102
RTVSPropertyOp11
 70
     1
102
RTVSPropertyOp12
 70
     1
102
RTVSPropertyOp13
 70
     1
102
RTVSPropertyOp14
 70
     1
102
RTVSPropertyOp15
 70
     1
102
RTVSPropertyOp16
 70
     1
102
RTVSPropertyOp17
 70
     1
102
RTVSPropertyOp18
 70
     1
102
RTVSPropertyOp19
 70
     1
102
RTVSPropertyOp20
 70
     1
102
RTVSPropertyOp21
 70
     1
102
RTVSPropertyOp22
 70
     1
102
RTVSPropertyOp23
 70
     1
102
RTVSPropertyOp24
 70
     1
102
RTVSPropertyOp25
 70
     1
102
RTVSPropertyOp26
 70
     1
102
RTVSPropertyOp27
 70
     1
  0
XRECORD
  5
5FB
102
{ACAD_REACTORS
330
5FA
102
}
330
5FA
100
AcDbXrecord
280
     1
102
RTVSPropertyOp0
 70
     1
102
RTVSPropertyOp1
 70
     1
102
RTVSPropertyOp2
 70
     1
102
RTVSPropertyOp3
 70
     1
102
RTVSPropertyOp4
 70
     1
102
RTVSPropertyOp5
 70
     1
102
RTVSPropertyOp6
 70
     1
102
RTVSPropertyOp7
 70
     1
102
RTVSPropertyOp8
 70
     1
102
RTVSPropertyOp9
 70
     1
102
RTVSPropertyOp10
 70
     1
102
RTVSPropertyOp11
 70
     1
102
RTVSPropertyOp12
 70
     1
102
RTVSPropertyOp13
 70
     1
102
RTVSPropertyOp14
 70
     1
102
RTVSPropertyOp15
 70
     1
102
RTVSPropertyOp16
 70
     1
102
RTVSPropertyOp17
 70
     1
102
RTVSPropertyOp18
 70
     1
102
RTVSPropertyOp19
 70
     1
102
RTVSPropertyOp20
 70
     1
102
RTVSPropertyOp21
 70
     1
102
RTVSPropertyOp22
 70
     1
102
RTVSPropertyOp23
 70
     1
102
RTVSPropertyOp24
 70
     1
102
RTVSPropertyOp25
 70
     1
102
RTVSPropertyOp26
 70
     1
102
RTVSPropertyOp27
 70
     1
  0
XRECORD
  5
5FF
102
{ACAD_REACTORS
330
5FE
102
}
330
5FE
100
AcDbXrecord
280
     1
102
RTVSPropertyOp0
 70
     1
102
RTVSPropertyOp1
 70
     1
102
RTVSPropertyOp2
 70
     1
102
RTVSPropertyOp3
 70
     1
102
RTVSPropertyOp4
 70
     1
102
RTVSPropertyOp5
 70
     1
102
RTVSPropertyOp6
 70
     1
102
RTVSPropertyOp7
 70
     1
102
RTVSPropertyOp8
 70
     1
102
RTVSPropertyOp9
 70
     1
102
RTVSPropertyOp10
 70
     1
102
RTVSPropertyOp11
 70
     1
102
RTVSPropertyOp12
 70
     1
102
RTVSPropertyOp13
 70
     1
102
RTVSPropertyOp14
 70
     1
102
RTVSPropertyOp15
 70
     1
102
RTVSPropertyOp16
 70
     1
102
RTVSPropertyOp17
 70
     1
102
RTVSPropertyOp18
 70
     1
102
RTVSPropertyOp19
 70
     1
102
RTVSPropertyOp20
 70
     1
102
RTVSPropertyOp21
 70
     1
102
RTVSPropertyOp22
 70
     1
102
RTVSPropertyOp23
 70
     1
102
RTVSPropertyOp24
 70
     1
102
RTVSPropertyOp25
 70
     1
102
RTVSPropertyOp26
 70
     1
102
RTVSPropertyOp27
 70
     1
  0
XRECORD
  5
607
102
{ACAD_REACTORS
330
606
102
}
330
606
100
AcDbXrecord
280
     1
102
RTVSPropertyOp0
 70
     1
102
RTVSPropertyOp1
 70
     1
102
RTVSPropertyOp2
 70
     1
102
RTVSPropertyOp3
 70
     1
102
RTVSPropertyOp4
 70
     1
102
RTVSPropertyOp5
 70
     1
102
RTVSPropertyOp6
 70
     1
102
RTVSPropertyOp7
 70
     1
102
RTVSPropertyOp8
 70
     1
102
RTVSPropertyOp9
 70
     1
102
RTVSPropertyOp10
 70
     1
102
RTVSPropertyOp11
 70
     1
102
RTVSPropertyOp12
 70
     1
102
RTVSPropertyOp13
 70
     1
102
RTVSPropertyOp14
 70
     1
102
RTVSPropertyOp15
 70
     1
102
RTVSPropertyOp16
 70
     1
102
RTVSPropertyOp17
 70
     1
102
RTVSPropertyOp18
 70
     1
102
RTVSPropertyOp19
 70
     1
102
RTVSPropertyOp20
 70
     1
102
RTVSPropertyOp21
 70
     1
102
RTVSPropertyOp22
 70
     1
102
RTVSPropertyOp23
 70
     1
102
RTVSPropertyOp24
 70
     1
102
RTVSPropertyOp25
 70
     1
102
RTVSPropertyOp26
 70
     1
102
RTVSPropertyOp27
 70
     1
  0
XRECORD
  5
60F
102
{ACAD_REACTORS
330
60E
102
}
330
60E
100
AcDbXrecord
280
     1
102
RTVSPropertyOp0
 70
     1
102
RTVSPropertyOp1
 70
     1
102
RTVSPropertyOp2
 70
     1
102
RTVSPropertyOp3
 70
     1
102
RTVSPropertyOp4
 70
     1
102
RTVSPropertyOp5
 70
     1
102
RTVSPropertyOp6
 70
     1
102
RTVSPropertyOp7
 70
     1
102
RTVSPropertyOp8
 70
     1
102
RTVSPropertyOp9
 70
     1
102
RTVSPropertyOp10
 70
     1
102
RTVSPropertyOp11
 70
     1
102
RTVSPropertyOp12
 70
     1
102
RTVSPropertyOp13
 70
     1
102
RTVSPropertyOp14
 70
     1
102
RTVSPropertyOp15
 70
     1
102
RTVSPropertyOp16
 70
     1
102
RTVSPropertyOp17
 70
     1
102
RTVSPropertyOp18
 70
     1
102
RTVSPropertyOp19
 70
     1
102
RTVSPropertyOp20
 70
     1
102
RTVSPropertyOp21
 70
     1
102
RTVSPropertyOp22
 70
     1
102
RTVSPropertyOp23
 70
     1
102
RTVSPropertyOp24
 70
     1
102
RTVSPropertyOp25
 70
     1
102
RTVSPropertyOp26
 70
     1
102
RTVSPropertyOp27
 70
     1
  0
XRECORD
  5
603
102
{ACAD_REACTORS
330
602
102
}
330
602
100
AcDbXrecord
280
     1
102
RTVSPropertyOp0
 70
     1
102
RTVSPropertyOp1
 70
     1
102
RTVSPropertyOp2
 70
     1
102
RTVSPropertyOp3
 70
     1
102
RTVSPropertyOp4
 70
     1
102
RTVSPropertyOp5
 70
     1
102
RTVSPropertyOp6
 70
     1
102
RTVSPropertyOp7
 70
     1
102
RTVSPropertyOp8
 70
     1
102
RTVSPropertyOp9
 70
     1
102
RTVSPropertyOp10
 70
     1
102
RTVSPropertyOp11
 70
     1
102
RTVSPropertyOp12
 70
     1
102
RTVSPropertyOp13
 70
     1
102
RTVSPropertyOp14
 70
     1
102
RTVSPropertyOp15
 70
     1
102
RTVSPropertyOp16
 70
     1
102
RTVSPropertyOp17
 70
     1
102
RTVSPropertyOp18
 70
     1
102
RTVSPropertyOp19
 70
     1
102
RTVSPropertyOp20
 70
     1
102
RTVSPropertyOp21
 70
     1
102
RTVSPropertyOp22
 70
     1
102
RTVSPropertyOp23
 70
     1
102
RTVSPropertyOp24
 70
     1
102
RTVSPropertyOp25
 70
     1
102
RTVSPropertyOp26
 70
     1
102
RTVSPropertyOp27
 70
     1
  0
XRECORD
  5
605
102
{ACAD_REACTORS
330
604
102
}
330
604
100
AcDbXrecord
280
     1
102
RTVSPropertyOp0
 70
     1
102
RTVSPropertyOp1
 70
     1
102
RTVSPropertyOp2
 70
     1
102
RTVSPropertyOp3
 70
     1
102
RTVSPropertyOp4
 70
     1
102
RTVSPropertyOp5
 70
     1
102
RTVSPropertyOp6
 70
     1
102
RTVSPropertyOp7
 70
     1
102
RTVSPropertyOp8
 70
     1
102
RTVSPropertyOp9
 70
     1
102
RTVSPropertyOp10
 70
     1
102
RTVSPropertyOp11
 70
     1
102
RTVSPropertyOp12
 70
     1
102
RTVSPropertyOp13
 70
     1
102
RTVSPropertyOp14
 70
     1
102
RTVSPropertyOp15
 70
     1
102
RTVSPropertyOp16
 70
     1
102
RTVSPropertyOp17
 70
     1
102
RTVSPropertyOp18
 70
     1
102
RTVSPropertyOp19
 70
     1
102
RTVSPropertyOp20
 70
     1
102
RTVSPropertyOp21
 70
     1
102
RTVSPropertyOp22
 70
     1
102
RTVSPropertyOp23
 70
     1
102
RTVSPropertyOp24
 70
     1
102
RTVSPropertyOp25
 70
     1
102
RTVSPropertyOp26
 70
     1
102
RTVSPropertyOp27
 70
     1
  0
XRECORD
  5
60D
102
{ACAD_REACTORS
330
60C
102
}
330
60C
100
AcDbXrecord
280
     1
102
RTVSPropertyOp0
 70
     1
102
RTVSPropertyOp1
 70
     1
102
RTVSPropertyOp2
 70
     1
102
RTVSPropertyOp3
 70
     1
102
RTVSPropertyOp4
 70
     1
102
RTVSPropertyOp5
 70
     1
102
RTVSPropertyOp6
 70
     1
102
RTVSPropertyOp7
 70
     1
102
RTVSPropertyOp8
 70
     1
102
RTVSPropertyOp9
 70
     1
102
RTVSPropertyOp10
 70
     1
102
RTVSPropertyOp11
 70
     1
102
RTVSPropertyOp12
 70
     1
102
RTVSPropertyOp13
 70
     1
102
RTVSPropertyOp14
 70
     1
102
RTVSPropertyOp15
 70
     1
102
RTVSPropertyOp16
 70
     1
102
RTVSPropertyOp17
 70
     1
102
RTVSPropertyOp18
 70
     1
102
RTVSPropertyOp19
 70
     1
102
RTVSPropertyOp20
 70
     1
102
RTVSPropertyOp21
 70
     1
102
RTVSPropertyOp22
 70
     1
102
RTVSPropertyOp23
 70
     1
102
RTVSPropertyOp24
 70
     1
102
RTVSPropertyOp25
 70
     1
102
RTVSPropertyOp26
 70
     1
102
RTVSPropertyOp27
 70
     1
  0
XRECORD
  5
5F1
102
{ACAD_REACTORS
330
5F0
102
}
330
5F0
100
AcDbXrecord
280
     1
102
RTVSPropertyOp0
 70
     1
102
RTVSPropertyOp1
 70
     1
102
RTVSPropertyOp2
 70
     1
102
RTVSPropertyOp3
 70
     1
102
RTVSPropertyOp4
 70
     1
102
RTVSPropertyOp5
 70
     1
102
RTVSPropertyOp6
 70
     1
102
RTVSPropertyOp7
 70
     1
102
RTVSPropertyOp8
 70
     1
102
RTVSPropertyOp9
 70
     1
102
RTVSPropertyOp10
 70
     1
102
RTVSPropertyOp11
 70
     1
102
RTVSPropertyOp12
 70
     1
102
RTVSPropertyOp13
 70
     1
102
RTVSPropertyOp14
 70
     1
102
RTVSPropertyOp15
 70
     1
102
RTVSPropertyOp16
 70
     1
102
RTVSPropertyOp17
 70
     1
102
RTVSPropertyOp18
 70
     1
102
RTVSPropertyOp19
 70
     1
102
RTVSPropertyOp20
 70
     1
102
RTVSPropertyOp21
 70
     1
102
RTVSPropertyOp22
 70
     1
102
RTVSPropertyOp23
 70
     1
102
RTVSPropertyOp24
 70
     1
102
RTVSPropertyOp25
 70
     1
102
RTVSPropertyOp26
 70
     1
102
RTVSPropertyOp27
 70
     1
  0
XRECORD
  5
5F3
102
{ACAD_REACTORS
330
5F2
102
}
330
5F2
100
AcDbXrecord
280
     1
102
RTVSPropertyOp0
 70
     1
102
RTVSPropertyOp1
 70
     1
102
RTVSPropertyOp2
 70
     1
102
RTVSPropertyOp3
 70
     1
102
RTVSPropertyOp4
 70
     1
102
RTVSPropertyOp5
 70
     1
102
RTVSPropertyOp6
 70
     1
102
RTVSPropertyOp7
 70
     1
102
RTVSPropertyOp8
 70
     1
102
RTVSPropertyOp9
 70
     1
102
RTVSPropertyOp10
 70
     1
102
RTVSPropertyOp11
 70
     1
102
RTVSPropertyOp12
 70
     1
102
RTVSPropertyOp13
 70
     1
102
RTVSPropertyOp14
 70
     1
102
RTVSPropertyOp15
 70
     1
102
RTVSPropertyOp16
 70
     1
102
RTVSPropertyOp17
 70
     1
102
RTVSPropertyOp18
 70
     1
102
RTVSPropertyOp19
 70
     1
102
RTVSPropertyOp20
 70
     1
102
RTVSPropertyOp21
 70
     1
102
RTVSPropertyOp22
 70
     1
102
RTVSPropertyOp23
 70
     1
102
RTVSPropertyOp24
 70
     1
102
RTVSPropertyOp25
 70
     1
102
RTVSPropertyOp26
 70
     1
102
RTVSPropertyOp27
 70
     1
  0
XRECORD
  5
5F5
102
{ACAD_REACTORS
330
5F4
102
}
330
5F4
100
AcDbXrecord
280
     1
102
RTVSPropertyOp0
 70
     1
102
RTVSPropertyOp1
 70
     1
102
RTVSPropertyOp2
 70
     1
102
RTVSPropertyOp3
 70
     1
102
RTVSPropertyOp4
 70
     1
102
RTVSPropertyOp5
 70
     1
102
RTVSPropertyOp6
 70
     1
102
RTVSPropertyOp7
 70
     1
102
RTVSPropertyOp8
 70
     1
102
RTVSPropertyOp9
 70
     1
102
RTVSPropertyOp10
 70
     1
102
RTVSPropertyOp11
 70
     1
102
RTVSPropertyOp12
 70
     1
102
RTVSPropertyOp13
 70
     1
102
RTVSPropertyOp14
 70
     1
102
RTVSPropertyOp15
 70
     1
102
RTVSPropertyOp16
 70
     1
102
RTVSPropertyOp17
 70
     1
102
RTVSPropertyOp18
 70
     1
102
RTVSPropertyOp19
 70
     1
102
RTVSPropertyOp20
 70
     1
102
RTVSPropertyOp21
 70
     1
102
RTVSPropertyOp22
 70
     1
102
RTVSPropertyOp23
 70
     1
102
RTVSPropertyOp24
 70
     1
102
RTVSPropertyOp25
 70
     1
102
RTVSPropertyOp26
 70
     1
102
RTVSPropertyOp27
 70
     1
  0
XRECORD
  5
5F7
102
{ACAD_REACTORS
330
5F6
102
}
330
5F6
100
AcDbXrecord
280
     1
102
RTVSPropertyOp0
 70
     1
102
RTVSPropertyOp1
 70
     1
102
RTVSPropertyOp2
 70
     1
102
RTVSPropertyOp3
 70
     1
102
RTVSPropertyOp4
 70
     1
102
RTVSPropertyOp5
 70
     1
102
RTVSPropertyOp6
 70
     1
102
RTVSPropertyOp7
 70
     1
102
RTVSPropertyOp8
 70
     1
102
RTVSPropertyOp9
 70
     1
102
RTVSPropertyOp10
 70
     1
102
RTVSPropertyOp11
 70
     1
102
RTVSPropertyOp12
 70
     1
102
RTVSPropertyOp13
 70
     1
102
RTVSPropertyOp14
 70
     1
102
RTVSPropertyOp15
 70
     1
102
RTVSPropertyOp16
 70
     1
102
RTVSPropertyOp17
 70
     1
102
RTVSPropertyOp18
 70
     1
102
RTVSPropertyOp19
 70
     1
102
RTVSPropertyOp20
 70
     1
102
RTVSPropertyOp21
 70
     1
102
RTVSPropertyOp22
 70
     1
102
RTVSPropertyOp23
 70
     1
102
RTVSPropertyOp24
 70
     1
102
RTVSPropertyOp25
 70
     1
102
RTVSPropertyOp26
 70
     1
102
RTVSPropertyOp27
 70
     1
  0
XRECORD
  5
60B
102
{ACAD_REACTORS
330
60A
102
}
330
60A
100
AcDbXrecord
280
     1
102
RTVSPropertyOp0
 70
     1
102
RTVSPropertyOp1
 70
     1
102
RTVSPropertyOp2
 70
     1
102
RTVSPropertyOp3
 70
     1
102
RTVSPropertyOp4
 70
     1
102
RTVSPropertyOp5
 70
     1
102
RTVSPropertyOp6
 70
     1
102
RTVSPropertyOp7
 70
     1
102
RTVSPropertyOp8
 70
     1
102
RTVSPropertyOp9
 70
     1
102
RTVSPropertyOp10
 70
     1
102
RTVSPropertyOp11
 70
     1
102
RTVSPropertyOp12
 70
     1
102
RTVSPropertyOp13
 70
     1
102
RTVSPropertyOp14
 70
     1
102
RTVSPropertyOp15
 70
     1
102
RTVSPropertyOp16
 70
     1
102
RTVSPropertyOp17
 70
     1
102
RTVSPropertyOp18
 70
     1
102
RTVSPropertyOp19
 70
     1
102
RTVSPropertyOp20
 70
     1
102
RTVSPropertyOp21
 70
     1
102
RTVSPropertyOp22
 70
     1
102
RTVSPropertyOp23
 70
     1
102
RTVSPropertyOp24
 70
     1
102
RTVSPropertyOp25
 70
     1
102
RTVSPropertyOp26
 70
     1
102
RTVSPropertyOp27
 70
     1
  0
XRECORD
  5
601
102
{ACAD_REACTORS
330
600
102
}
330
600
100
AcDbXrecord
280
     1
102
RTVSPropertyOp0
 70
     1
102
RTVSPropertyOp1
 70
     1
102
RTVSPropertyOp2
 70
     1
102
RTVSPropertyOp3
 70
     1
102
RTVSPropertyOp4
 70
     1
102
RTVSPropertyOp5
 70
     1
102
RTVSPropertyOp6
 70
     1
102
RTVSPropertyOp7
 70
     1
102
RTVSPropertyOp8
 70
     1
102
RTVSPropertyOp9
 70
     1
102
RTVSPropertyOp10
 70
     1
102
RTVSPropertyOp11
 70
     1
102
RTVSPropertyOp12
 70
     1
102
RTVSPropertyOp13
 70
     1
102
RTVSPropertyOp14
 70
     1
102
RTVSPropertyOp15
 70
     1
102
RTVSPropertyOp16
 70
     1
102
RTVSPropertyOp17
 70
     1
102
RTVSPropertyOp18
 70
     1
102
RTVSPropertyOp19
 70
     1
102
RTVSPropertyOp20
 70
     1
102
RTVSPropertyOp21
 70
     1
102
RTVSPropertyOp22
 70
     1
102
RTVSPropertyOp23
 70
     1
102
RTVSPropertyOp24
 70
     1
102
RTVSPropertyOp25
 70
     1
102
RTVSPropertyOp26
 70
     1
102
RTVSPropertyOp27
 70
     1
  0
XRECORD
  5
609
102
{ACAD_REACTORS
330
608
102
}
330
608
100
AcDbXrecord
280
     1
102
RTVSPropertyOp0
 70
     1
102
RTVSPropertyOp1
 70
     1
102
RTVSPropertyOp2
 70
     1
102
RTVSPropertyOp3
 70
     1
102
RTVSPropertyOp4
 70
     1
102
RTVSPropertyOp5
 70
     1
102
RTVSPropertyOp6
 70
     1
102
RTVSPropertyOp7
 70
     1
102
RTVSPropertyOp8
 70
     1
102
RTVSPropertyOp9
 70
     1
102
RTVSPropertyOp10
 70
     1
102
RTVSPropertyOp11
 70
     1
102
RTVSPropertyOp12
 70
     1
102
RTVSPropertyOp13
 70
     1
102
RTVSPropertyOp14
 70
     1
102
RTVSPropertyOp15
 70
     1
102
RTVSPropertyOp16
 70
     1
102
RTVSPropertyOp17
 70
     1
102
RTVSPropertyOp18
 70
     1
102
RTVSPropertyOp19
 70
     1
102
RTVSPropertyOp20
 70
     1
102
RTVSPropertyOp21
 70
     1
102
RTVSPropertyOp22
 70
     1
102
RTVSPropertyOp23
 70
     1
102
RTVSPropertyOp24
 70
     1
102
RTVSPropertyOp25
 70
     1
102
RTVSPropertyOp26
 70
     1
102
RTVSPropertyOp27
 70
     1
  0
ENDSEC
  0
EOF
