  0
SECTION
  2
HEADER
  9
$ACADVER
  1
AC1015
  9
$ACADMAINTVER
 70
     6
  9
$DWGCODEPAGE
  3
ANSI_932
  9
$INSBASE
 10
0.0
 20
0.0
 30
0.0
  9
$EXTMIN
 10
-537.1000052914023
 20
-361.8500034809113
 30
0.0
  9
$EXTMAX
 10
528.2000105828047
 20
338.9500069618226
 30
0.0
  9
$LIMMIN
 10
-182.0
 20
-128.5
  9
$LIMMAX
 10
182.0
 20
128.5
  9
$ORTHOMODE
 70
     0
  9
$REGENMODE
 70
     1
  9
$FILLMODE
 70
     1
  9
$QTEXTMODE
 70
     0
  9
$MIRRTEXT
 70
     1
  9
$LTSCALE
 40
0.25
  9
$ATTMODE
 70
     1
  9
$TEXTSIZE
 40
0.2
  9
$TRACEWID
 40
0.05
  9
$TEXTSTYLE
  7
Standard
  9
$CLAYER
  8
0
  9
$CELTYPE
  6
ByLayer
  9
$CECOLOR
 62
   256
  9
$CELTSCALE
 40
1.0
  9
$DISPSILH
 70
     0
  9
$DIMSCALE
 40
1.0
  9
$DIMASZ
 40
3.000001882570243
  9
$DIMEXO
 40
1.0
  9
$DIMDLI
 40
10.0
  9
$DIMRND
 40
0.0
  9
$DIMDLE
 40
0.0
  9
$DIMEXE
 40
1.0
  9
$DIMTP
 40
0.0
  9
$DIMTM
 40
0.0
  9
$DIMTXT
 40
3.0
  9
$DIMCEN
 40
0.0
  9
$DIMTSZ
 40
0.0
  9
$DIMTOL
 70
     0
  9
$DIMLIM
 70
     0
  9
$DIMTIH
 70
     0
  9
$DIMTOH
 70
     0
  9
$DIMSE1
 70
     0
  9
$DIMSE2
 70
     0
  9
$DIMTAD
 70
     1
  9
$DIMZIN
 70
     8
  9
$DIMBLK
  1

  9
$DIMASO
 70
     1
  9
$DIMSHO
 70
     1
  9
$DIMPOST
  1

  9
$DIMAPOST
  1

  9
$DIMALT
 70
     0
  9
$DIMALTD
 70
     2
  9
$DIMALTF
 40
25.4
  9
$DIMLFAC
 40
1.0
  9
$DIMTOFL
 70
     0
  9
$DIMTVP
 40
0.0
  9
$DIMTIX
 70
     0
  9
$DIMSOXD
 70
     0
  9
$DIMSAH
 70
     0
  9
$DIMBLK1
  1

  9
$DIMBLK2
  1

  9
$DIMSTYLE
  2
Standard
  9
$DIMCLRD
 70
     0
  9
$DIMCLRE
 70
     0
  9
$DIMCLRT
 70
     0
  9
$DIMTFAC
 40
0.65
  9
$DIMGAP
 40
0.09
  9
$DIMJUST
 70
     0
  9
$DIMSD1
 70
     0
  9
$DIMSD2
 70
     0
  9
$DIMTOLJ
 70
     0
  9
$DIMTZIN
 70
     0
  9
$DIMALTZ
 70
     0
  9
$DIMALTTZ
 70
     0
  9
$DIMUPT
 70
     0
  9
$DIMDEC
 70
     2
  9
$DIMTDEC
 70
     2
  9
$DIMALTU
 70
     2
  9
$DIMALTTD
 70
     2
  9
$DIMTXSTY
  7
Standard
  9
$DIMAUNIT
 70
     0
  9
$DIMADEC
 70
     2
  9
$DIMALTRND
 40
0.0
  9
$DIMAZIN
 70
     2
  9
$DIMDSEP
 70
    46
  9
$DIMATFIT
 70
     3
  9
$DIMFRAC
 70
     0
  9
$DIMLDRBLK
  1

  9
$DIMLUNIT
 70
     2
  9
$DIMLWD
 70
    -2
  9
$DIMLWE
 70
    -2
  9
$DIMTMOVE
 70
     0
  9
$LUNITS
 70
     2
  9
$LUPREC
 70
     4
  9
$SKETCHINC
 40
0.1
  9
$FILLETRAD
 40
0.5
  9
$AUNITS
 70
     0
  9
$AUPREC
 70
     0
  9
$MENU
  1
.
  9
$ELEVATION
 40
0.0
  9
$PELEVATION
 40
0.0
  9
$THICKNESS
 40
0.0
  9
$LIMCHECK
 70
     0
  9
$CHAMFERA
 40
0.5
  9
$CHAMFERB
 40
0.5
  9
$CHAMFERC
 40
1.0
  9
$CHAMFERD
 40
0.0
  9
$SKPOLY
 70
     0
  9
$TDCREATE
 40
2459606.988244329
  9
$TDUCREATE
 40
2459606.613244329
  9
$TDUPDATE
 40
2459606.98824434
  9
$TDUUPDATE
 40
2459606.61324434
  9
$TDINDWG
 40
0.0000000116
  9
$TDUSRTIMER
 40
0.0000000116
  9
$USRTIMER
 70
     1
  9
$ANGBASE
 50
0.0
  9
$ANGDIR
 70
     0
  9
$PDMODE
 70
     0
  9
$PDSIZE
 40
1.0
  9
$PLINEWID
 40
0.0
  9
$SPLFRAME
 70
     0
  9
$SPLINETYPE
 70
     6
  9
$SPLINESEGS
 70
     8
  9
$HANDSEED
  5
5FC
  9
$SURFTAB1
 70
     6
  9
$SURFTAB2
 70
     6
  9
$SURFTYPE
 70
     6
  9
$SURFU
 70
     6
  9
$SURFV
 70
     6
  9
$UCSBASE
  2

  9
$UCSNAME
  2

  9
$UCSORG
 10
0.0
 20
0.0
 30
0.0
  9
$UCSXDIR
 10
1.0
 20
0.0
 30
0.0
  9
$UCSYDIR
 10
0.0
 20
1.0
 30
0.0
  9
$UCSORTHOREF
  2

  9
$UCSORTHOVIEW
 70
     0
  9
$UCSORGTOP
 10
0.0
 20
0.0
 30
0.0
  9
$UCSORGBOTTOM
 10
0.0
 20
0.0
 30
0.0
  9
$UCSORGLEFT
 10
0.0
 20
0.0
 30
0.0
  9
$UCSORGRIGHT
 10
0.0
 20
0.0
 30
0.0
  9
$UCSORGFRONT
 10
0.0
 20
0.0
 30
0.0
  9
$UCSORGBACK
 10
0.0
 20
0.0
 30
0.0
  9
$PUCSBASE
  2

  9
$PUCSNAME
  2

  9
$PUCSORG
 10
0.0
 20
0.0
 30
0.0
  9
$PUCSXDIR
 10
1.0
 20
0.0
 30
0.0
  9
$PUCSYDIR
 10
0.0
 20
1.0
 30
0.0
  9
$PUCSORTHOREF
  2

  9
$PUCSORTHOVIEW
 70
     0
  9
$PUCSORGTOP
 10
0.0
 20
0.0
 30
0.0
  9
$PUCSORGBOTTOM
 10
0.0
 20
0.0
 30
0.0
  9
$PUCSORGLEFT
 10
0.0
 20
0.0
 30
0.0
  9
$PUCSORGRIGHT
 10
0.0
 20
0.0
 30
0.0
  9
$PUCSORGFRONT
 10
0.0
 20
0.0
 30
0.0
  9
$PUCSORGBACK
 10
0.0
 20
0.0
 30
0.0
  9
$USERI1
 70
     0
  9
$USERI2
 70
     0
  9
$USERI3
 70
     0
  9
$USERI4
 70
     0
  9
$USERI5
 70
     0
  9
$USERR1
 40
0.0
  9
$USERR2
 40
0.0
  9
$USERR3
 40
0.0
  9
$USERR4
 40
0.0
  9
$USERR5
 40
0.0
  9
$WORLDVIEW
 70
     1
  9
$SHADEDGE
 70
     3
  9
$SHADEDIF
 70
    70
  9
$TILEMODE
 70
     1
  9
$MAXACTVP
 70
    64
  9
$PINSBASE
 10
0.0
 20
0.0
 30
0.0
  9
$PLIMCHECK
 70
     0
  9
$PEXTMIN
 10
1.000000000000000E+20
 20
1.000000000000000E+20
 30
1.000000000000000E+20
  9
$PEXTMAX
 10
-1.000000000000000E+20
 20
-1.000000000000000E+20
 30
-1.000000000000000E+20
  9
$PLIMMIN
 10
0.0
 20
0.0
  9
$PLIMMAX
 10
12.0
 20
9.0
  9
$UNITMODE
 70
     0
  9
$VISRETAIN
 70
     0
  9
$PLINEGEN
 70
     1
  9
$PSLTSCALE
 70
     0
  9
$TREEDEPTH
 70
  3020
  9
$CMLSTYLE
  2
Standard
  9
$CMLJUST
 70
     0
  9
$CMLSCALE
 40
1.0
  9
$PROXYGRAPHICS
 70
     0
  9
$MEASUREMENT
 70
     1
  9
$CELWEIGHT
370
    -1
  9
$ENDCAPS
280
     0
  9
$JOINSTYLE
280
     0
  9
$LWDISPLAY
290
     1
  9
$INSUNITS
 70
     4
  9
$HYPERLINKBASE
  1

  9
$STYLESHEET
  1

  9
$XEDIT
290
     1
  9
$CEPSNTYPE
380
     0
  9
$PSTYLEMODE
290
     1
  9
$FINGERPRINTGUID
  2
{08FB0238-998A-4712-9B71-B7BCDFD6F816}
  9
$VERSIONGUID
  2
{FAEB1C32-E019-11D5-929B-00C0DF256EC4}
  9
$EXTNAMES
290
     1
  9
$PSVPSCALE
 40
0.0
  9
$OLESTARTUP
290
     0
  0
ENDSEC
  0
SECTION
  2
CLASSES
  0
CLASS
  1
ACDBDICTIONARYWDFLT
  2
AcDbDictionaryWithDefault
  3
ObjectDBX Classes
 90
        0
280
     0
281
     0
  0
CLASS
  1
VISUALSTYLE
  2
AcDbVisualStyle
  3
ObjectDBX Classes
 90
     4095
280
     0
281
     0
  0
CLASS
  1
MATERIAL
  2
AcDbMaterial
  3
ObjectDBX Classes
 90
     1153
280
     0
281
     0
  0
CLASS
  1
SCALE
  2
AcDbScale
  3
ObjectDBX Classes
 90
     1153
280
     0
281
     0
  0
CLASS
  1
DICTIONARYVAR
  2
AcDbDictionaryVar
  3
ObjectDBX Classes
 90
        0
280
     0
281
     0
  0
CLASS
  1
ACDBPLACEHOLDER
  2
AcDbPlaceHolder
  3
ObjectDBX Classes
 90
        0
280
     0
281
     0
  0
CLASS
  1
LAYOUT
  2
AcDbLayout
  3
ObjectDBX Classes
 90
        0
280
     0
281
     0
  0
ENDSEC
  0
SECTION
  2
TABLES
  0
TABLE
  2
VPORT
  5
8
330
0
100
AcDbSymbolTable
 70
     1
  0
VPORT
  5
29
330
8
100
AcDbSymbolTableRecord
100
AcDbViewportTableRecord
  2
*Active
 70
     0
 10
0.0
 20
0.0
 11
1.0
 21
1.0
 12
-4.449997354298834
 22
-11.44999825954434
 13
0.0
 23
0.0
 14
0.5
 24
0.5
 15
0.5
 25
0.5
 16
0.0
 26
0.0
 36
1.0
 17
0.0
 27
0.0
 37
0.0
 40
238.2720035505295
 41
1.520119863013698
 42
50.0
 43
0.0
 44
0.0
 50
0.0
 51
0.0
 71
     0
 72
  1000
 73
     1
 74
     1
 75
     0
 76
     0
 77
     0
 78
     0
281
     0
 65
     1
110
0.0
120
0.0
130
0.0
111
1.0
121
0.0
131
0.0
112
0.0
122
1.0
132
0.0
 79
     0
146
0.0
  0
ENDTAB
  0
TABLE
  2
LTYPE
  5
5
330
0
100
AcDbSymbolTable
 70
    53
  0
LTYPE
  5
14
330
5
100
AcDbSymbolTableRecord
100
AcDbLinetypeTableRecord
  2
ByBlock
 70
     0
  3

 72
    65
 73
     0
 40
0.0
  0
LTYPE
  5
15
330
5
100
AcDbSymbolTableRecord
100
AcDbLinetypeTableRecord
  2
ByLayer
 70
     0
  3

 72
    65
 73
     0
 40
0.0
  0
LTYPE
  5
16
330
5
100
AcDbSymbolTableRecord
100
AcDbLinetypeTableRecord
  2
Continuous
 70
     0
  3
Solid line
 72
    65
 73
     0
 40
0.0
  0
LTYPE
  5
40
330
5
100
AcDbSymbolTableRecord
100
AcDbLinetypeTableRecord
  2
HIDDENX2
 70
     0
  3
Hidden (2x) ____ ____ ____ ____ ____ ____ ____ 
 72
    65
 73
     2
 40
19.05
 49
12.7
 74
     0
 49
-6.35
 74
     0
  0
LTYPE
  5
41
330
5
100
AcDbSymbolTableRecord
100
AcDbLinetypeTableRecord
  2
HIDDEN
 70
     0
  3
Hidden __ __ __ __ __ __ __ __ __ __ __ __ __ __
 72
    65
 73
     2
 40
9.524999999999999
 49
6.35
 74
     0
 49
-3.175
 74
     0
  0
LTYPE
  5
42
330
5
100
AcDbSymbolTableRecord
100
AcDbLinetypeTableRecord
  2
HIDDEN2
 70
     0
  3
Hidden (.5x) _ _ _ _ _ _ _ _ _ _ _ _ _ _ _ _ _ 
 72
    65
 73
     2
 40
4.762499999999999
 49
3.175
 74
     0
 49
-1.5875
 74
     0
  0
LTYPE
  5
43
330
5
100
AcDbSymbolTableRecord
100
AcDbLinetypeTableRecord
  2
DASHED
 70
     0
  3
Dashed __ __ __ __ __ __ __ __ __ __ __ __ __ _
 72
    65
 73
     2
 40
19.05
 49
12.7
 74
     0
 49
-6.35
 74
     0
  0
LTYPE
  5
44
330
5
100
AcDbSymbolTableRecord
100
AcDbLinetypeTableRecord
  2
DASHED2
 70
     0
  3
Dashed (.5x) _ _ _ _ _ _ _ _ _ _ _ _ _ _ _ _ _ 
 72
    65
 73
     2
 40
9.524999999999999
 49
6.35
 74
     0
 49
-3.175
 74
     0
  0
LTYPE
  5
45
330
5
100
AcDbSymbolTableRecord
100
AcDbLinetypeTableRecord
  2
DASHEDX2
 70
     0
  3
Dashed (2x) ____  ____  ____  ____  ____  ___
 72
    65
 73
     2
 40
38.09999999999999
 49
25.4
 74
     0
 49
-12.7
 74
     0
  0
LTYPE
  5
46
330
5
100
AcDbSymbolTableRecord
100
AcDbLinetypeTableRecord
  2
DOTX2
 70
     0
  3
Dot (2x) .  .  .  .  .  .  .  .  .  .  .  .  .  .
 72
    65
 73
     2
 40
12.7
 49
0.0
 74
     0
 49
-12.7
 74
     0
  0
LTYPE
  5
47
330
5
100
AcDbSymbolTableRecord
100
AcDbLinetypeTableRecord
  2
DOT
 70
     0
  3
Dot . . . . . . . . . . . . . . . . . . . . . . . .
 72
    65
 73
     2
 40
6.35
 49
0.0
 74
     0
 49
-6.35
 74
     0
  0
LTYPE
  5
48
330
5
100
AcDbSymbolTableRecord
100
AcDbLinetypeTableRecord
  2
DOT2
 70
     0
  3
Dot (.5x) ........................................
 72
    65
 73
     2
 40
3.175
 49
0.0
 74
     0
 49
-3.175
 74
     0
  0
LTYPE
  5
49
330
5
100
AcDbSymbolTableRecord
100
AcDbLinetypeTableRecord
  2
CENTERX2
 70
     0
  3
Center (2x) ________  __  ________  __  _____
 72
    65
 73
     4
 40
101.6
 49
63.5
 74
     0
 49
-12.7
 74
     0
 49
12.7
 74
     0
 49
-12.7
 74
     0
  0
LTYPE
  5
4A
330
5
100
AcDbSymbolTableRecord
100
AcDbLinetypeTableRecord
  2
CENTER
 70
     0
  3
Center ____ _ ____ _ ____ _ ____ _ ____ _ ____
 72
    65
 73
     4
 40
50.8
 49
31.75
 74
     0
 49
-6.35
 74
     0
 49
6.35
 74
     0
 49
-6.35
 74
     0
  0
LTYPE
  5
4B
330
5
100
AcDbSymbolTableRecord
100
AcDbLinetypeTableRecord
  2
CENTER2
 70
     0
  3
Center (.5x) ___ _ ___ _ ___ _ ___ _ ___ _ ___
 72
    65
 73
     4
 40
28.575
 49
19.05
 74
     0
 49
-3.175
 74
     0
 49
3.175
 74
     0
 49
-3.175
 74
     0
  0
LTYPE
  5
4C
330
5
100
AcDbSymbolTableRecord
100
AcDbLinetypeTableRecord
  2
DASHDOTX2
 70
     0
  3
Dash dot (2x) ____  .  ____  .  ____  .  ___
 72
    65
 73
     4
 40
50.8
 49
25.4
 74
     0
 49
-12.7
 74
     0
 49
0.0
 74
     0
 49
-12.7
 74
     0
  0
LTYPE
  5
4D
330
5
100
AcDbSymbolTableRecord
100
AcDbLinetypeTableRecord
  2
DASHDOT
 70
     0
  3
Dash dot __ . __ . __ . __ . __ . __ . __ . __
 72
    65
 73
     4
 40
25.4
 49
12.7
 74
     0
 49
-6.35
 74
     0
 49
0.0
 74
     0
 49
-6.35
 74
     0
  0
LTYPE
  5
4E
330
5
100
AcDbSymbolTableRecord
100
AcDbLinetypeTableRecord
  2
DASHDOT2
 70
     0
  3
Dash dot (.5x) _._._._._._._._._._._._._._._.
 72
    65
 73
     4
 40
12.7
 49
6.35
 74
     0
 49
-3.175
 74
     0
 49
0.0
 74
     0
 49
-3.175
 74
     0
  0
LTYPE
  5
4F
330
5
100
AcDbSymbolTableRecord
100
AcDbLinetypeTableRecord
  2
DIVIDEX2
 70
     0
  3
Divide (2x) ________  .  .  ________  .  .  _
 72
    65
 73
     6
 40
63.5
 49
25.4
 74
     0
 49
-12.7
 74
     0
 49
0.0
 74
     0
 49
-12.7
 74
     0
 49
0.0
 74
     0
 49
-12.7
 74
     0
  0
LTYPE
  5
50
330
5
100
AcDbSymbolTableRecord
100
AcDbLinetypeTableRecord
  2
DIVIDE
 70
     0
  3
Divide ____ . . ____ . . ____ . . ____ . . ____
 72
    65
 73
     6
 40
31.75
 49
12.7
 74
     0
 49
-6.35
 74
     0
 49
0.0
 74
     0
 49
-6.35
 74
     0
 49
0.0
 74
     0
 49
-6.35
 74
     0
  0
LTYPE
  5
51
330
5
100
AcDbSymbolTableRecord
100
AcDbLinetypeTableRecord
  2
DIVIDE2
 70
     0
  3
Divide (.5x) __..__..__..__..__..__..__..__.._
 72
    65
 73
     6
 40
15.875
 49
6.35
 74
     0
 49
-3.175
 74
     0
 49
0.0
 74
     0
 49
-3.175
 74
     0
 49
0.0
 74
     0
 49
-3.175
 74
     0
  0
LTYPE
  5
52
330
5
100
AcDbSymbolTableRecord
100
AcDbLinetypeTableRecord
  2
BORDERX2
 70
     0
  3
Border (2x) ____  ____  .  ____  ____  .  ___
 72
    65
 73
     6
 40
88.89999999999999
 49
25.4
 74
     0
 49
-12.7
 74
     0
 49
25.4
 74
     0
 49
-12.7
 74
     0
 49
0.0
 74
     0
 49
-12.7
 74
     0
  0
LTYPE
  5
53
330
5
100
AcDbSymbolTableRecord
100
AcDbLinetypeTableRecord
  2
BORDER
 70
     0
  3
Border __ __ . __ __ . __ __ . __ __ . __ __ .
 72
    65
 73
     6
 40
44.45
 49
12.7
 74
     0
 49
-6.35
 74
     0
 49
12.7
 74
     0
 49
-6.35
 74
     0
 49
0.0
 74
     0
 49
-6.35
 74
     0
  0
LTYPE
  5
54
330
5
100
AcDbSymbolTableRecord
100
AcDbLinetypeTableRecord
  2
BORDER2
 70
     0
  3
Border (.5x) __.__.__.__.__.__.__.__.__.__.__.
 72
    65
 73
     6
 40
22.225
 49
6.35
 74
     0
 49
-3.175
 74
     0
 49
6.35
 74
     0
 49
-3.175
 74
     0
 49
0.0
 74
     0
 49
-3.175
 74
     0
  0
LTYPE
  5
55
330
5
100
AcDbSymbolTableRecord
100
AcDbLinetypeTableRecord
  2
PHANTOMX2
 70
     0
  3
Phantom (2x) ____________    ____    ____   _
 72
    65
 73
     6
 40
127.0
 49
63.5
 74
     0
 49
-12.7
 74
     0
 49
12.7
 74
     0
 49
-12.7
 74
     0
 49
12.7
 74
     0
 49
-12.7
 74
     0
  0
LTYPE
  5
56
330
5
100
AcDbSymbolTableRecord
100
AcDbLinetypeTableRecord
  2
PHANTOM
 70
     0
  3
Phantom ______  __  __  ______  __  __  ______ 
 72
    65
 73
     6
 40
63.5
 49
31.75
 74
     0
 49
-6.35
 74
     0
 49
6.35
 74
     0
 49
-6.35
 74
     0
 49
6.35
 74
     0
 49
-6.35
 74
     0
  0
LTYPE
  5
57
330
5
100
AcDbSymbolTableRecord
100
AcDbLinetypeTableRecord
  2
PHANTOM2
 70
     0
  3
Phantom (.5x) ___ _ _ ___ _ _ ___ _ _ ___ _ _
 72
    65
 73
     6
 40
31.75
 49
15.875
 74
     0
 49
-3.175
 74
     0
 49
3.175
 74
     0
 49
-3.175
 74
     0
 49
3.175
 74
     0
 49
-3.175
 74
     0
  0
LTYPE
  5
58
330
5
100
AcDbSymbolTableRecord
100
AcDbLinetypeTableRecord
  2
ACAD_ISO06W100
 70
     0
  3
ISO long-dash triple-dot ____ ... ____ ... ____
 72
    65
 73
     8
 40
36.0
 49
24.0
 74
     0
 49
-3.0
 74
     0
 49
0.0
 74
     0
 49
-3.0
 74
     0
 49
0.0
 74
     0
 49
-3.0
 74
     0
 49
0.0
 74
     0
 49
-3.0
 74
     0
  0
LTYPE
  5
59
330
5
100
AcDbSymbolTableRecord
100
AcDbLinetypeTableRecord
  2
ACAD_ISO13W100
 70
     0
  3
ISO double-dash double-dot __ __ . . __ __ . . _
 72
    65
 73
     8
 40
36.0
 49
12.0
 74
     0
 49
-3.0
 74
     0
 49
12.0
 74
     0
 49
-3.0
 74
     0
 49
0.0
 74
     0
 49
-3.0
 74
     0
 49
0.0
 74
     0
 49
-3.0
 74
     0
  0
LTYPE
  5
5A
330
5
100
AcDbSymbolTableRecord
100
AcDbLinetypeTableRecord
  2
ACAD_ISO14W100
 70
     0
  3
ISO dash triple-dot __ . . . __ . . . __ . . . _
 72
    65
 73
     8
 40
24.0
 49
12.0
 74
     0
 49
-3.0
 74
     0
 49
0.0
 74
     0
 49
-3.0
 74
     0
 49
0.0
 74
     0
 49
-3.0
 74
     0
 49
0.0
 74
     0
 49
-3.0
 74
     0
  0
LTYPE
  5
5B
330
5
100
AcDbSymbolTableRecord
100
AcDbLinetypeTableRecord
  2
ACAD_ISO02W100
 70
     0
  3
ISO dash __ __ __ __ __ __ __ __ __ __ __ __ __
 72
    65
 73
     2
 40
15.0
 49
12.0
 74
     0
 49
-3.0
 74
     0
  0
LTYPE
  5
5C
330
5
100
AcDbSymbolTableRecord
100
AcDbLinetypeTableRecord
  2
ACAD_ISO03W100
 70
     0
  3
ISO dash space __    __    __    __    __    __
 72
    65
 73
     2
 40
30.0
 49
12.0
 74
     0
 49
-18.0
 74
     0
  0
LTYPE
  5
5D
330
5
100
AcDbSymbolTableRecord
100
AcDbLinetypeTableRecord
  2
ACAD_ISO04W100
 70
     0
  3
ISO long-dash dot ____ . ____ . ____ . ____ . _
 72
    65
 73
     4
 40
30.0
 49
24.0
 74
     0
 49
-3.0
 74
     0
 49
0.0
 74
     0
 49
-3.0
 74
     0
  0
LTYPE
  5
5E
330
5
100
AcDbSymbolTableRecord
100
AcDbLinetypeTableRecord
  2
ACAD_ISO05W100
 70
     0
  3
ISO long-dash double-dot ____ .. ____ .. ____ . 
 72
    65
 73
     6
 40
33.0
 49
24.0
 74
     0
 49
-3.0
 74
     0
 49
0.0
 74
     0
 49
-3.0
 74
     0
 49
0.0
 74
     0
 49
-3.0
 74
     0
  0
LTYPE
  5
5F
330
5
100
AcDbSymbolTableRecord
100
AcDbLinetypeTableRecord
  2
ACAD_ISO07W100
 70
     0
  3
ISO dot . . . . . . . . . . . . . . . . . . . . 
 72
    65
 73
     2
 40
3.0
 49
0.0
 74
     0
 49
-3.0
 74
     0
  0
LTYPE
  5
60
330
5
100
AcDbSymbolTableRecord
100
AcDbLinetypeTableRecord
  2
ACAD_ISO08W100
 70
     0
  3
ISO long-dash short-dash ____ __ ____ __ ____ _
 72
    65
 73
     4
 40
36.0
 49
24.0
 74
     0
 49
-3.0
 74
     0
 49
6.0
 74
     0
 49
-3.0
 74
     0
  0
LTYPE
  5
61
330
5
100
AcDbSymbolTableRecord
100
AcDbLinetypeTableRecord
  2
ACAD_ISO09W100
 70
     0
  3
ISO long-dash double-short-dash ____ __ __ ____
 72
    65
 73
     6
 40
45.0
 49
24.0
 74
     0
 49
-3.0
 74
     0
 49
6.0
 74
     0
 49
-3.0
 74
     0
 49
6.0
 74
     0
 49
-3.0
 74
     0
  0
LTYPE
  5
62
330
5
100
AcDbSymbolTableRecord
100
AcDbLinetypeTableRecord
  2
ACAD_ISO10W100
 70
     0
  3
ISO dash dot __ . __ . __ . __ . __ . __ . __ . 
 72
    65
 73
     4
 40
18.0
 49
12.0
 74
     0
 49
-3.0
 74
     0
 49
0.0
 74
     0
 49
-3.0
 74
     0
  0
LTYPE
  5
63
330
5
100
AcDbSymbolTableRecord
100
AcDbLinetypeTableRecord
  2
ACAD_ISO11W100
 70
     0
  3
ISO double-dash dot __ __ . __ __ . __ __ . __ _
 72
    65
 73
     6
 40
33.0
 49
12.0
 74
     0
 49
-3.0
 74
     0
 49
12.0
 74
     0
 49
-3.0
 74
     0
 49
0.0
 74
     0
 49
-3.0
 74
     0
  0
LTYPE
  5
64
330
5
100
AcDbSymbolTableRecord
100
AcDbLinetypeTableRecord
  2
ACAD_ISO12W100
 70
     0
  3
ISO dash double-dot __ . . __ . . __ . . __ . . 
 72
    65
 73
     6
 40
21.0
 49
12.0
 74
     0
 49
-3.0
 74
     0
 49
0.0
 74
     0
 49
-3.0
 74
     0
 49
0.0
 74
     0
 49
-3.0
 74
     0
  0
LTYPE
  5
65
330
5
100
AcDbSymbolTableRecord
100
AcDbLinetypeTableRecord
  2
ACAD_ISO15W100
 70
     0
  3
ISO double-dash triple-dot __ __ . . . __ __ . .
 72
    65
 73
    10
 40
39.0
 49
12.0
 74
     0
 49
-3.0
 74
     0
 49
12.0
 74
     0
 49
-3.0
 74
     0
 49
0.0
 74
     0
 49
-3.0
 74
     0
 49
0.0
 74
     0
 49
-3.0
 74
     0
 49
0.0
 74
     0
 49
-3.0
 74
     0
  0
LTYPE
  5
66
330
5
100
AcDbSymbolTableRecord
100
AcDbLinetypeTableRecord
  2
JIS_02_0.7
 70
     0
  3
HIDDEN0.75 _ _ _ _ _ _ _ _ _ _ _ _ _ _ _ _ _ 
 72
    65
 73
     2
 40
1.35
 49
0.75
 74
     0
 49
-0.6
 74
     0
  0
LTYPE
  5
67
330
5
100
AcDbSymbolTableRecord
100
AcDbLinetypeTableRecord
  2
JIS_02_1.0
 70
     0
  3
HIDDEN01 _ _ _ _ _ _ _ _ _ _ _ _ _ _ _ _ _ 
 72
    65
 73
     2
 40
2.0
 49
1.0
 74
     0
 49
-1.0
 74
     0
  0
LTYPE
  5
68
330
5
100
AcDbSymbolTableRecord
100
AcDbLinetypeTableRecord
  2
JIS_02_1.2
 70
     0
  3
HIDDEN01.25  _ _ _ _ _ _ _ _ _ _ _ _ _ _ _ _ _ 
 72
    65
 73
     2
 40
2.5
 49
1.25
 74
     0
 49
-1.25
 74
     0
  0
LTYPE
  5
69
330
5
100
AcDbSymbolTableRecord
100
AcDbLinetypeTableRecord
  2
JIS_02_2.0
 70
     0
  3
HIDDEN02 __ __ __ __ __ __ __ __ __ __ __ 
 72
    65
 73
     2
 40
3.0
 49
2.0
 74
     0
 49
-1.0
 74
     0
  0
LTYPE
  5
6A
330
5
100
AcDbSymbolTableRecord
100
AcDbLinetypeTableRecord
  2
JIS_02_4.0
 70
     0
  3
HIDDEN04 ____ ____ ____ ____ ____ ____ ____ 
 72
    65
 73
     2
 40
5.5
 49
4.0
 74
     0
 49
-1.5
 74
     0
  0
LTYPE
  5
6B
330
5
100
AcDbSymbolTableRecord
100
AcDbLinetypeTableRecord
  2
JIS_08_11
 70
     0
  3
1SASEN11 ___ _ ___ _ ___ _ ___ _ ___ _ ___
 72
    65
 73
     4
 40
12.8
 49
11.0
 74
     0
 49
-0.6
 74
     0
 49
0.6
 74
     0
 49
-0.6
 74
     0
  0
LTYPE
  5
6C
330
5
100
AcDbSymbolTableRecord
100
AcDbLinetypeTableRecord
  2
JIS_08_15
 70
     0
  3
1SASEN15 ____ _ ____ _ ____ _ ____ _ ____ 
 72
    65
 73
     4
 40
17.25
 49
15.0
 74
     0
 49
-0.75
 74
     0
 49
0.75
 74
     0
 49
-0.75
 74
     0
  0
LTYPE
  5
6D
330
5
100
AcDbSymbolTableRecord
100
AcDbLinetypeTableRecord
  2
JIS_08_25
 70
     0
  3
1SASEN25 ________  __  ________  __  _____
 72
    65
 73
     4
 40
28.0
 49
25.0
 74
     0
 49
-1.125
 74
     0
 49
0.75
 74
     0
 49
-1.125
 74
     0
  0
LTYPE
  5
6E
330
5
100
AcDbSymbolTableRecord
100
AcDbLinetypeTableRecord
  2
JIS_08_37
 70
     0
  3
1SASEN37 ________  __  ________  __  _____
 72
    65
 73
     4
 40
40.5
 49
37.5
 74
     0
 49
-1.125
 74
     0
 49
0.75
 74
     0
 49
-1.125
 74
     0
  0
LTYPE
  5
6F
330
5
100
AcDbSymbolTableRecord
100
AcDbLinetypeTableRecord
  2
JIS_08_50
 70
     0
  3
1SASEN50 _______________  __  ____________
 72
    65
 73
     4
 40
53.0
 49
50.0
 74
     0
 49
-1.125
 74
     0
 49
0.75
 74
     0
 49
-1.125
 74
     0
  0
LTYPE
  5
70
330
5
100
AcDbSymbolTableRecord
100
AcDbLinetypeTableRecord
  2
JIS_09_08
 70
     0
  3
2SASEN8 __ _ _ __ _ _ __ _ _ __ _ _ __ _ _ 
 72
    65
 73
     6
 40
10.75
 49
8.0
 74
     0
 49
-0.55
 74
     0
 49
0.55
 74
     0
 49
-0.55
 74
     0
 49
0.55
 74
     0
 49
-0.55
 74
     0
  0
LTYPE
  5
71
330
5
100
AcDbSymbolTableRecord
100
AcDbLinetypeTableRecord
  2
JIS_09_15
 70
     0
  3
2SASEN15 ___ _ _ ___ _ _ ___ _ _ ___ _ _ ___ 
 72
    65
 73
     6
 40
18.9
 49
15.0
 74
     0
 49
-0.9
 74
     0
 49
0.6
 74
     0
 49
-0.9
 74
     0
 49
0.6
 74
     0
 49
-0.9
 74
     0
  0
LTYPE
  5
72
330
5
100
AcDbSymbolTableRecord
100
AcDbLinetypeTableRecord
  2
JIS_09_29
 70
     0
  3
2SASEN29 ______　__  __  ______　__  __  ___
 72
    65
 73
     6
 40
34.0
 49
29.0
 74
     0
 49
-1.2
 74
     0
 49
0.7
 74
     0
 49
-1.2
 74
     0
 49
0.7
 74
     0
 49
-1.2
 74
     0
  0
LTYPE
  5
73
330
5
100
AcDbSymbolTableRecord
100
AcDbLinetypeTableRecord
  2
JIS_09_50
 70
     0
  3
2SASEN50 ____________　__  __  _____________
 72
    65
 73
     6
 40
55.0
 49
50.0
 74
     0
 49
-1.2
 74
     0
 49
0.7
 74
     0
 49
-1.2
 74
     0
 49
0.7
 74
     0
 49
-1.2
 74
     0
  0
ENDTAB
  0
TABLE
  2
LAYER
  5
2
330
0
100
AcDbSymbolTable
 70
     5
  0
LAYER
  5
10
330
2
100
AcDbSymbolTableRecord
100
AcDbLayerTableRecord
  2
0
 70
     0
 62
     7
  6
Continuous
370
    -3
390
F
  0
LAYER
  5
74
330
2
100
AcDbSymbolTableRecord
100
AcDbLayerTableRecord
  2
16
 70
     0
 62
     7
  6
Continuous
370
    -3
390
F
  0
LAYER
  5
75
330
2
100
AcDbSymbolTableRecord
100
AcDbLayerTableRecord
  2
22
 70
     0
 62
     7
  6
Continuous
370
    -3
390
F
  0
LAYER
  5
76
330
2
100
AcDbSymbolTableRecord
100
AcDbLayerTableRecord
  2
24
 70
     0
 62
     7
  6
Continuous
370
    -3
390
F
  0
LAYER
  5
77
330
2
100
AcDbSymbolTableRecord
100
AcDbLayerTableRecord
  2
32
 70
     0
 62
     7
  6
Continuous
370
    -3
390
F
  0
ENDTAB
  0
TABLE
  2
STYLE
  5
3
330
0
100
AcDbSymbolTable
 70
     2
  0
STYLE
  5
11
330
3
100
AcDbSymbolTableRecord
100
AcDbTextStyleTableRecord
  2
Standard
 70
     0
 40
0.0
 41
1.0
 50
0.0
 71
     0
 42
0.2
  3
txt.shx
  4
bigfont.shx
  0
STYLE
  5
9B
330
3
100
AcDbSymbolTableRecord
100
AcDbTextStyleTableRecord
  2
dcStyle0
 70
     0
 40
0.0
 41
0.833333335493827
 50
0.0
 71
     0
 42
0.2
  3
txt.shx
  4
bigfont
  0
ENDTAB
  0
TABLE
  2
VIEW
  5
6
330
0
100
AcDbSymbolTable
 70
     0
  0
ENDTAB
  0
TABLE
  2
UCS
  5
7
330
0
100
AcDbSymbolTable
 70
     0
  0
ENDTAB
  0
TABLE
  2
APPID
  5
9
330
0
100
AcDbSymbolTable
 70
     2
  0
APPID
  5
12
330
9
100
AcDbSymbolTableRecord
100
AcDbRegAppTableRecord
  2
ACAD
 70
     0
  0
APPID
  5
3F
330
9
100
AcDbSymbolTableRecord
100
AcDbRegAppTableRecord
  2
DaFusionOut
 70
     0
  0
ENDTAB
  0
TABLE
  2
DIMSTYLE
  5
A
330
0
100
AcDbSymbolTable
 70
     1
100
AcDbDimStyleTable
  0
DIMSTYLE
105
27
330
A
100
AcDbSymbolTableRecord
100
AcDbDimStyleTableRecord
  2
Standard
 70
     0
178
     0
340
11
  0
ENDTAB
  0
TABLE
  2
BLOCK_RECORD
  5
1
330
0
100
AcDbSymbolTable
 70
     1
  0
BLOCK_RECORD
  5
1F
330
1
100
AcDbSymbolTableRecord
100
AcDbBlockTableRecord
  2
*Model_Space
340
22
  0
BLOCK_RECORD
  5
1B
330
1
100
AcDbSymbolTableRecord
100
AcDbBlockTableRecord
  2
*Paper_Space
340
1E
  0
BLOCK_RECORD
  5
23
330
1
100
AcDbSymbolTableRecord
100
AcDbBlockTableRecord
  2
*Paper_Space0
340
26
  0
ENDTAB
  0
ENDSEC
  0
SECTION
  2
BLOCKS
  0
BLOCK
  5
20
330
1F
100
AcDbEntity
  8
0
100
AcDbBlockBegin
  2
*Model_Space
 70
     0
 10
0.0
 20
0.0
 30
0.0
  3
*Model_Space
  1

  0
ENDBLK
  5
21
330
1F
100
AcDbEntity
  8
0
100
AcDbBlockEnd
  0
BLOCK
  5
1C
330
1B
100
AcDbEntity
 67
     1
  8
0
100
AcDbBlockBegin
  2
*Paper_Space
 70
     0
 10
0.0
 20
0.0
 30
0.0
  3
*Paper_Space
  1

  0
ENDBLK
  5
1D
330
1B
100
AcDbEntity
 67
     1
  8
0
100
AcDbBlockEnd
  0
BLOCK
  5
24
330
23
100
AcDbEntity
  8
0
100
AcDbBlockBegin
  2
*Paper_Space0
 70
     0
 10
0.0
 20
0.0
 30
0.0
  3
*Paper_Space0
  1

  0
ENDBLK
  5
25
330
23
100
AcDbEntity
  8
0
100
AcDbBlockEnd
  0
ENDSEC
  0
SECTION
  2
ENTITIES
  0
LINE
  5
79
330
1F
100
AcDbEntity
  8
0
  6
Continuous
 62
   150
370
    25
100
AcDbLine
 10
-172.8999998643994
 20
-114.6499997973442
 30
0.0
 11
-172.8999998643994
 21
105.3500034809113
 31
0.0
  0
LINE
  5
7A
330
1F
100
AcDbEntity
  8
0
  6
Continuous
 62
   150
370
    25
100
AcDbLine
 10
-172.8999998643994
 20
105.3500034809113
 30
0.0
 11
173.1000052914023
 21
105.3500034809113
 31
0.0
  0
LINE
  5
7B
330
1F
100
AcDbEntity
  8
0
  6
Continuous
 62
   150
370
    25
100
AcDbLine
 10
173.1000052914023
 20
105.3500034809113
 30
0.0
 11
173.1000052914023
 21
-114.6499997973442
 31
0.0
  0
LINE
  5
7C
330
1F
100
AcDbEntity
  8
0
  6
Continuous
 62
   150
370
    25
100
AcDbLine
 10
173.1000052914023
 20
-114.6499997973442
 30
0.0
 11
-172.8999998643994
 21
-114.6499997973442
 31
0.0
  0
LINE
  5
7D
330
1F
100
AcDbEntity
  8
0
  6
Continuous
 62
   150
370
    25
100
AcDbLine
 10
173.1000052914023
 20
-84.64999935030937
 30
0.0
 11
11.10000287741423
 21
-84.64999935030937
 31
0.0
  0
LINE
  5
7E
330
1F
100
AcDbEntity
  8
0
  6
Continuous
 62
   150
370
    25
100
AcDbLine
 10
11.10000287741423
 20
-84.64999935030937
 30
0.0
 11
11.10000287741423
 21
-114.6499997973442
 31
0.0
  0
LINE
  5
7F
330
1F
100
AcDbEntity
  8
0
  6
Continuous
 62
   150
370
    25
100
AcDbLine
 10
11.10000287741423
 20
-97.64999954402447
 30
0.0
 11
97.10000415891409
 21
-97.64999954402447
 31
0.0
  0
LINE
  5
80
330
1F
100
AcDbEntity
  8
0
  6
Continuous
 62
   150
370
    25
100
AcDbLine
 10
97.10000415891409
 20
-89.1499994173646
 30
0.0
 11
11.10000287741423
 21
-89.1499994173646
 31
0.0
  0
LINE
  5
81
330
1F
100
AcDbEntity
  8
0
  6
Continuous
 62
   150
370
    25
100
AcDbLine
 10
24.10000307112932
 20
-84.64999935030937
 30
0.0
 11
24.10000307112932
 21
-97.64999954402447
 31
0.0
  0
LINE
  5
82
330
1F
100
AcDbEntity
  8
0
  6
Continuous
 62
   150
370
    25
100
AcDbLine
 10
37.10000326484442
 20
-97.64999954402447
 30
0.0
 11
37.10000326484442
 21
-84.64999935030937
 31
0.0
  0
LINE
  5
83
330
1F
100
AcDbEntity
  8
0
  6
Continuous
 62
   150
370
    25
100
AcDbLine
 10
50.10000345855951
 20
-84.64999935030937
 30
0.0
 11
50.10000345855951
 21
-97.64999954402447
 31
0.0
  0
LINE
  5
84
330
1F
100
AcDbEntity
  8
0
  6
Continuous
 62
   150
370
    25
100
AcDbLine
 10
76.1000038459897
 20
-97.64999954402447
 30
0.0
 11
76.1000038459897
 21
-84.64999935030937
 31
0.0
  0
LINE
  5
85
330
1F
100
AcDbEntity
  8
0
  6
Continuous
 62
   150
370
    25
100
AcDbLine
 10
97.10000415891409
 20
-84.64999935030937
 30
0.0
 11
97.10000415891409
 21
-114.6499997973442
 31
0.0
  0
LINE
  5
86
330
1F
100
AcDbEntity
  8
0
  6
Continuous
 62
   150
370
    25
100
AcDbLine
 10
102.1000042334199
 20
-114.6499997973442
 30
0.0
 11
102.1000042334199
 21
-101.1499995961785
 31
0.0
  0
LINE
  5
87
330
1F
100
AcDbEntity
  8
0
  6
Continuous
 62
   150
370
    25
100
AcDbLine
 10
97.10000415891409
 20
-101.1499995961785
 30
0.0
 11
173.1000052914023
 21
-101.1499995961785
 31
0.0
  0
LINE
  5
88
330
1F
100
AcDbEntity
  8
0
  6
Continuous
 62
   150
370
    25
100
AcDbLine
 10
169.1000052317977
 20
-95.14999950677156
 30
0.0
 11
101.1000042185187
 21
-95.14999950677156
 31
0.0
  0
LINE
  5
89
330
1F
100
AcDbEntity
  8
0
  6
Continuous
 62
   150
370
    25
100
AcDbLine
 10
20.10000301152468
 20
-109.7499997243285
 30
0.0
 11
24.6000030785799
 21
-107.2499996870756
 31
0.0
  0
LINE
  5
8A
330
1F
100
AcDbEntity
  8
0
  6
Continuous
 62
   150
370
    25
100
AcDbLine
 10
24.6000030785799
 20
-107.2499996870756
 30
0.0
 11
29.10000314563513
 21
-109.7499997243285
 31
0.0
  0
LINE
  5
8B
330
1F
100
AcDbEntity
  8
0
  6
Continuous
 62
   150
370
    25
100
AcDbLine
 10
29.10000314563513
 20
-109.7499997243285
 30
0.0
 11
24.6000030785799
 21
-112.2499997615814
 31
0.0
  0
LINE
  5
8C
330
1F
100
AcDbEntity
  8
0
  6
Continuous
 62
   150
370
    25
100
AcDbLine
 10
24.6000030785799
 20
-112.2499997615814
 30
0.0
 11
20.10000301152468
 21
-109.7499997243285
 31
0.0
  0
LINE
  5
8D
330
1F
100
AcDbEntity
  8
0
  6
Continuous
 62
   150
370
    25
100
AcDbLine
 10
24.10000307112932
 20
-108.2499997019768
 30
0.0
 11
25.10000308603048
 21
-108.2499997019768
 31
0.0
  0
LINE
  5
8E
330
1F
100
AcDbEntity
  8
0
  6
Continuous
 62
   150
370
    25
100
AcDbLine
 10
25.10000308603048
 20
-108.2499997019768
 30
0.0
 11
25.10000308603048
 21
-111.2499997466803
 31
0.0
  0
LINE
  5
8F
330
1F
100
AcDbEntity
  8
0
  6
Continuous
 62
   150
370
    25
100
AcDbLine
 10
25.10000308603048
 20
-111.2499997466803
 30
0.0
 11
24.10000307112932
 21
-111.2499997466803
 31
0.0
  0
LINE
  5
90
330
1F
100
AcDbEntity
  8
0
  6
Continuous
 62
   150
370
    25
100
AcDbLine
 10
24.10000307112932
 20
-111.2499997466803
 30
0.0
 11
24.10000307112932
 21
-108.2499997019768
 31
0.0
  0
LINE
  5
91
330
1F
100
AcDbEntity
  8
0
  6
Continuous
 62
   150
370
    25
100
AcDbLine
 10
24.10000307112932
 20
-108.2499997019768
 30
0.0
 11
24.30000307410955
 21
-108.2499997019768
 31
0.0
  0
LINE
  5
92
330
1F
100
AcDbEntity
  8
0
  6
Continuous
 62
   150
370
    25
100
AcDbLine
 10
24.30000307410955
 20
-108.2499997019768
 30
0.0
 11
24.30000307410955
 21
-111.2499997466803
 31
0.0
  0
LINE
  5
93
330
1F
100
AcDbEntity
  8
0
  6
Continuous
 62
   150
370
    25
100
AcDbLine
 10
24.30000307410955
 20
-111.2499997466803
 30
0.0
 11
24.50000307708979
 21
-111.2499997466803
 31
0.0
  0
LINE
  5
94
330
1F
100
AcDbEntity
  8
0
  6
Continuous
 62
   150
370
    25
100
AcDbLine
 10
24.50000307708979
 20
-111.2499997466803
 30
0.0
 11
24.50000307708979
 21
-108.2499997019768
 31
0.0
  0
LINE
  5
95
330
1F
100
AcDbEntity
  8
0
  6
Continuous
 62
   150
370
    25
100
AcDbLine
 10
24.50000307708979
 20
-108.2499997019768
 30
0.0
 11
24.70000308007002
 21
-108.2499997019768
 31
0.0
  0
LINE
  5
96
330
1F
100
AcDbEntity
  8
0
  6
Continuous
 62
   150
370
    25
100
AcDbLine
 10
24.70000308007002
 20
-108.2499997019768
 30
0.0
 11
24.70000308007002
 21
-111.2499997466803
 31
0.0
  0
LINE
  5
97
330
1F
100
AcDbEntity
  8
0
  6
Continuous
 62
   150
370
    25
100
AcDbLine
 10
24.70000308007002
 20
-111.2499997466803
 30
0.0
 11
24.90000308305025
 21
-111.2499997466803
 31
0.0
  0
LINE
  5
98
330
1F
100
AcDbEntity
  8
0
  6
Continuous
 62
   150
370
    25
100
AcDbLine
 10
24.90000308305025
 20
-111.2499997466803
 30
0.0
 11
24.90000308305025
 21
-108.2499997019768
 31
0.0
  0
LINE
  5
99
330
1F
100
AcDbEntity
  8
0
  6
Continuous
 62
   150
370
    25
100
AcDbLine
 10
24.90000308305025
 20
-108.2499997019768
 30
0.0
 11
25.10000308603048
 21
-108.2499997019768
 31
0.0
  0
LINE
  5
9A
330
1F
100
AcDbEntity
  8
0
  6
Continuous
 62
   150
370
    25
100
AcDbLine
 10
25.10000308603048
 20
-108.2499997019768
 30
0.0
 11
25.10000308603048
 21
-111.2499997466803
 31
0.0
  0
TEXT
  5
9C
330
1F
100
AcDbEntity
  8
0
 62
   150
100
AcDbText
 10
13.10000291
 20
-88.44999941
 30
0.0
 40
3.0
  1
担　当
 41
0.833333335493827
  7
dcStyle0
 72
     5
 11
22.10000305
 21
-88.44999941
 31
0.0
100
AcDbText
  0
TEXT
  5
9D
330
1F
100
AcDbEntity
  8
0
 62
   150
100
AcDbText
 10
26.1000031
 20
-88.44999941
 30
0.0
 40
3.0
  1
製　図
 41
0.8333333354938274
  7
dcStyle0
 72
     5
 11
35.10000324
 21
-88.44999941
 31
0.0
100
AcDbText
  0
TEXT
  5
9E
330
1F
100
AcDbEntity
  8
0
 62
   150
100
AcDbText
 10
39.10000329
 20
-88.44999941
 30
0.0
 40
3.0
  1
検　図
 41
0.833333335493827
  7
dcStyle0
 72
     5
 11
48.10000342999999
 21
-88.44999941
 31
0.0
100
AcDbText
  0
TEXT
  5
9F
330
1F
100
AcDbEntity
  8
0
 62
   150
100
AcDbText
 10
57.10000356
 20
-88.44999941
 30
0.0
 40
3.0
  1
尺　　度
 41
0.8333333354166672
  7
dcStyle0
 72
     5
 11
69.10000374
 21
-88.44999941
 31
0.0
100
AcDbText
  0
TEXT
  5
A0
330
1F
100
AcDbEntity
  8
0
 62
   150
100
AcDbText
 10
80.60000391
 20
-88.44999941
 30
0.0
 40
3.0
  1
作　　図
 41
0.8333333354166668
  7
dcStyle0
 72
     5
 11
92.60000409
 21
-88.44999941
 31
0.0
100
AcDbText
  0
TEXT
  5
A1
330
1F
100
AcDbEntity
  8
0
 62
   150
100
AcDbText
 10
98.10000417
 20
-88.44999941
 30
0.0
 40
3.0
  1
工事名
 41
0.833333335493827
  7
dcStyle0
 72
     5
 11
107.10000431
 21
-88.44999941
 31
0.0
100
AcDbText
  0
TEXT
  5
A2
330
1F
100
AcDbEntity
  8
0
 62
   150
100
AcDbText
 10
98.10000417
 20
-99.94999958
 30
0.0
 40
2.5
  1
図面番号
 41
0.8333333354166671
  7
dcStyle0
 72
     5
 11
108.10000432
 21
-99.94999958
 31
0.0
100
AcDbText
  0
TEXT
  5
A3
330
1F
100
AcDbEntity
  8
0
 62
   150
100
AcDbText
 10
98.10000417
 20
-104.64999965
 30
0.0
 40
2.5
  1
図
 41
0.8333333333333334
  7
dcStyle0
 72
     5
 11
100.60000417
 21
-104.64999965
 31
0.0
100
AcDbText
  0
TEXT
  5
A4
330
1F
100
AcDbEntity
  8
0
 62
   150
100
AcDbText
 10
98.10000417
 20
-107.64999969
 30
0.0
 40
2.5
  1
面
 41
0.8333333333333334
  7
dcStyle0
 72
     5
 11
100.60000417
 21
-107.64999969
 31
0.0
100
AcDbText
  0
TEXT
  5
A5
330
1F
100
AcDbEntity
  8
0
 62
   150
100
AcDbText
 10
98.10000417
 20
-110.64999974
 30
0.0
 40
2.5
  1
名
 41
0.8333333333333334
  7
dcStyle0
 72
     5
 11
100.60000417
 21
-110.64999974
 31
0.0
100
AcDbText
  0
TEXT
  5
A6
330
1F
100
AcDbEntity
  8
0
 62
   150
100
AcDbText
 10
98.10000417
 20
-113.64999978
 30
0.0
 40
2.5
  1
称
 41
0.8333333333333334
  7
dcStyle0
 72
     5
 11
100.60000417
 21
-113.64999978
 31
0.0
100
AcDbText
  0
TEXT
  5
A7
330
1F
100
AcDbEntity
  8
0
 62
   150
100
AcDbText
 10
81.30000392
 20
-94.6499995
 30
0.0
 40
2.5
  1
年
 41
0.8333333333333334
  7
dcStyle0
 72
     5
 11
83.80000392
 21
-94.6499995
 31
0.0
100
AcDbText
  0
TEXT
  5
A8
330
1F
100
AcDbEntity
  8
0
 62
   150
100
AcDbText
 10
87.80000402
 20
-94.6499995
 30
0.0
 40
2.5
  1
月
 41
0.8333333333333334
  7
dcStyle0
 72
     5
 11
90.30000402
 21
-94.6499995
 31
0.0
100
AcDbText
  0
TEXT
  5
A9
330
1F
100
AcDbEntity
  8
0
 62
   150
100
AcDbText
 10
94.30000412
 20
-94.6499995
 30
0.0
 40
2.5
  1
日
 41
0.8333333333333334
  7
dcStyle0
 72
     5
 11
96.80000412
 21
-94.6499995
 31
0.0
100
AcDbText
  0
TEXT
  5
AA
330
1F
100
AcDbEntity
  8
0
 62
   222
100
AcDbText
 10
25.60000309
 20
-104.44999965
 30
0.0
 40
4.0
  1
タイヘイグレーチング
 41
1.041666666041667
  7
dcStyle0
 72
     5
 11
75.60000381
 21
-104.44999965
 31
0.0
100
AcDbText
  0
TEXT
  5
AB
330
1F
100
AcDbEntity
  8
0
 62
   222
100
AcDbText
 10
30.85000317
 20
-111.94999976
 30
0.0
 40
5.0
  1
石田鉄工株式会社
 41
0.8461538481952663
  7
dcStyle0
 72
     5
 11
74.85000386
 21
-111.94999976
 31
0.0
100
AcDbText
  0
LINE
  5
AC
330
1F
100
AcDbEntity
  8
22
  6
Continuous
 62
     2
370
    25
100
AcDbLine
 10
-182.0
 20
-128.25
 30
0.0
 11
-178.9999999552965
 21
-128.25
 31
0.0
  0
LINE
  5
AD
330
1F
100
AcDbEntity
  8
22
  6
Continuous
 62
     2
370
    25
100
AcDbLine
 10
-178.9999999552965
 20
-128.25
 30
0.0
 11
-178.9999999552965
 21
-125.2499999552965
 31
0.0
  0
LINE
  5
AE
330
1F
100
AcDbEntity
  8
22
  6
Continuous
 62
     2
370
    25
100
AcDbLine
 10
-178.9999999552965
 20
-125.2499999552965
 30
0.0
 11
-182.0
 21
-125.2499999552965
 31
0.0
  0
LINE
  5
AF
330
1F
100
AcDbEntity
  8
22
  6
Continuous
 62
     2
370
    25
100
AcDbLine
 10
-182.0
 20
-125.2499999552965
 30
0.0
 11
-182.0
 21
-128.25
 31
0.0
  0
LINE
  5
B0
330
1F
100
AcDbEntity
  8
22
  6
Continuous
 62
     2
370
    25
100
AcDbLine
 10
-182.0
 20
-128.25
 30
0.0
 11
-178.9999999552965
 21
-128.25
 31
0.0
  0
LINE
  5
B1
330
1F
100
AcDbEntity
  8
22
  6
Continuous
 62
     2
370
    25
100
AcDbLine
 10
-178.9999999552965
 20
-128.25
 30
0.0
 11
-178.9999999552965
 21
-125.2499999552965
 31
0.0
  0
LINE
  5
B2
330
1F
100
AcDbEntity
  8
22
  6
Continuous
 62
     2
370
    25
100
AcDbLine
 10
-178.9999999552965
 20
-125.2499999552965
 30
0.0
 11
-182.0
 21
-125.2499999552965
 31
0.0
  0
LINE
  5
B3
330
1F
100
AcDbEntity
  8
22
  6
Continuous
 62
     2
370
    25
100
AcDbLine
 10
-182.0
 20
-125.2499999552965
 30
0.0
 11
-182.0
 21
-128.25
 31
0.0
  0
LINE
  5
B4
330
1F
100
AcDbEntity
  8
22
  6
Continuous
 62
     2
370
    25
100
AcDbLine
 10
-182.0
 20
-128.25
 30
0.0
 11
-178.9999999552965
 21
-128.25
 31
0.0
  0
LINE
  5
B5
330
1F
100
AcDbEntity
  8
22
  6
Continuous
 62
     2
370
    25
100
AcDbLine
 10
-178.9999999552965
 20
-128.25
 30
0.0
 11
-178.9999999552965
 21
-125.2499999552965
 31
0.0
  0
LINE
  5
B6
330
1F
100
AcDbEntity
  8
22
  6
Continuous
 62
     2
370
    25
100
AcDbLine
 10
-178.9999999552965
 20
-125.2499999552965
 30
0.0
 11
-182.0
 21
-125.2499999552965
 31
0.0
  0
LINE
  5
B7
330
1F
100
AcDbEntity
  8
22
  6
Continuous
 62
     2
370
    25
100
AcDbLine
 10
-182.0
 20
-125.2499999552965
 30
0.0
 11
-182.0
 21
-128.25
 31
0.0
  0
TEXT
  5
B8
330
1F
100
AcDbEntity
  8
22
 62
     2
100
AcDbText
 10
103.10000425
 20
-105.74999966
 30
0.0
 40
3.2
  1
GTUF
 41
0.9375000008789062
  7
dcStyle0
 72
     5
 11
115.10000443
 21
-105.74999966
 31
0.0
100
AcDbText
  0
TEXT
  5
B9
330
1F
100
AcDbEntity
  8
22
 62
     2
100
AcDbText
 10
115.10000443
 20
-105.74999966
 30
0.0
 40
3.0
  1
 240 
 41
0.8333333355555557
  7
dcStyle0
 72
     5
 11
127.60000463
 21
-105.74999966
 31
0.0
100
AcDbText
  0
TEXT
  5
BA
330
1F
100
AcDbEntity
  8
22
 62
     2
100
AcDbText
 10
125.10000458
 20
-105.74999966
 30
0.0
 40
3.0
  1
×
 41
0.6944444444444484
  7
dcStyle0
 72
     5
 11
127.60000458
 21
-105.74999966
 31
0.0
100
AcDbText
  0
TEXT
  5
BB
330
1F
100
AcDbEntity
  8
22
 62
     2
100
AcDbText
 10
125.10000458
 20
-105.74999966
 30
0.0
 40
3.0
  1
 995 
 41
0.8333333355555557
  7
dcStyle0
 72
     5
 11
137.60000478
 21
-105.74999966
 31
0.0
100
AcDbText
  0
TEXT
  5
BC
330
1F
100
AcDbEntity
  8
22
 62
     2
100
AcDbText
 10
135.10000473
 20
-105.74999966
 30
0.0
 40
3.0
  1
×
 41
0.6944444444444445
  7
dcStyle0
 72
     5
 11
137.60000473
 21
-105.74999966
 31
0.0
100
AcDbText
  0
TEXT
  5
BD
330
1F
100
AcDbEntity
  8
22
 62
     2
100
AcDbText
 10
135.10000473
 20
-105.74999966
 30
0.0
 40
3.0
  1
 19 
 41
0.8333333354166671
  7
dcStyle0
 72
     5
 11
145.10000488
 21
-105.74999966
 31
0.0
100
AcDbText
  0
TEXT
  5
BE
330
1F
100
AcDbEntity
  8
22
 62
     2
100
AcDbText
 10
130.10000465
 20
-109.24999972
 30
0.0
 40
2.5
  1
Ｃ寸法：
 41
0.6666666700000008
  7
dcStyle0
 72
     5
 11
138.10000477
 21
-109.24999972
 31
0.0
100
AcDbText
  0
TEXT
  5
BF
330
1F
100
AcDbEntity
  8
22
 62
     2
100
AcDbText
 10
135.60000473
 20
-109.24999972
 30
0.0
 40
2.5
  1
 231 
 41
0.8000000025600009
  7
dcStyle0
 72
     5
 11
145.60000489
 21
-109.24999972
 31
0.0
100
AcDbText
  0
TEXT
  5
C0
330
1F
100
AcDbEntity
  8
22
 62
     2
100
AcDbText
 10
26.3500031
 20
-94.6499995
 30
0.0
 40
3.0
  1
岡本　
 41
0.8536585384889943
  7
dcStyle0
 72
     5
 11
36.85000325999999
 21
-94.6499995
 31
0.0
100
AcDbText
  0
TEXT
  5
C1
330
1F
100
AcDbEntity
  8
22
 62
     2
100
AcDbText
 10
38.85000329
 20
-94.6499995
 30
0.0
 40
3.0
  1
戸田　
 41
0.8536585384889945
  7
dcStyle0
 72
     5
 11
49.35000345
 21
-94.6499995
 31
0.0
100
AcDbText
  0
TEXT
  5
C2
330
1F
100
AcDbEntity
  8
22
 62
     2
100
AcDbText
 10
57.40000357
 20
-94.6499995
 30
0.0
 40
3.0
  1
1/
 41
1.000000000000001
  7
dcStyle0
 72
     5
 11
63.40000366000001
 21
-94.6499995
 31
0.0
100
AcDbText
  0
TEXT
  5
C3
330
1F
100
AcDbEntity
  8
22
 62
     2
100
AcDbText
 10
60.40000361
 20
-94.6499995
 30
0.0
 40
3.0
  1
 10 
  7
dcStyle0
 72
     5
 11
72.40000379
 21
-94.6499995
 31
0.0
100
AcDbText
  0
TEXT
  5
C4
330
1F
100
AcDbEntity
  8
22
 62
     2
100
AcDbText
 10
110.00000435
 20
-100.14999958
 30
0.0
 40
3.0
  1
GTUF19-24
 41
0.8333333353086424
  7
dcStyle0
 72
     5
 11
132.50000467
 21
-100.14999958
 31
0.0
100
AcDbText
  0
TEXT
  5
C5
330
1F
100
AcDbEntity
  8
22
 62
     2
100
AcDbText
 10
74.65000382
 20
-73.24999918
 30
0.0
 40
3.5
  1
＜表面処理＞
 41
0.7446808537799908
  7
dcStyle0
 72
     5
 11
95.65000411999999
 21
-73.24999918
 31
0.0
100
AcDbText
  0
TEXT
  5
C6
330
1F
100
AcDbEntity
  8
22
 62
     2
100
AcDbText
 10
79.6500039
 20
-78.24999925
 30
0.0
 40
3.5
  1
本体：溶融亜鉛メッキ
 41
0.7446808537256675
  7
dcStyle0
 72
     5
 11
114.65000439
 21
-78.24999925
 31
0.0
100
AcDbText
  0
TEXT
  5
C7
330
1F
100
AcDbEntity
  8
22
 62
     2
100
AcDbText
 10
24.90000308
 20
-78.24999925
 30
0.0
 40
3.0
  1
本体重量：
 41
0.6944444478395061
  7
dcStyle0
 72
     5
 11
37.40000328
 21
-78.24999925
 31
0.0
100
AcDbText
  0
TEXT
  5
C8
330
1F
100
AcDbEntity
  8
22
 62
     2
100
AcDbText
 10
37.40000327
 20
-78.24999925
 30
0.0
 40
3.0
  1
  7.0
 41
0.666666670222222
  7
dcStyle0
 72
     5
 11
47.40000343
 21
-78.24999925
 31
0.0
100
AcDbText
  0
TEXT
  5
C9
330
1F
100
AcDbEntity
  8
22
 62
     2
100
AcDbText
 10
47.40000342
 20
-78.24999925
 30
0.0
 40
3.0
  1
Kg
 41
0.6666666699999997
  7
dcStyle0
 72
     5
 11
51.40000348
 21
-78.24999925
 31
0.0
100
AcDbText
  0
TEXT
  5
CA
330
1F
100
AcDbEntity
  8
22
 62
     2
100
AcDbText
 10
-116.74999903
 20
57.47500277
 30
0.0
 40
2.5
  1
ベアリングバー：
 41
0.8333333352777776
  7
dcStyle0
 72
     5
 11
-96.74999875
 21
57.47500277
 31
0.0
100
AcDbText
  0
TEXT
  5
CB
330
1F
100
AcDbEntity
  8
22
 62
     2
100
AcDbText
 10
-96.74999873
 20
57.47500277
 30
0.0
 40
2.5
  1
NF-
 41
0.9999999999999994
  7
dcStyle0
 72
     5
 11
-89.24999861
 21
57.47500277
 31
0.0
100
AcDbText
  0
TEXT
  5
CC
330
1F
100
AcDbEntity
  8
22
 62
     2
100
AcDbText
 10
-91.24999865
 20
57.47500277
 30
0.0
 40
2.5
  1
 3 
 41
0.9999999999999994
  7
dcStyle0
 72
     5
 11
-83.74999853
 21
57.47500277
 31
0.0
100
AcDbText
  0
TEXT
  5
CD
330
1F
100
AcDbEntity
  8
22
 62
     2
100
AcDbText
 10
-86.24999857
 20
57.47500277
 30
0.0
 40
2.5
  1
×
 41
0.8333333333333334
  7
dcStyle0
 72
     5
 11
-83.74999857
 21
57.47500277
 31
0.0
100
AcDbText
  0
TEXT
  5
CE
330
1F
100
AcDbEntity
  8
22
 62
     2
100
AcDbText
 10
-85.74999857
 20
57.47500277
 30
0.0
 40
2.5
  1
 19 
 41
1.0
  7
dcStyle0
 72
     5
 11
-75.74999842
 21
57.47500277
 31
0.0
100
AcDbText
  0
TEXT
  5
CF
330
1F
100
AcDbEntity
  8
22
 62
     2
100
AcDbText
 10
-113.01249897
 20
52.7500027
 30
0.0
 40
2.5
  1
ツイストバー：
 41
0.8333333352380948
  7
dcStyle0
 72
     5
 11
-95.51249873
 21
52.7500027
 31
0.0
100
AcDbText
  0
TEXT
  5
D0
330
1F
100
AcDbEntity
  8
22
 62
     2
100
AcDbText
 10
-94.01244386
 20
52.76047317
 30
0.0
 40
2.5
  1
 5.5 
 41
0.8000000025599998
  7
dcStyle0
 72
     5
 11
-84.0124437
 21
52.76047317
 31
0.0
100
AcDbText
  0
TEXT
  5
D1
330
1F
100
AcDbEntity
  8
22
 62
     2
100
AcDbText
 10
-109.74999892
 20
47.75000262
 30
0.0
 40
2.5
  1
エンドアングル：
 41
0.8333333352777776
  7
dcStyle0
 72
     5
 11
-89.74999864
 21
47.75000262
 31
0.0
100
AcDbText
  0
TEXT
  5
D2
330
1F
100
AcDbEntity
  8
22
 62
     2
100
AcDbText
 10
-89.74999863
 20
47.75000262
 30
0.0
 40
2.5
  1
L
  7
dcStyle0
 72
     5
 11
-87.24999863
 21
47.75000262
 31
0.0
100
AcDbText
  0
TEXT
  5
D3
330
1F
100
AcDbEntity
  8
22
 62
     2
100
AcDbText
 10
-89.24999862
 20
47.75000262
 30
0.0
 40
2.5
  1
 3 
 41
0.9999999999999994
  7
dcStyle0
 72
     5
 11
-81.7499985
 21
47.75000262
 31
0.0
100
AcDbText
  0
TEXT
  5
D4
330
1F
100
AcDbEntity
  8
22
 62
     2
100
AcDbText
 10
-84.24999854
 20
47.75000262
 30
0.0
 40
2.5
  1
×
 41
0.8333333333333334
  7
dcStyle0
 72
     5
 11
-81.74999854
 21
47.75000262
 31
0.0
100
AcDbText
  0
TEXT
  5
D5
330
1F
100
AcDbEntity
  8
22
 62
     2
100
AcDbText
 10
-83.74999854
 20
47.75000262
 30
0.0
 40
2.5
  1
 30 
 41
1.0
  7
dcStyle0
 72
     5
 11
-73.74999839
 21
47.75000262
 31
0.0
100
AcDbText
  0
TEXT
  5
D6
330
1F
100
AcDbEntity
  8
22
 62
     2
100
AcDbText
 10
-76.24999842
 20
47.75000262
 30
0.0
 40
2.5
  1
×
 41
0.8333333333333334
  7
dcStyle0
 72
     5
 11
-73.74999842
 21
47.75000262
 31
0.0
100
AcDbText
  0
TEXT
  5
D7
330
1F
100
AcDbEntity
  8
22
 62
     2
100
AcDbText
 10
-75.74999842
 20
47.75000262
 30
0.0
 40
2.5
  1
 30 
 41
1.0
  7
dcStyle0
 72
     5
 11
-65.74999826999999
 21
47.75000262
 31
0.0
100
AcDbText
  0
TEXT
  5
D8
330
1F
100
AcDbEntity
  8
22
 62
     2
100
AcDbText
 10
-106.74999888
 20
-34.94999861
 30
0.0
 40
3.0
  1
 30 
 41
0.8333333354166671
  7
dcStyle0
 72
     5
 11
-96.74999873
 21
-34.94999861
 31
0.0
100
AcDbText
  0
TEXT
  5
D9
330
1F
100
AcDbEntity
  8
22
 62
     2
100
AcDbText
 10
-98.39999875
 20
-27.94999851
 30
0.0
 40
3.0
  1
 995 
 41
0.8333333355555557
  7
dcStyle0
 72
     5
 11
-85.89999854999999
 21
-27.94999851
 31
0.0
100
AcDbText
  0
TEXT
  5
DA
330
1F
100
AcDbEntity
  8
22
 62
     2
100
AcDbText
 10
-1.699997305993621
 20
22.30000224480765
 30
0.0
 40
3.0
  1
 50 
 50
90.0000001836389
 41
0.8333333354166668
  7
dcStyle0
 72
     5
 11
-1.699997338044656
 21
32.30000239480766
 31
0.0
100
AcDbText
  0
TEXT
  5
DB
330
1F
100
AcDbEntity
  8
22
 62
     2
100
AcDbText
 10
-8.699997415993622
 20
29.05000234480765
 30
0.0
 40
3.0
  1
 30 
 50
90.0000001836389
 41
0.8333333354166671
  7
dcStyle0
 72
     5
 11
-8.699997448044657
 21
39.05000249480766
 31
0.0
100
AcDbText
  0
TEXT
  5
DC
330
1F
100
AcDbEntity
  8
22
 62
     2
100
AcDbText
 10
-8.699997415993622
 20
9.550002054807655
 30
0.0
 40
3.0
  1
 225 
 50
90.0000001836389
 41
0.8333333355555556
  7
dcStyle0
 72
     5
 11
-8.699997456057416
 21
22.05000225480766
 31
0.0
100
AcDbText
  0
TEXT
  5
DD
330
1F
100
AcDbEntity
  8
22
 62
     2
100
AcDbText
 10
-8.699997415993622
 20
-7.449998195192345
 30
0.0
 40
3.0
  1
 30 
 50
90.0000001836389
 41
0.8333333354166667
  7
dcStyle0
 72
     5
 11
-8.699997448044657
 21
2.550001954807655
 31
0.0
100
AcDbText
  0
TEXT
  5
DE
330
1F
100
AcDbEntity
  8
22
 62
     2
100
AcDbText
 10
-15.69999751599362
 20
9.550002054807655
 30
0.0
 40
3.0
  1
 285 
 50
90.0000001836389
 41
0.8333333355555556
  7
dcStyle0
 72
     5
 11
-15.69999755605741
 21
22.05000225480766
 31
0.0
100
AcDbText
  0
TEXT
  5
DF
330
1F
100
AcDbEntity
  8
22
 62
     2
100
AcDbText
 10
13.60000291400638
 20
9.550002054807655
 30
0.0
 40
3.0
  1
 231 
 50
90.0000001836389
 41
0.8333333355555558
  7
dcStyle0
 72
     5
 11
13.60000287394259
 21
22.05000225480766
 31
0.0
100
AcDbText
  0
TEXT
  5
E0
330
1F
100
AcDbEntity
  8
22
 62
     2
100
AcDbText
 10
20.60000302400638
 20
9.550002054807655
 30
0.0
 40
3.0
  1
 240 
 50
90.0000001836389
 41
0.8333333355555553
  7
dcStyle0
 72
     5
 11
20.60000298394258
 21
22.05000225480765
 31
0.0
100
AcDbText
  0
TEXT
  5
E1
330
1F
100
AcDbEntity
  8
22
 62
     2
100
AcDbText
 10
25.60000309480765
 20
11.30000208480766
 30
0.0
 40
3.0
  1
溝幅
 50
90.0000001836389
 41
0.8695652190926273
  7
dcStyle0
 72
     5
 11
25.60000306916683
 21
19.30000220480765
 31
0.0
100
AcDbText
  0
TEXT
  5
E2
330
1F
100
AcDbEntity
  8
22
 62
     2
100
AcDbText
 10
-4.89999736
 20
-13.54999829
 30
0.0
 40
3.0
  1
 19 
 41
0.8333333354166667
  7
dcStyle0
 72
     5
 11
5.10000279
 21
-13.54999829
 31
0.0
100
AcDbText
  0
LINE
  5
E3
330
1F
100
AcDbEntity
  8
32
  6
Continuous
 62
     4
370
    25
100
AcDbLine
 10
-3.099997334182262
 20
-87.64999939501286
 30
0.0
 11
-1.599997334182262
 21
-87.64999939501286
 31
0.0
  0
LINE
  5
E4
330
1F
100
AcDbEntity
  8
32
  6
Continuous
 62
     4
370
    25
100
AcDbLine
 10
-1.599997334182262
 20
-87.64999939501286
 30
0.0
 11
-1.599997334182262
 21
-107.6499993950129
 31
0.0
  0
LINE
  5
E5
330
1F
100
AcDbEntity
  8
32
  6
Continuous
 62
     4
370
    25
100
AcDbLine
 10
-3.099997334182262
 20
-107.6499993950129
 30
0.0
 11
-3.099997334182262
 21
-87.64999939501286
 31
0.0
  0
LINE
  5
E6
330
1F
100
AcDbEntity
  8
32
  6
Continuous
 62
     4
370
    25
100
AcDbLine
 10
-3.099997334182262
 20
-88.64999939501286
 30
0.0
 11
-1.599997334182262
 21
-88.64999939501286
 31
0.0
  0
LINE
  5
E7
330
1F
100
AcDbEntity
  8
32
  6
Continuous
 62
     4
370
    25
100
AcDbLine
 10
-1.599997334182262
 20
-89.14999939501286
 30
0.0
 11
-3.099997334182262
 21
-89.14999939501286
 31
0.0
  0
LINE
  5
E8
330
1F
100
AcDbEntity
  8
32
  6
Continuous
 62
     4
370
    25
100
AcDbLine
 10
-3.099997334182262
 20
-91.64999939501286
 30
0.0
 11
-1.599997334182262
 21
-91.64999939501286
 31
0.0
  0
LINE
  5
E9
330
1F
100
AcDbEntity
  8
32
  6
Continuous
 62
     4
370
    25
100
AcDbLine
 10
-1.599997334182262
 20
-92.14999939501286
 30
0.0
 11
-3.099997334182262
 21
-92.14999939501286
 31
0.0
  0
LINE
  5
EA
330
1F
100
AcDbEntity
  8
32
  6
Continuous
 62
     4
370
    25
100
AcDbLine
 10
-3.099997334182262
 20
-95.64999939501286
 30
0.0
 11
-1.599997334182262
 21
-95.64999939501286
 31
0.0
  0
LINE
  5
EB
330
1F
100
AcDbEntity
  8
32
  6
Continuous
 62
     4
370
    25
100
AcDbLine
 10
-1.599997334182262
 20
-96.14999939501286
 30
0.0
 11
-3.099997334182262
 21
-96.14999939501286
 31
0.0
  0
LINE
  5
EC
330
1F
100
AcDbEntity
  8
32
  6
Continuous
 62
     4
370
    25
100
AcDbLine
 10
-3.099997334182262
 20
-98.64999939501286
 30
0.0
 11
-1.599997334182262
 21
-98.64999939501286
 31
0.0
  0
LINE
  5
ED
330
1F
100
AcDbEntity
  8
32
  6
Continuous
 62
     4
370
    25
100
AcDbLine
 10
-1.599997334182262
 20
-99.14999939501286
 30
0.0
 11
-3.099997334182262
 21
-99.14999939501286
 31
0.0
  0
LINE
  5
EE
330
1F
100
AcDbEntity
  8
32
  6
Continuous
 62
     4
370
    25
100
AcDbLine
 10
-3.099997334182262
 20
-102.6499993950129
 30
0.0
 11
-1.599997334182262
 21
-102.6499993950129
 31
0.0
  0
LINE
  5
EF
330
1F
100
AcDbEntity
  8
32
  6
Continuous
 62
     4
370
    25
100
AcDbLine
 10
-1.599997334182262
 20
-103.1499993950129
 30
0.0
 11
-3.099997334182262
 21
-103.1499993950129
 31
0.0
  0
LINE
  5
F0
330
1F
100
AcDbEntity
  8
32
  6
Continuous
 62
     4
370
    25
100
AcDbLine
 10
-3.099997334182262
 20
-105.6499993950129
 30
0.0
 11
-1.599997334182262
 21
-105.6499993950129
 31
0.0
  0
LINE
  5
F1
330
1F
100
AcDbEntity
  8
32
  6
Continuous
 62
     4
370
    25
100
AcDbLine
 10
-1.599997334182262
 20
-106.1499993950129
 30
0.0
 11
-3.099997334182262
 21
-106.1499993950129
 31
0.0
  0
LINE
  5
F2
330
1F
100
AcDbEntity
  8
32
  6
Continuous
 62
     4
370
    25
100
AcDbLine
 10
-3.099997334182262
 20
-87.14999938756227
 30
0.0
 11
-3.099997334182262
 21
-83.14999932795763
 31
0.0
  0
LINE
  5
F3
330
1F
100
AcDbEntity
  8
32
  6
Continuous
 62
     4
370
    25
100
AcDbLine
 10
-3.099997334182262
 20
-83.64999933540821
 30
0.0
 11
-4.599997356534004
 21
-83.24999932944775
 31
0.0
  0
LINE
  5
F4
330
1F
100
AcDbEntity
  8
32
  6
Continuous
 62
     4
370
    25
100
AcDbLine
 10
-4.599997356534004
 20
-84.04999934136868
 30
0.0
 11
-3.099997334182262
 21
-83.64999933540821
 31
0.0
  0
LINE
  5
F5
330
1F
100
AcDbEntity
  8
32
  6
Continuous
 62
     4
370
    25
100
AcDbLine
 10
-3.099997334182262
 20
-83.64999933540821
 30
0.0
 11
-6.099997378885746
 21
-83.64999933540821
 31
0.0
  0
LINE
  5
F6
330
1F
100
AcDbEntity
  8
32
  6
Continuous
 62
     4
370
    25
100
AcDbLine
 10
-3.099997334182262
 20
-83.64999933540821
 30
0.0
 11
-1.599997311830521
 21
-83.64999933540821
 31
0.0
  0
LINE
  5
F7
330
1F
100
AcDbEntity
  8
32
  6
Continuous
 62
     4
370
    25
100
AcDbLine
 10
-1.599997311830521
 20
-83.64999933540821
 30
0.0
 11
-0.0999972894787788
 21
-83.24999932944775
 31
0.0
  0
LINE
  5
F8
330
1F
100
AcDbEntity
  8
32
  6
Continuous
 62
     4
370
    25
100
AcDbLine
 10
-0.0999972894787788
 20
-84.04999934136868
 30
0.0
 11
-1.599997311830521
 21
-83.64999933540821
 31
0.0
  0
LINE
  5
F9
330
1F
100
AcDbEntity
  8
32
  6
Continuous
 62
     4
370
    25
100
AcDbLine
 10
-1.599997311830521
 20
-83.64999933540821
 30
0.0
 11
1.400002732872963
 21
-83.64999933540821
 31
0.0
  0
LINE
  5
FA
330
1F
100
AcDbEntity
  8
32
  6
Continuous
 62
     4
370
    25
100
AcDbLine
 10
-1.599997311830521
 20
-83.14999932795763
 30
0.0
 11
-1.599997311830521
 21
-87.14999938756227
 31
0.0
  0
LINE
  5
FB
330
1F
100
AcDbEntity
  8
32
  6
Continuous
 62
     4
370
    25
100
AcDbLine
 10
6.400003030896187
 20
-113.1499994024634
 30
0.0
 11
-19.09999734908342
 21
-113.1499994024634
 31
0.0
  0
TEXT
  5
FC
330
1F
100
AcDbEntity
  8
32
 62
     2
100
AcDbText
 10
-3.34999734
 20
-83.14999933
 30
0.0
 40
2.5
  1
3
 41
0.8
  7
dcStyle0
 72
     5
 11
-1.34999734
 21
-83.14999933
 31
0.0
100
AcDbText
  0
TEXT
  5
FD
330
1F
100
AcDbEntity
  8
32
 62
     2
100
AcDbText
 10
-18.09999733
 20
-112.6499994
 30
0.0
 40
2.5
  1
主部材ノンスリップ部詳細
 41
0.6666666697222222
  7
dcStyle0
 72
     5
 11
5.900002999999998
 21
-112.6499994
 31
0.0
100
AcDbText
  0
LINE
  5
FE
330
1F
100
AcDbEntity
  8
16
  6
Continuous
 62
     3
370
    25
100
AcDbLine
 10
-182.0
 20
-128.25
 30
0.0
 11
-178.9999999552965
 21
-128.25
 31
0.0
  0
LINE
  5
FF
330
1F
100
AcDbEntity
  8
16
  6
Continuous
 62
     3
370
    25
100
AcDbLine
 10
-178.9999999552965
 20
-128.25
 30
0.0
 11
-178.9999999552965
 21
-125.2499999552965
 31
0.0
  0
LINE
  5
100
330
1F
100
AcDbEntity
  8
16
  6
Continuous
 62
     3
370
    25
100
AcDbLine
 10
-178.9999999552965
 20
-125.2499999552965
 30
0.0
 11
-182.0
 21
-125.2499999552965
 31
0.0
  0
LINE
  5
101
330
1F
100
AcDbEntity
  8
16
  6
Continuous
 62
     3
370
    25
100
AcDbLine
 10
-182.0
 20
-125.2499999552965
 30
0.0
 11
-182.0
 21
-128.25
 31
0.0
  0
LINE
  5
102
330
1F
100
AcDbEntity
  8
16
  6
Continuous
 62
     3
370
    25
100
AcDbLine
 10
-182.0
 20
-128.25
 30
0.0
 11
-178.9999999552965
 21
-128.25
 31
0.0
  0
LINE
  5
103
330
1F
100
AcDbEntity
  8
16
  6
Continuous
 62
     3
370
    25
100
AcDbLine
 10
-178.9999999552965
 20
-128.25
 30
0.0
 11
-178.9999999552965
 21
-125.2499999552965
 31
0.0
  0
LINE
  5
104
330
1F
100
AcDbEntity
  8
16
  6
Continuous
 62
     3
370
    25
100
AcDbLine
 10
-178.9999999552965
 20
-125.2499999552965
 30
0.0
 11
-182.0
 21
-125.2499999552965
 31
0.0
  0
LINE
  5
105
330
1F
100
AcDbEntity
  8
16
  6
Continuous
 62
     3
370
    25
100
AcDbLine
 10
-182.0
 20
-125.2499999552965
 30
0.0
 11
-182.0
 21
-128.25
 31
0.0
  0
LINE
  5
106
330
1F
100
AcDbEntity
  8
16
  6
Continuous
 62
     3
370
    25
100
AcDbLine
 10
-182.0
 20
-128.25
 30
0.0
 11
-178.9999999552965
 21
-128.25
 31
0.0
  0
LINE
  5
107
330
1F
100
AcDbEntity
  8
16
  6
Continuous
 62
     3
370
    25
100
AcDbLine
 10
-178.9999999552965
 20
-128.25
 30
0.0
 11
-178.9999999552965
 21
-125.2499999552965
 31
0.0
  0
LINE
  5
108
330
1F
100
AcDbEntity
  8
16
  6
Continuous
 62
     3
370
    25
100
AcDbLine
 10
-178.9999999552965
 20
-125.2499999552965
 30
0.0
 11
-182.0
 21
-125.2499999552965
 31
0.0
  0
LINE
  5
109
330
1F
100
AcDbEntity
  8
16
  6
Continuous
 62
     3
370
    25
100
AcDbLine
 10
-182.0
 20
-125.2499999552965
 30
0.0
 11
-182.0
 21
-128.25
 31
0.0
  0
LINE
  5
10A
330
1F
100
AcDbEntity
  8
16
  6
Continuous
 62
     3
370
    25
100
AcDbLine
 10
-182.0
 20
-128.25
 30
0.0
 11
-178.9999999552965
 21
-128.25
 31
0.0
  0
LINE
  5
10B
330
1F
100
AcDbEntity
  8
16
  6
Continuous
 62
     3
370
    25
100
AcDbLine
 10
-178.9999999552965
 20
-128.25
 30
0.0
 11
-178.9999999552965
 21
-125.2499999552965
 31
0.0
  0
LINE
  5
10C
330
1F
100
AcDbEntity
  8
16
  6
Continuous
 62
     3
370
    25
100
AcDbLine
 10
-178.9999999552965
 20
-125.2499999552965
 30
0.0
 11
-182.0
 21
-125.2499999552965
 31
0.0
  0
LINE
  5
10D
330
1F
100
AcDbEntity
  8
16
  6
Continuous
 62
     3
370
    25
100
AcDbLine
 10
-182.0
 20
-125.2499999552965
 30
0.0
 11
-182.0
 21
-128.25
 31
0.0
  0
LINE
  5
10E
330
1F
100
AcDbEntity
  8
16
  6
Continuous
 62
     3
370
    25
100
AcDbLine
 10
-182.0
 20
-128.25
 30
0.0
 11
-178.9999999552965
 21
-128.25
 31
0.0
  0
LINE
  5
10F
330
1F
100
AcDbEntity
  8
16
  6
Continuous
 62
     3
370
    25
100
AcDbLine
 10
-178.9999999552965
 20
-128.25
 30
0.0
 11
-178.9999999552965
 21
-125.2499999552965
 31
0.0
  0
LINE
  5
110
330
1F
100
AcDbEntity
  8
16
  6
Continuous
 62
     3
370
    25
100
AcDbLine
 10
-178.9999999552965
 20
-125.2499999552965
 30
0.0
 11
-182.0
 21
-125.2499999552965
 31
0.0
  0
LINE
  5
111
330
1F
100
AcDbEntity
  8
16
  6
Continuous
 62
     3
370
    25
100
AcDbLine
 10
-182.0
 20
-125.2499999552965
 30
0.0
 11
-182.0
 21
-128.25
 31
0.0
  0
LINE
  5
112
330
1F
100
AcDbEntity
  8
16
  6
Continuous
 62
     3
370
    25
100
AcDbLine
 10
-141.8999994024634
 20
30.05000235885382
 30
0.0
 11
-42.3999979197979
 21
30.05000235885382
 31
0.0
  0
LINE
  5
113
330
1F
100
AcDbEntity
  8
16
  6
Continuous
 62
     3
370
    25
100
AcDbLine
 10
-42.3999979197979
 20
30.05000235885382
 30
0.0
 11
-42.3999979197979
 21
27.05000231415033
 31
0.0
  0
LINE
  5
114
330
1F
100
AcDbEntity
  8
16
  6
Continuous
 62
     3
370
    25
100
AcDbLine
 10
-42.3999979197979
 20
27.05000231415033
 30
0.0
 11
-141.8999994024634
 21
27.05000231415033
 31
0.0
  0
LINE
  5
115
330
1F
100
AcDbEntity
  8
16
  6
Continuous
 62
     3
370
    25
100
AcDbLine
 10
-141.8999994024634
 20
27.05000231415033
 30
0.0
 11
-141.8999994024634
 21
30.05000235885382
 31
0.0
  0
LINE
  5
116
330
1F
100
AcDbEntity
  8
16
  6
Continuous
 62
     3
370
    25
100
AcDbLine
 10
-141.8999994024634
 20
4.550001978874207
 30
0.0
 11
-42.3999979197979
 21
4.550001978874207
 31
0.0
  0
LINE
  5
117
330
1F
100
AcDbEntity
  8
16
  6
Continuous
 62
     3
370
    25
100
AcDbLine
 10
-42.3999979197979
 20
4.550001978874207
 30
0.0
 11
-42.3999979197979
 21
1.550001934170723
 31
0.0
  0
LINE
  5
118
330
1F
100
AcDbEntity
  8
16
  6
Continuous
 62
     3
370
    25
100
AcDbLine
 10
-42.3999979197979
 20
1.550001934170723
 30
0.0
 11
-141.8999994024634
 21
1.550001934170723
 31
0.0
  0
LINE
  5
119
330
1F
100
AcDbEntity
  8
16
  6
Continuous
 62
     3
370
    25
100
AcDbLine
 10
-141.8999994024634
 20
1.550001934170723
 30
0.0
 11
-141.8999994024634
 21
4.550001978874207
 31
0.0
  0
LINE
  5
11A
330
1F
100
AcDbEntity
  8
16
  6
Continuous
 62
     3
370
    25
100
AcDbLine
 10
-141.8999994024634
 20
23.5750022623688
 30
0.0
 11
-42.3999979197979
 21
23.5750022623688
 31
0.0
  0
LINE
  5
11B
330
1F
100
AcDbEntity
  8
16
  6
Continuous
 62
     3
370
    25
100
AcDbLine
 10
-42.3999979197979
 20
23.02500225417316
 30
0.0
 11
-42.3999979197979
 21
23.5750022623688
 31
0.0
  0
LINE
  5
11C
330
1F
100
AcDbEntity
  8
16
  6
Continuous
 62
     3
370
    25
100
AcDbLine
 10
-141.8999994024634
 20
23.02500225417316
 30
0.0
 11
-42.3999979197979
 21
23.02500225417316
 31
0.0
  0
LINE
  5
11D
330
1F
100
AcDbEntity
  8
16
  6
Continuous
 62
     3
370
    25
100
AcDbLine
 10
-141.8999994024634
 20
23.02500225417316
 30
0.0
 11
-141.8999994024634
 21
23.5750022623688
 31
0.0
  0
LINE
  5
11E
330
1F
100
AcDbEntity
  8
16
  6
Continuous
 62
     3
370
    25
100
AcDbLine
 10
-141.5999993979931
 20
23.02500225417316
 30
0.0
 11
-138.8999993577599
 21
23.5750022623688
 31
0.0
  0
LINE
  5
11F
330
1F
100
AcDbEntity
  8
16
  6
Continuous
 62
     3
370
    25
100
AcDbLine
 10
-138.5999993532896
 20
23.02500225417316
 30
0.0
 11
-135.8999993130565
 21
23.5750022623688
 31
0.0
  0
LINE
  5
120
330
1F
100
AcDbEntity
  8
16
  6
Continuous
 62
     3
370
    25
100
AcDbLine
 10
-135.5999993085861
 20
23.02500225417316
 30
0.0
 11
-132.899999268353
 21
23.5750022623688
 31
0.0
  0
LINE
  5
121
330
1F
100
AcDbEntity
  8
16
  6
Continuous
 62
     3
370
    25
100
AcDbLine
 10
-132.5999992638826
 20
23.02500225417316
 30
0.0
 11
-129.8999992236495
 21
23.5750022623688
 31
0.0
  0
LINE
  5
122
330
1F
100
AcDbEntity
  8
16
  6
Continuous
 62
     3
370
    25
100
AcDbLine
 10
-129.5999992191792
 20
23.02500225417316
 30
0.0
 11
-126.899999178946
 21
23.5750022623688
 31
0.0
  0
LINE
  5
123
330
1F
100
AcDbEntity
  8
16
  6
Continuous
 62
     3
370
    25
100
AcDbLine
 10
-126.5999991744757
 20
23.02500225417316
 30
0.0
 11
-123.8999991342425
 21
23.5750022623688
 31
0.0
  0
LINE
  5
124
330
1F
100
AcDbEntity
  8
16
  6
Continuous
 62
     3
370
    25
100
AcDbLine
 10
-123.5999991297722
 20
23.02500225417316
 30
0.0
 11
-120.8999990895391
 21
23.5750022623688
 31
0.0
  0
LINE
  5
125
330
1F
100
AcDbEntity
  8
16
  6
Continuous
 62
     3
370
    25
100
AcDbLine
 10
-120.5999990850687
 20
23.02500225417316
 30
0.0
 11
-117.8999990448356
 21
23.5750022623688
 31
0.0
  0
LINE
  5
126
330
1F
100
AcDbEntity
  8
16
  6
Continuous
 62
     3
370
    25
100
AcDbLine
 10
-117.5999990403652
 20
23.02500225417316
 30
0.0
 11
-114.8999990001321
 21
23.5750022623688
 31
0.0
  0
LINE
  5
127
330
1F
100
AcDbEntity
  8
16
  6
Continuous
 62
     3
370
    25
100
AcDbLine
 10
-114.5999989956617
 20
23.02500225417316
 30
0.0
 11
-111.8999989554286
 21
23.5750022623688
 31
0.0
  0
LINE
  5
128
330
1F
100
AcDbEntity
  8
16
  6
Continuous
 62
     3
370
    25
100
AcDbLine
 10
-111.5999989509583
 20
23.02500225417316
 30
0.0
 11
-108.8999989107251
 21
23.5750022623688
 31
0.0
  0
LINE
  5
129
330
1F
100
AcDbEntity
  8
16
  6
Continuous
 62
     3
370
    25
100
AcDbLine
 10
-108.5999989062548
 20
23.02500225417316
 30
0.0
 11
-105.8999988660216
 21
23.5750022623688
 31
0.0
  0
LINE
  5
12A
330
1F
100
AcDbEntity
  8
16
  6
Continuous
 62
     3
370
    25
100
AcDbLine
 10
-105.5999988615513
 20
23.02500225417316
 30
0.0
 11
-102.8999988213181
 21
23.5750022623688
 31
0.0
  0
LINE
  5
12B
330
1F
100
AcDbEntity
  8
16
  6
Continuous
 62
     3
370
    25
100
AcDbLine
 10
-102.5999988168478
 20
23.02500225417316
 30
0.0
 11
-99.89999877661467
 21
23.5750022623688
 31
0.0
  0
LINE
  5
12C
330
1F
100
AcDbEntity
  8
16
  6
Continuous
 62
     3
370
    25
100
AcDbLine
 10
-99.59999877214432
 20
23.02500225417316
 30
0.0
 11
-96.89999873191118
 21
23.5750022623688
 31
0.0
  0
LINE
  5
12D
330
1F
100
AcDbEntity
  8
16
  6
Continuous
 62
     3
370
    25
100
AcDbLine
 10
-96.59999872744083
 20
23.02500225417316
 30
0.0
 11
-93.8999986872077
 21
23.5750022623688
 31
0.0
  0
LINE
  5
12E
330
1F
100
AcDbEntity
  8
16
  6
Continuous
 62
     3
370
    25
100
AcDbLine
 10
-93.59999868273735
 20
23.02500225417316
 30
0.0
 11
-90.89999864250422
 21
23.5750022623688
 31
0.0
  0
LINE
  5
12F
330
1F
100
AcDbEntity
  8
16
  6
Continuous
 62
     3
370
    25
100
AcDbLine
 10
-90.59999863803387
 20
23.02500225417316
 30
0.0
 11
-87.89999859780073
 21
23.5750022623688
 31
0.0
  0
LINE
  5
130
330
1F
100
AcDbEntity
  8
16
  6
Continuous
 62
     3
370
    25
100
AcDbLine
 10
-87.59999859333038
 20
23.02500225417316
 30
0.0
 11
-84.89999855309725
 21
23.5750022623688
 31
0.0
  0
LINE
  5
131
330
1F
100
AcDbEntity
  8
16
  6
Continuous
 62
     3
370
    25
100
AcDbLine
 10
-84.5999985486269
 20
23.02500225417316
 30
0.0
 11
-81.89999850839376
 21
23.5750022623688
 31
0.0
  0
LINE
  5
132
330
1F
100
AcDbEntity
  8
16
  6
Continuous
 62
     3
370
    25
100
AcDbLine
 10
-81.59999850392342
 20
23.02500225417316
 30
0.0
 11
-78.89999846369028
 21
23.5750022623688
 31
0.0
  0
LINE
  5
133
330
1F
100
AcDbEntity
  8
16
  6
Continuous
 62
     3
370
    25
100
AcDbLine
 10
-78.59999845921993
 20
23.02500225417316
 30
0.0
 11
-75.8999984189868
 21
23.5750022623688
 31
0.0
  0
LINE
  5
134
330
1F
100
AcDbEntity
  8
16
  6
Continuous
 62
     3
370
    25
100
AcDbLine
 10
-75.59999841451645
 20
23.02500225417316
 30
0.0
 11
-72.89999837428331
 21
23.5750022623688
 31
0.0
  0
LINE
  5
135
330
1F
100
AcDbEntity
  8
16
  6
Continuous
 62
     3
370
    25
100
AcDbLine
 10
-72.59999836981297
 20
23.02500225417316
 30
0.0
 11
-69.89999832957983
 21
23.5750022623688
 31
0.0
  0
LINE
  5
136
330
1F
100
AcDbEntity
  8
16
  6
Continuous
 62
     3
370
    25
100
AcDbLine
 10
-69.59999832510948
 20
23.02500225417316
 30
0.0
 11
-66.89999828487635
 21
23.5750022623688
 31
0.0
  0
LINE
  5
137
330
1F
100
AcDbEntity
  8
16
  6
Continuous
 62
     3
370
    25
100
AcDbLine
 10
-66.599998280406
 20
23.02500225417316
 30
0.0
 11
-63.89999824017286
 21
23.5750022623688
 31
0.0
  0
LINE
  5
138
330
1F
100
AcDbEntity
  8
16
  6
Continuous
 62
     3
370
    25
100
AcDbLine
 10
-63.59999823570251
 20
23.02500225417316
 30
0.0
 11
-60.89999819546938
 21
23.5750022623688
 31
0.0
  0
LINE
  5
139
330
1F
100
AcDbEntity
  8
16
  6
Continuous
 62
     3
370
    25
100
AcDbLine
 10
-60.59999819099903
 20
23.02500225417316
 30
0.0
 11
-57.8999981507659
 21
23.5750022623688
 31
0.0
  0
LINE
  5
13A
330
1F
100
AcDbEntity
  8
16
  6
Continuous
 62
     3
370
    25
100
AcDbLine
 10
-57.59999814629555
 20
23.02500225417316
 30
0.0
 11
-54.89999810606241
 21
23.5750022623688
 31
0.0
  0
LINE
  5
13B
330
1F
100
AcDbEntity
  8
16
  6
Continuous
 62
     3
370
    25
100
AcDbLine
 10
-54.59999810159206
 20
23.02500225417316
 30
0.0
 11
-51.89999806135893
 21
23.5750022623688
 31
0.0
  0
LINE
  5
13C
330
1F
100
AcDbEntity
  8
16
  6
Continuous
 62
     3
370
    25
100
AcDbLine
 10
-51.59999805688858
 20
23.02500225417316
 30
0.0
 11
-48.89999801665544
 21
23.5750022623688
 31
0.0
  0
LINE
  5
13D
330
1F
100
AcDbEntity
  8
16
  6
Continuous
 62
     3
370
    25
100
AcDbLine
 10
-48.5999980121851
 20
23.02500225417316
 30
0.0
 11
-45.89999797195196
 21
23.5750022623688
 31
0.0
  0
LINE
  5
13E
330
1F
100
AcDbEntity
  8
16
  6
Continuous
 62
     3
370
    25
100
AcDbLine
 10
-45.59999796748161
 20
23.02500225417316
 30
0.0
 11
-42.89999792724848
 21
23.5750022623688
 31
0.0
  0
LINE
  5
13F
330
1F
100
AcDbEntity
  8
16
  6
Continuous
 62
     3
370
    25
100
AcDbLine
 10
-141.8999994024634
 20
18.57500218786299
 30
0.0
 11
-42.3999979197979
 21
18.57500218786299
 31
0.0
  0
LINE
  5
140
330
1F
100
AcDbEntity
  8
16
  6
Continuous
 62
     3
370
    25
100
AcDbLine
 10
-42.3999979197979
 20
18.02500217966735
 30
0.0
 11
-42.3999979197979
 21
18.57500218786299
 31
0.0
  0
LINE
  5
141
330
1F
100
AcDbEntity
  8
16
  6
Continuous
 62
     3
370
    25
100
AcDbLine
 10
-141.8999994024634
 20
18.02500217966735
 30
0.0
 11
-42.3999979197979
 21
18.02500217966735
 31
0.0
  0
LINE
  5
142
330
1F
100
AcDbEntity
  8
16
  6
Continuous
 62
     3
370
    25
100
AcDbLine
 10
-141.8999994024634
 20
18.02500217966735
 30
0.0
 11
-141.8999994024634
 21
18.57500218786299
 31
0.0
  0
LINE
  5
143
330
1F
100
AcDbEntity
  8
16
  6
Continuous
 62
     3
370
    25
100
AcDbLine
 10
-141.5999993979931
 20
18.02500217966735
 30
0.0
 11
-138.8999993577599
 21
18.57500218786299
 31
0.0
  0
LINE
  5
144
330
1F
100
AcDbEntity
  8
16
  6
Continuous
 62
     3
370
    25
100
AcDbLine
 10
-138.5999993532896
 20
18.02500217966735
 30
0.0
 11
-135.8999993130565
 21
18.57500218786299
 31
0.0
  0
LINE
  5
145
330
1F
100
AcDbEntity
  8
16
  6
Continuous
 62
     3
370
    25
100
AcDbLine
 10
-135.5999993085861
 20
18.02500217966735
 30
0.0
 11
-132.899999268353
 21
18.57500218786299
 31
0.0
  0
LINE
  5
146
330
1F
100
AcDbEntity
  8
16
  6
Continuous
 62
     3
370
    25
100
AcDbLine
 10
-132.5999992638826
 20
18.02500217966735
 30
0.0
 11
-129.8999992236495
 21
18.57500218786299
 31
0.0
  0
LINE
  5
147
330
1F
100
AcDbEntity
  8
16
  6
Continuous
 62
     3
370
    25
100
AcDbLine
 10
-129.5999992191792
 20
18.02500217966735
 30
0.0
 11
-126.899999178946
 21
18.57500218786299
 31
0.0
  0
LINE
  5
148
330
1F
100
AcDbEntity
  8
16
  6
Continuous
 62
     3
370
    25
100
AcDbLine
 10
-126.5999991744757
 20
18.02500217966735
 30
0.0
 11
-123.8999991342425
 21
18.57500218786299
 31
0.0
  0
LINE
  5
149
330
1F
100
AcDbEntity
  8
16
  6
Continuous
 62
     3
370
    25
100
AcDbLine
 10
-123.5999991297722
 20
18.02500217966735
 30
0.0
 11
-120.8999990895391
 21
18.57500218786299
 31
0.0
  0
LINE
  5
14A
330
1F
100
AcDbEntity
  8
16
  6
Continuous
 62
     3
370
    25
100
AcDbLine
 10
-120.5999990850687
 20
18.02500217966735
 30
0.0
 11
-117.8999990448356
 21
18.57500218786299
 31
0.0
  0
LINE
  5
14B
330
1F
100
AcDbEntity
  8
16
  6
Continuous
 62
     3
370
    25
100
AcDbLine
 10
-117.5999990403652
 20
18.02500217966735
 30
0.0
 11
-114.8999990001321
 21
18.57500218786299
 31
0.0
  0
LINE
  5
14C
330
1F
100
AcDbEntity
  8
16
  6
Continuous
 62
     3
370
    25
100
AcDbLine
 10
-114.5999989956617
 20
18.02500217966735
 30
0.0
 11
-111.8999989554286
 21
18.57500218786299
 31
0.0
  0
LINE
  5
14D
330
1F
100
AcDbEntity
  8
16
  6
Continuous
 62
     3
370
    25
100
AcDbLine
 10
-111.5999989509583
 20
18.02500217966735
 30
0.0
 11
-108.8999989107251
 21
18.57500218786299
 31
0.0
  0
LINE
  5
14E
330
1F
100
AcDbEntity
  8
16
  6
Continuous
 62
     3
370
    25
100
AcDbLine
 10
-108.5999989062548
 20
18.02500217966735
 30
0.0
 11
-105.8999988660216
 21
18.57500218786299
 31
0.0
  0
LINE
  5
14F
330
1F
100
AcDbEntity
  8
16
  6
Continuous
 62
     3
370
    25
100
AcDbLine
 10
-105.5999988615513
 20
18.02500217966735
 30
0.0
 11
-102.8999988213181
 21
18.57500218786299
 31
0.0
  0
LINE
  5
150
330
1F
100
AcDbEntity
  8
16
  6
Continuous
 62
     3
370
    25
100
AcDbLine
 10
-102.5999988168478
 20
18.02500217966735
 30
0.0
 11
-99.89999877661467
 21
18.57500218786299
 31
0.0
  0
LINE
  5
151
330
1F
100
AcDbEntity
  8
16
  6
Continuous
 62
     3
370
    25
100
AcDbLine
 10
-99.59999877214432
 20
18.02500217966735
 30
0.0
 11
-96.89999873191118
 21
18.57500218786299
 31
0.0
  0
LINE
  5
152
330
1F
100
AcDbEntity
  8
16
  6
Continuous
 62
     3
370
    25
100
AcDbLine
 10
-96.59999872744083
 20
18.02500217966735
 30
0.0
 11
-93.8999986872077
 21
18.57500218786299
 31
0.0
  0
LINE
  5
153
330
1F
100
AcDbEntity
  8
16
  6
Continuous
 62
     3
370
    25
100
AcDbLine
 10
-93.59999868273735
 20
18.02500217966735
 30
0.0
 11
-90.89999864250422
 21
18.57500218786299
 31
0.0
  0
LINE
  5
154
330
1F
100
AcDbEntity
  8
16
  6
Continuous
 62
     3
370
    25
100
AcDbLine
 10
-90.59999863803387
 20
18.02500217966735
 30
0.0
 11
-87.89999859780073
 21
18.57500218786299
 31
0.0
  0
LINE
  5
155
330
1F
100
AcDbEntity
  8
16
  6
Continuous
 62
     3
370
    25
100
AcDbLine
 10
-87.59999859333038
 20
18.02500217966735
 30
0.0
 11
-84.89999855309725
 21
18.57500218786299
 31
0.0
  0
LINE
  5
156
330
1F
100
AcDbEntity
  8
16
  6
Continuous
 62
     3
370
    25
100
AcDbLine
 10
-84.5999985486269
 20
18.02500217966735
 30
0.0
 11
-81.89999850839376
 21
18.57500218786299
 31
0.0
  0
LINE
  5
157
330
1F
100
AcDbEntity
  8
16
  6
Continuous
 62
     3
370
    25
100
AcDbLine
 10
-81.59999850392342
 20
18.02500217966735
 30
0.0
 11
-78.89999846369028
 21
18.57500218786299
 31
0.0
  0
LINE
  5
158
330
1F
100
AcDbEntity
  8
16
  6
Continuous
 62
     3
370
    25
100
AcDbLine
 10
-78.59999845921993
 20
18.02500217966735
 30
0.0
 11
-75.8999984189868
 21
18.57500218786299
 31
0.0
  0
LINE
  5
159
330
1F
100
AcDbEntity
  8
16
  6
Continuous
 62
     3
370
    25
100
AcDbLine
 10
-75.59999841451645
 20
18.02500217966735
 30
0.0
 11
-72.89999837428331
 21
18.57500218786299
 31
0.0
  0
LINE
  5
15A
330
1F
100
AcDbEntity
  8
16
  6
Continuous
 62
     3
370
    25
100
AcDbLine
 10
-72.59999836981297
 20
18.02500217966735
 30
0.0
 11
-69.89999832957983
 21
18.57500218786299
 31
0.0
  0
LINE
  5
15B
330
1F
100
AcDbEntity
  8
16
  6
Continuous
 62
     3
370
    25
100
AcDbLine
 10
-69.59999832510948
 20
18.02500217966735
 30
0.0
 11
-66.89999828487635
 21
18.57500218786299
 31
0.0
  0
LINE
  5
15C
330
1F
100
AcDbEntity
  8
16
  6
Continuous
 62
     3
370
    25
100
AcDbLine
 10
-66.599998280406
 20
18.02500217966735
 30
0.0
 11
-63.89999824017286
 21
18.57500218786299
 31
0.0
  0
LINE
  5
15D
330
1F
100
AcDbEntity
  8
16
  6
Continuous
 62
     3
370
    25
100
AcDbLine
 10
-63.59999823570251
 20
18.02500217966735
 30
0.0
 11
-60.89999819546938
 21
18.57500218786299
 31
0.0
  0
LINE
  5
15E
330
1F
100
AcDbEntity
  8
16
  6
Continuous
 62
     3
370
    25
100
AcDbLine
 10
-60.59999819099903
 20
18.02500217966735
 30
0.0
 11
-57.8999981507659
 21
18.57500218786299
 31
0.0
  0
LINE
  5
15F
330
1F
100
AcDbEntity
  8
16
  6
Continuous
 62
     3
370
    25
100
AcDbLine
 10
-57.59999814629555
 20
18.02500217966735
 30
0.0
 11
-54.89999810606241
 21
18.57500218786299
 31
0.0
  0
LINE
  5
160
330
1F
100
AcDbEntity
  8
16
  6
Continuous
 62
     3
370
    25
100
AcDbLine
 10
-54.59999810159206
 20
18.02500217966735
 30
0.0
 11
-51.89999806135893
 21
18.57500218786299
 31
0.0
  0
LINE
  5
161
330
1F
100
AcDbEntity
  8
16
  6
Continuous
 62
     3
370
    25
100
AcDbLine
 10
-51.59999805688858
 20
18.02500217966735
 30
0.0
 11
-48.89999801665544
 21
18.57500218786299
 31
0.0
  0
LINE
  5
162
330
1F
100
AcDbEntity
  8
16
  6
Continuous
 62
     3
370
    25
100
AcDbLine
 10
-48.5999980121851
 20
18.02500217966735
 30
0.0
 11
-45.89999797195196
 21
18.57500218786299
 31
0.0
  0
LINE
  5
163
330
1F
100
AcDbEntity
  8
16
  6
Continuous
 62
     3
370
    25
100
AcDbLine
 10
-45.59999796748161
 20
18.02500217966735
 30
0.0
 11
-42.89999792724848
 21
18.57500218786299
 31
0.0
  0
LINE
  5
164
330
1F
100
AcDbEntity
  8
16
  6
Continuous
 62
     3
370
    25
100
AcDbLine
 10
-141.8999994024634
 20
13.57500211335719
 30
0.0
 11
-42.3999979197979
 21
13.57500211335719
 31
0.0
  0
LINE
  5
165
330
1F
100
AcDbEntity
  8
16
  6
Continuous
 62
     3
370
    25
100
AcDbLine
 10
-42.3999979197979
 20
13.02500210516155
 30
0.0
 11
-42.3999979197979
 21
13.57500211335719
 31
0.0
  0
LINE
  5
166
330
1F
100
AcDbEntity
  8
16
  6
Continuous
 62
     3
370
    25
100
AcDbLine
 10
-141.8999994024634
 20
13.02500210516155
 30
0.0
 11
-42.3999979197979
 21
13.02500210516155
 31
0.0
  0
LINE
  5
167
330
1F
100
AcDbEntity
  8
16
  6
Continuous
 62
     3
370
    25
100
AcDbLine
 10
-141.8999994024634
 20
13.02500210516155
 30
0.0
 11
-141.8999994024634
 21
13.57500211335719
 31
0.0
  0
LINE
  5
168
330
1F
100
AcDbEntity
  8
16
  6
Continuous
 62
     3
370
    25
100
AcDbLine
 10
-141.5999993979931
 20
13.02500210516155
 30
0.0
 11
-138.8999993577599
 21
13.57500211335719
 31
0.0
  0
LINE
  5
169
330
1F
100
AcDbEntity
  8
16
  6
Continuous
 62
     3
370
    25
100
AcDbLine
 10
-138.5999993532896
 20
13.02500210516155
 30
0.0
 11
-135.8999993130565
 21
13.57500211335719
 31
0.0
  0
LINE
  5
16A
330
1F
100
AcDbEntity
  8
16
  6
Continuous
 62
     3
370
    25
100
AcDbLine
 10
-135.5999993085861
 20
13.02500210516155
 30
0.0
 11
-132.899999268353
 21
13.57500211335719
 31
0.0
  0
LINE
  5
16B
330
1F
100
AcDbEntity
  8
16
  6
Continuous
 62
     3
370
    25
100
AcDbLine
 10
-132.5999992638826
 20
13.02500210516155
 30
0.0
 11
-129.8999992236495
 21
13.57500211335719
 31
0.0
  0
LINE
  5
16C
330
1F
100
AcDbEntity
  8
16
  6
Continuous
 62
     3
370
    25
100
AcDbLine
 10
-129.5999992191792
 20
13.02500210516155
 30
0.0
 11
-126.899999178946
 21
13.57500211335719
 31
0.0
  0
LINE
  5
16D
330
1F
100
AcDbEntity
  8
16
  6
Continuous
 62
     3
370
    25
100
AcDbLine
 10
-126.5999991744757
 20
13.02500210516155
 30
0.0
 11
-123.8999991342425
 21
13.57500211335719
 31
0.0
  0
LINE
  5
16E
330
1F
100
AcDbEntity
  8
16
  6
Continuous
 62
     3
370
    25
100
AcDbLine
 10
-123.5999991297722
 20
13.02500210516155
 30
0.0
 11
-120.8999990895391
 21
13.57500211335719
 31
0.0
  0
LINE
  5
16F
330
1F
100
AcDbEntity
  8
16
  6
Continuous
 62
     3
370
    25
100
AcDbLine
 10
-120.5999990850687
 20
13.02500210516155
 30
0.0
 11
-117.8999990448356
 21
13.57500211335719
 31
0.0
  0
LINE
  5
170
330
1F
100
AcDbEntity
  8
16
  6
Continuous
 62
     3
370
    25
100
AcDbLine
 10
-117.5999990403652
 20
13.02500210516155
 30
0.0
 11
-114.8999990001321
 21
13.57500211335719
 31
0.0
  0
LINE
  5
171
330
1F
100
AcDbEntity
  8
16
  6
Continuous
 62
     3
370
    25
100
AcDbLine
 10
-114.5999989956617
 20
13.02500210516155
 30
0.0
 11
-111.8999989554286
 21
13.57500211335719
 31
0.0
  0
LINE
  5
172
330
1F
100
AcDbEntity
  8
16
  6
Continuous
 62
     3
370
    25
100
AcDbLine
 10
-111.5999989509583
 20
13.02500210516155
 30
0.0
 11
-108.8999989107251
 21
13.57500211335719
 31
0.0
  0
LINE
  5
173
330
1F
100
AcDbEntity
  8
16
  6
Continuous
 62
     3
370
    25
100
AcDbLine
 10
-108.5999989062548
 20
13.02500210516155
 30
0.0
 11
-105.8999988660216
 21
13.57500211335719
 31
0.0
  0
LINE
  5
174
330
1F
100
AcDbEntity
  8
16
  6
Continuous
 62
     3
370
    25
100
AcDbLine
 10
-105.5999988615513
 20
13.02500210516155
 30
0.0
 11
-102.8999988213181
 21
13.57500211335719
 31
0.0
  0
LINE
  5
175
330
1F
100
AcDbEntity
  8
16
  6
Continuous
 62
     3
370
    25
100
AcDbLine
 10
-102.5999988168478
 20
13.02500210516155
 30
0.0
 11
-99.89999877661467
 21
13.57500211335719
 31
0.0
  0
LINE
  5
176
330
1F
100
AcDbEntity
  8
16
  6
Continuous
 62
     3
370
    25
100
AcDbLine
 10
-99.59999877214432
 20
13.02500210516155
 30
0.0
 11
-96.89999873191118
 21
13.57500211335719
 31
0.0
  0
LINE
  5
177
330
1F
100
AcDbEntity
  8
16
  6
Continuous
 62
     3
370
    25
100
AcDbLine
 10
-96.59999872744083
 20
13.02500210516155
 30
0.0
 11
-93.8999986872077
 21
13.57500211335719
 31
0.0
  0
LINE
  5
178
330
1F
100
AcDbEntity
  8
16
  6
Continuous
 62
     3
370
    25
100
AcDbLine
 10
-93.59999868273735
 20
13.02500210516155
 30
0.0
 11
-90.89999864250422
 21
13.57500211335719
 31
0.0
  0
LINE
  5
179
330
1F
100
AcDbEntity
  8
16
  6
Continuous
 62
     3
370
    25
100
AcDbLine
 10
-90.59999863803387
 20
13.02500210516155
 30
0.0
 11
-87.89999859780073
 21
13.57500211335719
 31
0.0
  0
LINE
  5
17A
330
1F
100
AcDbEntity
  8
16
  6
Continuous
 62
     3
370
    25
100
AcDbLine
 10
-87.59999859333038
 20
13.02500210516155
 30
0.0
 11
-84.89999855309725
 21
13.57500211335719
 31
0.0
  0
LINE
  5
17B
330
1F
100
AcDbEntity
  8
16
  6
Continuous
 62
     3
370
    25
100
AcDbLine
 10
-84.5999985486269
 20
13.02500210516155
 30
0.0
 11
-81.89999850839376
 21
13.57500211335719
 31
0.0
  0
LINE
  5
17C
330
1F
100
AcDbEntity
  8
16
  6
Continuous
 62
     3
370
    25
100
AcDbLine
 10
-81.59999850392342
 20
13.02500210516155
 30
0.0
 11
-78.89999846369028
 21
13.57500211335719
 31
0.0
  0
LINE
  5
17D
330
1F
100
AcDbEntity
  8
16
  6
Continuous
 62
     3
370
    25
100
AcDbLine
 10
-78.59999845921993
 20
13.02500210516155
 30
0.0
 11
-75.8999984189868
 21
13.57500211335719
 31
0.0
  0
LINE
  5
17E
330
1F
100
AcDbEntity
  8
16
  6
Continuous
 62
     3
370
    25
100
AcDbLine
 10
-75.59999841451645
 20
13.02500210516155
 30
0.0
 11
-72.89999837428331
 21
13.57500211335719
 31
0.0
  0
LINE
  5
17F
330
1F
100
AcDbEntity
  8
16
  6
Continuous
 62
     3
370
    25
100
AcDbLine
 10
-72.59999836981297
 20
13.02500210516155
 30
0.0
 11
-69.89999832957983
 21
13.57500211335719
 31
0.0
  0
LINE
  5
180
330
1F
100
AcDbEntity
  8
16
  6
Continuous
 62
     3
370
    25
100
AcDbLine
 10
-69.59999832510948
 20
13.02500210516155
 30
0.0
 11
-66.89999828487635
 21
13.57500211335719
 31
0.0
  0
LINE
  5
181
330
1F
100
AcDbEntity
  8
16
  6
Continuous
 62
     3
370
    25
100
AcDbLine
 10
-66.599998280406
 20
13.02500210516155
 30
0.0
 11
-63.89999824017286
 21
13.57500211335719
 31
0.0
  0
LINE
  5
182
330
1F
100
AcDbEntity
  8
16
  6
Continuous
 62
     3
370
    25
100
AcDbLine
 10
-63.59999823570251
 20
13.02500210516155
 30
0.0
 11
-60.89999819546938
 21
13.57500211335719
 31
0.0
  0
LINE
  5
183
330
1F
100
AcDbEntity
  8
16
  6
Continuous
 62
     3
370
    25
100
AcDbLine
 10
-60.59999819099903
 20
13.02500210516155
 30
0.0
 11
-57.8999981507659
 21
13.57500211335719
 31
0.0
  0
LINE
  5
184
330
1F
100
AcDbEntity
  8
16
  6
Continuous
 62
     3
370
    25
100
AcDbLine
 10
-57.59999814629555
 20
13.02500210516155
 30
0.0
 11
-54.89999810606241
 21
13.57500211335719
 31
0.0
  0
LINE
  5
185
330
1F
100
AcDbEntity
  8
16
  6
Continuous
 62
     3
370
    25
100
AcDbLine
 10
-54.59999810159206
 20
13.02500210516155
 30
0.0
 11
-51.89999806135893
 21
13.57500211335719
 31
0.0
  0
LINE
  5
186
330
1F
100
AcDbEntity
  8
16
  6
Continuous
 62
     3
370
    25
100
AcDbLine
 10
-51.59999805688858
 20
13.02500210516155
 30
0.0
 11
-48.89999801665544
 21
13.57500211335719
 31
0.0
  0
LINE
  5
187
330
1F
100
AcDbEntity
  8
16
  6
Continuous
 62
     3
370
    25
100
AcDbLine
 10
-48.5999980121851
 20
13.02500210516155
 30
0.0
 11
-45.89999797195196
 21
13.57500211335719
 31
0.0
  0
LINE
  5
188
330
1F
100
AcDbEntity
  8
16
  6
Continuous
 62
     3
370
    25
100
AcDbLine
 10
-45.59999796748161
 20
13.02500210516155
 30
0.0
 11
-42.89999792724848
 21
13.57500211335719
 31
0.0
  0
LINE
  5
189
330
1F
100
AcDbEntity
  8
16
  6
Continuous
 62
     3
370
    25
100
AcDbLine
 10
-141.8999994024634
 20
8.57500203885138
 30
0.0
 11
-42.3999979197979
 21
8.57500203885138
 31
0.0
  0
LINE
  5
18A
330
1F
100
AcDbEntity
  8
16
  6
Continuous
 62
     3
370
    25
100
AcDbLine
 10
-42.3999979197979
 20
8.025002030655742
 30
0.0
 11
-42.3999979197979
 21
8.57500203885138
 31
0.0
  0
LINE
  5
18B
330
1F
100
AcDbEntity
  8
16
  6
Continuous
 62
     3
370
    25
100
AcDbLine
 10
-141.8999994024634
 20
8.025002030655742
 30
0.0
 11
-42.3999979197979
 21
8.025002030655742
 31
0.0
  0
LINE
  5
18C
330
1F
100
AcDbEntity
  8
16
  6
Continuous
 62
     3
370
    25
100
AcDbLine
 10
-141.8999994024634
 20
8.025002030655742
 30
0.0
 11
-141.8999994024634
 21
8.57500203885138
 31
0.0
  0
LINE
  5
18D
330
1F
100
AcDbEntity
  8
16
  6
Continuous
 62
     3
370
    25
100
AcDbLine
 10
-141.5999993979931
 20
8.025002030655742
 30
0.0
 11
-138.8999993577599
 21
8.57500203885138
 31
0.0
  0
LINE
  5
18E
330
1F
100
AcDbEntity
  8
16
  6
Continuous
 62
     3
370
    25
100
AcDbLine
 10
-138.5999993532896
 20
8.025002030655742
 30
0.0
 11
-135.8999993130565
 21
8.57500203885138
 31
0.0
  0
LINE
  5
18F
330
1F
100
AcDbEntity
  8
16
  6
Continuous
 62
     3
370
    25
100
AcDbLine
 10
-135.5999993085861
 20
8.025002030655742
 30
0.0
 11
-132.899999268353
 21
8.57500203885138
 31
0.0
  0
LINE
  5
190
330
1F
100
AcDbEntity
  8
16
  6
Continuous
 62
     3
370
    25
100
AcDbLine
 10
-132.5999992638826
 20
8.025002030655742
 30
0.0
 11
-129.8999992236495
 21
8.57500203885138
 31
0.0
  0
LINE
  5
191
330
1F
100
AcDbEntity
  8
16
  6
Continuous
 62
     3
370
    25
100
AcDbLine
 10
-129.5999992191792
 20
8.025002030655742
 30
0.0
 11
-126.899999178946
 21
8.57500203885138
 31
0.0
  0
LINE
  5
192
330
1F
100
AcDbEntity
  8
16
  6
Continuous
 62
     3
370
    25
100
AcDbLine
 10
-126.5999991744757
 20
8.025002030655742
 30
0.0
 11
-123.8999991342425
 21
8.57500203885138
 31
0.0
  0
LINE
  5
193
330
1F
100
AcDbEntity
  8
16
  6
Continuous
 62
     3
370
    25
100
AcDbLine
 10
-123.5999991297722
 20
8.025002030655742
 30
0.0
 11
-120.8999990895391
 21
8.57500203885138
 31
0.0
  0
LINE
  5
194
330
1F
100
AcDbEntity
  8
16
  6
Continuous
 62
     3
370
    25
100
AcDbLine
 10
-120.5999990850687
 20
8.025002030655742
 30
0.0
 11
-117.8999990448356
 21
8.57500203885138
 31
0.0
  0
LINE
  5
195
330
1F
100
AcDbEntity
  8
16
  6
Continuous
 62
     3
370
    25
100
AcDbLine
 10
-117.5999990403652
 20
8.025002030655742
 30
0.0
 11
-114.8999990001321
 21
8.57500203885138
 31
0.0
  0
LINE
  5
196
330
1F
100
AcDbEntity
  8
16
  6
Continuous
 62
     3
370
    25
100
AcDbLine
 10
-114.5999989956617
 20
8.025002030655742
 30
0.0
 11
-111.8999989554286
 21
8.57500203885138
 31
0.0
  0
LINE
  5
197
330
1F
100
AcDbEntity
  8
16
  6
Continuous
 62
     3
370
    25
100
AcDbLine
 10
-111.5999989509583
 20
8.025002030655742
 30
0.0
 11
-108.8999989107251
 21
8.57500203885138
 31
0.0
  0
LINE
  5
198
330
1F
100
AcDbEntity
  8
16
  6
Continuous
 62
     3
370
    25
100
AcDbLine
 10
-108.5999989062548
 20
8.025002030655742
 30
0.0
 11
-105.8999988660216
 21
8.57500203885138
 31
0.0
  0
LINE
  5
199
330
1F
100
AcDbEntity
  8
16
  6
Continuous
 62
     3
370
    25
100
AcDbLine
 10
-105.5999988615513
 20
8.025002030655742
 30
0.0
 11
-102.8999988213181
 21
8.57500203885138
 31
0.0
  0
LINE
  5
19A
330
1F
100
AcDbEntity
  8
16
  6
Continuous
 62
     3
370
    25
100
AcDbLine
 10
-102.5999988168478
 20
8.025002030655742
 30
0.0
 11
-99.89999877661467
 21
8.57500203885138
 31
0.0
  0
LINE
  5
19B
330
1F
100
AcDbEntity
  8
16
  6
Continuous
 62
     3
370
    25
100
AcDbLine
 10
-99.59999877214432
 20
8.025002030655742
 30
0.0
 11
-96.89999873191118
 21
8.57500203885138
 31
0.0
  0
LINE
  5
19C
330
1F
100
AcDbEntity
  8
16
  6
Continuous
 62
     3
370
    25
100
AcDbLine
 10
-96.59999872744083
 20
8.025002030655742
 30
0.0
 11
-93.8999986872077
 21
8.57500203885138
 31
0.0
  0
LINE
  5
19D
330
1F
100
AcDbEntity
  8
16
  6
Continuous
 62
     3
370
    25
100
AcDbLine
 10
-93.59999868273735
 20
8.025002030655742
 30
0.0
 11
-90.89999864250422
 21
8.57500203885138
 31
0.0
  0
LINE
  5
19E
330
1F
100
AcDbEntity
  8
16
  6
Continuous
 62
     3
370
    25
100
AcDbLine
 10
-90.59999863803387
 20
8.025002030655742
 30
0.0
 11
-87.89999859780073
 21
8.57500203885138
 31
0.0
  0
LINE
  5
19F
330
1F
100
AcDbEntity
  8
16
  6
Continuous
 62
     3
370
    25
100
AcDbLine
 10
-87.59999859333038
 20
8.025002030655742
 30
0.0
 11
-84.89999855309725
 21
8.57500203885138
 31
0.0
  0
LINE
  5
1A0
330
1F
100
AcDbEntity
  8
16
  6
Continuous
 62
     3
370
    25
100
AcDbLine
 10
-84.5999985486269
 20
8.025002030655742
 30
0.0
 11
-81.89999850839376
 21
8.57500203885138
 31
0.0
  0
LINE
  5
1A1
330
1F
100
AcDbEntity
  8
16
  6
Continuous
 62
     3
370
    25
100
AcDbLine
 10
-81.59999850392342
 20
8.025002030655742
 30
0.0
 11
-78.89999846369028
 21
8.57500203885138
 31
0.0
  0
LINE
  5
1A2
330
1F
100
AcDbEntity
  8
16
  6
Continuous
 62
     3
370
    25
100
AcDbLine
 10
-78.59999845921993
 20
8.025002030655742
 30
0.0
 11
-75.8999984189868
 21
8.57500203885138
 31
0.0
  0
LINE
  5
1A3
330
1F
100
AcDbEntity
  8
16
  6
Continuous
 62
     3
370
    25
100
AcDbLine
 10
-75.59999841451645
 20
8.025002030655742
 30
0.0
 11
-72.89999837428331
 21
8.57500203885138
 31
0.0
  0
LINE
  5
1A4
330
1F
100
AcDbEntity
  8
16
  6
Continuous
 62
     3
370
    25
100
AcDbLine
 10
-72.59999836981297
 20
8.025002030655742
 30
0.0
 11
-69.89999832957983
 21
8.57500203885138
 31
0.0
  0
LINE
  5
1A5
330
1F
100
AcDbEntity
  8
16
  6
Continuous
 62
     3
370
    25
100
AcDbLine
 10
-69.59999832510948
 20
8.025002030655742
 30
0.0
 11
-66.89999828487635
 21
8.57500203885138
 31
0.0
  0
LINE
  5
1A6
330
1F
100
AcDbEntity
  8
16
  6
Continuous
 62
     3
370
    25
100
AcDbLine
 10
-66.599998280406
 20
8.025002030655742
 30
0.0
 11
-63.89999824017286
 21
8.57500203885138
 31
0.0
  0
LINE
  5
1A7
330
1F
100
AcDbEntity
  8
16
  6
Continuous
 62
     3
370
    25
100
AcDbLine
 10
-63.59999823570251
 20
8.025002030655742
 30
0.0
 11
-60.89999819546938
 21
8.57500203885138
 31
0.0
  0
LINE
  5
1A8
330
1F
100
AcDbEntity
  8
16
  6
Continuous
 62
     3
370
    25
100
AcDbLine
 10
-60.59999819099903
 20
8.025002030655742
 30
0.0
 11
-57.8999981507659
 21
8.57500203885138
 31
0.0
  0
LINE
  5
1A9
330
1F
100
AcDbEntity
  8
16
  6
Continuous
 62
     3
370
    25
100
AcDbLine
 10
-57.59999814629555
 20
8.025002030655742
 30
0.0
 11
-54.89999810606241
 21
8.57500203885138
 31
0.0
  0
LINE
  5
1AA
330
1F
100
AcDbEntity
  8
16
  6
Continuous
 62
     3
370
    25
100
AcDbLine
 10
-54.59999810159206
 20
8.025002030655742
 30
0.0
 11
-51.89999806135893
 21
8.57500203885138
 31
0.0
  0
LINE
  5
1AB
330
1F
100
AcDbEntity
  8
16
  6
Continuous
 62
     3
370
    25
100
AcDbLine
 10
-51.59999805688858
 20
8.025002030655742
 30
0.0
 11
-48.89999801665544
 21
8.57500203885138
 31
0.0
  0
LINE
  5
1AC
330
1F
100
AcDbEntity
  8
16
  6
Continuous
 62
     3
370
    25
100
AcDbLine
 10
-48.5999980121851
 20
8.025002030655742
 30
0.0
 11
-45.89999797195196
 21
8.57500203885138
 31
0.0
  0
LINE
  5
1AD
330
1F
100
AcDbEntity
  8
16
  6
Continuous
 62
     3
370
    25
100
AcDbLine
 10
-45.59999796748161
 20
8.025002030655742
 30
0.0
 11
-42.89999792724848
 21
8.57500203885138
 31
0.0
  0
LINE
  5
1AE
330
1F
100
AcDbEntity
  8
16
  6
Continuous
 62
     3
370
    25
100
AcDbLine
 10
-141.8999994024634
 20
4.550001978874207
 30
0.0
 11
-141.8999994024634
 21
27.05000231415033
 31
0.0
  0
LINE
  5
1AF
330
1F
100
AcDbEntity
  8
16
  6
Continuous
 62
     3
370
    25
100
AcDbLine
 10
-141.8999994024634
 20
4.550001978874207
 30
0.0
 11
-141.5999993979931
 21
4.550001978874207
 31
0.0
  0
LINE
  5
1B0
330
1F
100
AcDbEntity
  8
16
  6
Continuous
 62
     3
370
    25
100
AcDbLine
 10
-141.5999993979931
 20
4.550001978874207
 30
0.0
 11
-141.5999993979931
 21
8.025002030655742
 31
0.0
  0
LINE
  5
1B1
330
1F
100
AcDbEntity
  8
16
  6
Continuous
 62
     3
370
    25
100
AcDbLine
 10
-141.5999993979931
 20
8.57500203885138
 30
0.0
 11
-141.5999993979931
 21
13.02500210516155
 31
0.0
  0
LINE
  5
1B2
330
1F
100
AcDbEntity
  8
16
  6
Continuous
 62
     3
370
    25
100
AcDbLine
 10
-141.5999993979931
 20
13.57500211335719
 30
0.0
 11
-141.5999993979931
 21
18.02500217966735
 31
0.0
  0
LINE
  5
1B3
330
1F
100
AcDbEntity
  8
16
  6
Continuous
 62
     3
370
    25
100
AcDbLine
 10
-141.5999993979931
 20
18.57500218786299
 30
0.0
 11
-141.5999993979931
 21
23.02500225417316
 31
0.0
  0
LINE
  5
1B4
330
1F
100
AcDbEntity
  8
16
  6
Continuous
 62
     3
370
    25
100
AcDbLine
 10
-141.5999993979931
 20
23.5750022623688
 30
0.0
 11
-141.5999993979931
 21
27.05000231415033
 31
0.0
  0
LINE
  5
1B5
330
1F
100
AcDbEntity
  8
16
  6
Continuous
 62
     3
370
    25
100
AcDbLine
 10
-141.8999994024634
 20
27.05000231415033
 30
0.0
 11
-141.5999993979931
 21
27.05000231415033
 31
0.0
  0
LINE
  5
1B6
330
1F
100
AcDbEntity
  8
16
  6
Continuous
 62
     3
370
    25
100
AcDbLine
 10
-138.8999993577599
 20
4.550001978874207
 30
0.0
 11
-138.8999993577599
 21
8.025002030655742
 31
0.0
  0
LINE
  5
1B7
330
1F
100
AcDbEntity
  8
16
  6
Continuous
 62
     3
370
    25
100
AcDbLine
 10
-138.8999993577599
 20
8.57500203885138
 30
0.0
 11
-138.8999993577599
 21
13.02500210516155
 31
0.0
  0
LINE
  5
1B8
330
1F
100
AcDbEntity
  8
16
  6
Continuous
 62
     3
370
    25
100
AcDbLine
 10
-138.8999993577599
 20
13.57500211335719
 30
0.0
 11
-138.8999993577599
 21
18.02500217966735
 31
0.0
  0
LINE
  5
1B9
330
1F
100
AcDbEntity
  8
16
  6
Continuous
 62
     3
370
    25
100
AcDbLine
 10
-138.8999993577599
 20
18.57500218786299
 30
0.0
 11
-138.8999993577599
 21
23.02500225417316
 31
0.0
  0
LINE
  5
1BA
330
1F
100
AcDbEntity
  8
16
  6
Continuous
 62
     3
370
    25
100
AcDbLine
 10
-138.8999993577599
 20
23.5750022623688
 30
0.0
 11
-138.8999993577599
 21
27.05000231415033
 31
0.0
  0
LINE
  5
1BB
330
1F
100
AcDbEntity
  8
16
  6
Continuous
 62
     3
370
    25
100
AcDbLine
 10
-138.8999993577599
 20
4.550001978874207
 30
0.0
 11
-138.5999993532896
 21
4.550001978874207
 31
0.0
  0
LINE
  5
1BC
330
1F
100
AcDbEntity
  8
16
  6
Continuous
 62
     3
370
    25
100
AcDbLine
 10
-138.5999993532896
 20
4.550001978874207
 30
0.0
 11
-138.5999993532896
 21
8.025002030655742
 31
0.0
  0
LINE
  5
1BD
330
1F
100
AcDbEntity
  8
16
  6
Continuous
 62
     3
370
    25
100
AcDbLine
 10
-138.5999993532896
 20
8.57500203885138
 30
0.0
 11
-138.5999993532896
 21
13.02500210516155
 31
0.0
  0
LINE
  5
1BE
330
1F
100
AcDbEntity
  8
16
  6
Continuous
 62
     3
370
    25
100
AcDbLine
 10
-138.5999993532896
 20
13.57500211335719
 30
0.0
 11
-138.5999993532896
 21
18.02500217966735
 31
0.0
  0
LINE
  5
1BF
330
1F
100
AcDbEntity
  8
16
  6
Continuous
 62
     3
370
    25
100
AcDbLine
 10
-138.5999993532896
 20
18.57500218786299
 30
0.0
 11
-138.5999993532896
 21
23.02500225417316
 31
0.0
  0
LINE
  5
1C0
330
1F
100
AcDbEntity
  8
16
  6
Continuous
 62
     3
370
    25
100
AcDbLine
 10
-138.5999993532896
 20
23.5750022623688
 30
0.0
 11
-138.5999993532896
 21
27.05000231415033
 31
0.0
  0
LINE
  5
1C1
330
1F
100
AcDbEntity
  8
16
  6
Continuous
 62
     3
370
    25
100
AcDbLine
 10
-138.8999993577599
 20
27.05000231415033
 30
0.0
 11
-138.5999993532896
 21
27.05000231415033
 31
0.0
  0
LINE
  5
1C2
330
1F
100
AcDbEntity
  8
16
  6
Continuous
 62
     3
370
    25
100
AcDbLine
 10
-135.8999993130565
 20
4.550001978874207
 30
0.0
 11
-135.8999993130565
 21
8.025002030655742
 31
0.0
  0
LINE
  5
1C3
330
1F
100
AcDbEntity
  8
16
  6
Continuous
 62
     3
370
    25
100
AcDbLine
 10
-135.8999993130565
 20
8.57500203885138
 30
0.0
 11
-135.8999993130565
 21
13.02500210516155
 31
0.0
  0
LINE
  5
1C4
330
1F
100
AcDbEntity
  8
16
  6
Continuous
 62
     3
370
    25
100
AcDbLine
 10
-135.8999993130565
 20
13.57500211335719
 30
0.0
 11
-135.8999993130565
 21
18.02500217966735
 31
0.0
  0
LINE
  5
1C5
330
1F
100
AcDbEntity
  8
16
  6
Continuous
 62
     3
370
    25
100
AcDbLine
 10
-135.8999993130565
 20
18.57500218786299
 30
0.0
 11
-135.8999993130565
 21
23.02500225417316
 31
0.0
  0
LINE
  5
1C6
330
1F
100
AcDbEntity
  8
16
  6
Continuous
 62
     3
370
    25
100
AcDbLine
 10
-135.8999993130565
 20
23.5750022623688
 30
0.0
 11
-135.8999993130565
 21
27.05000231415033
 31
0.0
  0
LINE
  5
1C7
330
1F
100
AcDbEntity
  8
16
  6
Continuous
 62
     3
370
    25
100
AcDbLine
 10
-135.8999993130565
 20
4.550001978874207
 30
0.0
 11
-135.5999993085861
 21
4.550001978874207
 31
0.0
  0
LINE
  5
1C8
330
1F
100
AcDbEntity
  8
16
  6
Continuous
 62
     3
370
    25
100
AcDbLine
 10
-135.5999993085861
 20
4.550001978874207
 30
0.0
 11
-135.5999993085861
 21
8.025002030655742
 31
0.0
  0
LINE
  5
1C9
330
1F
100
AcDbEntity
  8
16
  6
Continuous
 62
     3
370
    25
100
AcDbLine
 10
-135.5999993085861
 20
8.57500203885138
 30
0.0
 11
-135.5999993085861
 21
13.02500210516155
 31
0.0
  0
LINE
  5
1CA
330
1F
100
AcDbEntity
  8
16
  6
Continuous
 62
     3
370
    25
100
AcDbLine
 10
-135.5999993085861
 20
13.57500211335719
 30
0.0
 11
-135.5999993085861
 21
18.02500217966735
 31
0.0
  0
LINE
  5
1CB
330
1F
100
AcDbEntity
  8
16
  6
Continuous
 62
     3
370
    25
100
AcDbLine
 10
-135.5999993085861
 20
18.57500218786299
 30
0.0
 11
-135.5999993085861
 21
23.02500225417316
 31
0.0
  0
LINE
  5
1CC
330
1F
100
AcDbEntity
  8
16
  6
Continuous
 62
     3
370
    25
100
AcDbLine
 10
-135.5999993085861
 20
23.5750022623688
 30
0.0
 11
-135.5999993085861
 21
27.05000231415033
 31
0.0
  0
LINE
  5
1CD
330
1F
100
AcDbEntity
  8
16
  6
Continuous
 62
     3
370
    25
100
AcDbLine
 10
-135.8999993130565
 20
27.05000231415033
 30
0.0
 11
-135.5999993085861
 21
27.05000231415033
 31
0.0
  0
LINE
  5
1CE
330
1F
100
AcDbEntity
  8
16
  6
Continuous
 62
     3
370
    25
100
AcDbLine
 10
-132.899999268353
 20
4.550001978874207
 30
0.0
 11
-132.899999268353
 21
8.025002030655742
 31
0.0
  0
LINE
  5
1CF
330
1F
100
AcDbEntity
  8
16
  6
Continuous
 62
     3
370
    25
100
AcDbLine
 10
-132.899999268353
 20
8.57500203885138
 30
0.0
 11
-132.899999268353
 21
13.02500210516155
 31
0.0
  0
LINE
  5
1D0
330
1F
100
AcDbEntity
  8
16
  6
Continuous
 62
     3
370
    25
100
AcDbLine
 10
-132.899999268353
 20
13.57500211335719
 30
0.0
 11
-132.899999268353
 21
18.02500217966735
 31
0.0
  0
LINE
  5
1D1
330
1F
100
AcDbEntity
  8
16
  6
Continuous
 62
     3
370
    25
100
AcDbLine
 10
-132.899999268353
 20
18.57500218786299
 30
0.0
 11
-132.899999268353
 21
23.02500225417316
 31
0.0
  0
LINE
  5
1D2
330
1F
100
AcDbEntity
  8
16
  6
Continuous
 62
     3
370
    25
100
AcDbLine
 10
-132.899999268353
 20
23.5750022623688
 30
0.0
 11
-132.899999268353
 21
27.05000231415033
 31
0.0
  0
LINE
  5
1D3
330
1F
100
AcDbEntity
  8
16
  6
Continuous
 62
     3
370
    25
100
AcDbLine
 10
-132.899999268353
 20
4.550001978874207
 30
0.0
 11
-132.5999992638826
 21
4.550001978874207
 31
0.0
  0
LINE
  5
1D4
330
1F
100
AcDbEntity
  8
16
  6
Continuous
 62
     3
370
    25
100
AcDbLine
 10
-132.5999992638826
 20
4.550001978874207
 30
0.0
 11
-132.5999992638826
 21
8.025002030655742
 31
0.0
  0
LINE
  5
1D5
330
1F
100
AcDbEntity
  8
16
  6
Continuous
 62
     3
370
    25
100
AcDbLine
 10
-132.5999992638826
 20
8.57500203885138
 30
0.0
 11
-132.5999992638826
 21
13.02500210516155
 31
0.0
  0
LINE
  5
1D6
330
1F
100
AcDbEntity
  8
16
  6
Continuous
 62
     3
370
    25
100
AcDbLine
 10
-132.5999992638826
 20
13.57500211335719
 30
0.0
 11
-132.5999992638826
 21
18.02500217966735
 31
0.0
  0
LINE
  5
1D7
330
1F
100
AcDbEntity
  8
16
  6
Continuous
 62
     3
370
    25
100
AcDbLine
 10
-132.5999992638826
 20
18.57500218786299
 30
0.0
 11
-132.5999992638826
 21
23.02500225417316
 31
0.0
  0
LINE
  5
1D8
330
1F
100
AcDbEntity
  8
16
  6
Continuous
 62
     3
370
    25
100
AcDbLine
 10
-132.5999992638826
 20
23.5750022623688
 30
0.0
 11
-132.5999992638826
 21
27.05000231415033
 31
0.0
  0
LINE
  5
1D9
330
1F
100
AcDbEntity
  8
16
  6
Continuous
 62
     3
370
    25
100
AcDbLine
 10
-132.899999268353
 20
27.05000231415033
 30
0.0
 11
-132.5999992638826
 21
27.05000231415033
 31
0.0
  0
LINE
  5
1DA
330
1F
100
AcDbEntity
  8
16
  6
Continuous
 62
     3
370
    25
100
AcDbLine
 10
-129.8999992236495
 20
4.550001978874207
 30
0.0
 11
-129.8999992236495
 21
8.025002030655742
 31
0.0
  0
LINE
  5
1DB
330
1F
100
AcDbEntity
  8
16
  6
Continuous
 62
     3
370
    25
100
AcDbLine
 10
-129.8999992236495
 20
8.57500203885138
 30
0.0
 11
-129.8999992236495
 21
13.02500210516155
 31
0.0
  0
LINE
  5
1DC
330
1F
100
AcDbEntity
  8
16
  6
Continuous
 62
     3
370
    25
100
AcDbLine
 10
-129.8999992236495
 20
13.57500211335719
 30
0.0
 11
-129.8999992236495
 21
18.02500217966735
 31
0.0
  0
LINE
  5
1DD
330
1F
100
AcDbEntity
  8
16
  6
Continuous
 62
     3
370
    25
100
AcDbLine
 10
-129.8999992236495
 20
18.57500218786299
 30
0.0
 11
-129.8999992236495
 21
23.02500225417316
 31
0.0
  0
LINE
  5
1DE
330
1F
100
AcDbEntity
  8
16
  6
Continuous
 62
     3
370
    25
100
AcDbLine
 10
-129.8999992236495
 20
23.5750022623688
 30
0.0
 11
-129.8999992236495
 21
27.05000231415033
 31
0.0
  0
LINE
  5
1DF
330
1F
100
AcDbEntity
  8
16
  6
Continuous
 62
     3
370
    25
100
AcDbLine
 10
-129.8999992236495
 20
4.550001978874207
 30
0.0
 11
-129.5999992191792
 21
4.550001978874207
 31
0.0
  0
LINE
  5
1E0
330
1F
100
AcDbEntity
  8
16
  6
Continuous
 62
     3
370
    25
100
AcDbLine
 10
-129.5999992191792
 20
4.550001978874207
 30
0.0
 11
-129.5999992191792
 21
8.025002030655742
 31
0.0
  0
LINE
  5
1E1
330
1F
100
AcDbEntity
  8
16
  6
Continuous
 62
     3
370
    25
100
AcDbLine
 10
-129.5999992191792
 20
8.57500203885138
 30
0.0
 11
-129.5999992191792
 21
13.02500210516155
 31
0.0
  0
LINE
  5
1E2
330
1F
100
AcDbEntity
  8
16
  6
Continuous
 62
     3
370
    25
100
AcDbLine
 10
-129.5999992191792
 20
13.57500211335719
 30
0.0
 11
-129.5999992191792
 21
18.02500217966735
 31
0.0
  0
LINE
  5
1E3
330
1F
100
AcDbEntity
  8
16
  6
Continuous
 62
     3
370
    25
100
AcDbLine
 10
-129.5999992191792
 20
18.57500218786299
 30
0.0
 11
-129.5999992191792
 21
23.02500225417316
 31
0.0
  0
LINE
  5
1E4
330
1F
100
AcDbEntity
  8
16
  6
Continuous
 62
     3
370
    25
100
AcDbLine
 10
-129.5999992191792
 20
23.5750022623688
 30
0.0
 11
-129.5999992191792
 21
27.05000231415033
 31
0.0
  0
LINE
  5
1E5
330
1F
100
AcDbEntity
  8
16
  6
Continuous
 62
     3
370
    25
100
AcDbLine
 10
-129.8999992236495
 20
27.05000231415033
 30
0.0
 11
-129.5999992191792
 21
27.05000231415033
 31
0.0
  0
LINE
  5
1E6
330
1F
100
AcDbEntity
  8
16
  6
Continuous
 62
     3
370
    25
100
AcDbLine
 10
-126.899999178946
 20
4.550001978874207
 30
0.0
 11
-126.899999178946
 21
8.025002030655742
 31
0.0
  0
LINE
  5
1E7
330
1F
100
AcDbEntity
  8
16
  6
Continuous
 62
     3
370
    25
100
AcDbLine
 10
-126.899999178946
 20
8.57500203885138
 30
0.0
 11
-126.899999178946
 21
13.02500210516155
 31
0.0
  0
LINE
  5
1E8
330
1F
100
AcDbEntity
  8
16
  6
Continuous
 62
     3
370
    25
100
AcDbLine
 10
-126.899999178946
 20
13.57500211335719
 30
0.0
 11
-126.899999178946
 21
18.02500217966735
 31
0.0
  0
LINE
  5
1E9
330
1F
100
AcDbEntity
  8
16
  6
Continuous
 62
     3
370
    25
100
AcDbLine
 10
-126.899999178946
 20
18.57500218786299
 30
0.0
 11
-126.899999178946
 21
23.02500225417316
 31
0.0
  0
LINE
  5
1EA
330
1F
100
AcDbEntity
  8
16
  6
Continuous
 62
     3
370
    25
100
AcDbLine
 10
-126.899999178946
 20
23.5750022623688
 30
0.0
 11
-126.899999178946
 21
27.05000231415033
 31
0.0
  0
LINE
  5
1EB
330
1F
100
AcDbEntity
  8
16
  6
Continuous
 62
     3
370
    25
100
AcDbLine
 10
-126.899999178946
 20
4.550001978874207
 30
0.0
 11
-126.5999991744757
 21
4.550001978874207
 31
0.0
  0
LINE
  5
1EC
330
1F
100
AcDbEntity
  8
16
  6
Continuous
 62
     3
370
    25
100
AcDbLine
 10
-126.5999991744757
 20
4.550001978874207
 30
0.0
 11
-126.5999991744757
 21
8.025002030655742
 31
0.0
  0
LINE
  5
1ED
330
1F
100
AcDbEntity
  8
16
  6
Continuous
 62
     3
370
    25
100
AcDbLine
 10
-126.5999991744757
 20
8.57500203885138
 30
0.0
 11
-126.5999991744757
 21
13.02500210516155
 31
0.0
  0
LINE
  5
1EE
330
1F
100
AcDbEntity
  8
16
  6
Continuous
 62
     3
370
    25
100
AcDbLine
 10
-126.5999991744757
 20
13.57500211335719
 30
0.0
 11
-126.5999991744757
 21
18.02500217966735
 31
0.0
  0
LINE
  5
1EF
330
1F
100
AcDbEntity
  8
16
  6
Continuous
 62
     3
370
    25
100
AcDbLine
 10
-126.5999991744757
 20
18.57500218786299
 30
0.0
 11
-126.5999991744757
 21
23.02500225417316
 31
0.0
  0
LINE
  5
1F0
330
1F
100
AcDbEntity
  8
16
  6
Continuous
 62
     3
370
    25
100
AcDbLine
 10
-126.5999991744757
 20
23.5750022623688
 30
0.0
 11
-126.5999991744757
 21
27.05000231415033
 31
0.0
  0
LINE
  5
1F1
330
1F
100
AcDbEntity
  8
16
  6
Continuous
 62
     3
370
    25
100
AcDbLine
 10
-126.899999178946
 20
27.05000231415033
 30
0.0
 11
-126.5999991744757
 21
27.05000231415033
 31
0.0
  0
LINE
  5
1F2
330
1F
100
AcDbEntity
  8
16
  6
Continuous
 62
     3
370
    25
100
AcDbLine
 10
-123.8999991342425
 20
4.550001978874207
 30
0.0
 11
-123.8999991342425
 21
8.025002030655742
 31
0.0
  0
LINE
  5
1F3
330
1F
100
AcDbEntity
  8
16
  6
Continuous
 62
     3
370
    25
100
AcDbLine
 10
-123.8999991342425
 20
8.57500203885138
 30
0.0
 11
-123.8999991342425
 21
13.02500210516155
 31
0.0
  0
LINE
  5
1F4
330
1F
100
AcDbEntity
  8
16
  6
Continuous
 62
     3
370
    25
100
AcDbLine
 10
-123.8999991342425
 20
13.57500211335719
 30
0.0
 11
-123.8999991342425
 21
18.02500217966735
 31
0.0
  0
LINE
  5
1F5
330
1F
100
AcDbEntity
  8
16
  6
Continuous
 62
     3
370
    25
100
AcDbLine
 10
-123.8999991342425
 20
18.57500218786299
 30
0.0
 11
-123.8999991342425
 21
23.02500225417316
 31
0.0
  0
LINE
  5
1F6
330
1F
100
AcDbEntity
  8
16
  6
Continuous
 62
     3
370
    25
100
AcDbLine
 10
-123.8999991342425
 20
23.5750022623688
 30
0.0
 11
-123.8999991342425
 21
27.05000231415033
 31
0.0
  0
LINE
  5
1F7
330
1F
100
AcDbEntity
  8
16
  6
Continuous
 62
     3
370
    25
100
AcDbLine
 10
-123.8999991342425
 20
4.550001978874207
 30
0.0
 11
-123.5999991297722
 21
4.550001978874207
 31
0.0
  0
LINE
  5
1F8
330
1F
100
AcDbEntity
  8
16
  6
Continuous
 62
     3
370
    25
100
AcDbLine
 10
-123.5999991297722
 20
4.550001978874207
 30
0.0
 11
-123.5999991297722
 21
8.025002030655742
 31
0.0
  0
LINE
  5
1F9
330
1F
100
AcDbEntity
  8
16
  6
Continuous
 62
     3
370
    25
100
AcDbLine
 10
-123.5999991297722
 20
8.57500203885138
 30
0.0
 11
-123.5999991297722
 21
13.02500210516155
 31
0.0
  0
LINE
  5
1FA
330
1F
100
AcDbEntity
  8
16
  6
Continuous
 62
     3
370
    25
100
AcDbLine
 10
-123.5999991297722
 20
13.57500211335719
 30
0.0
 11
-123.5999991297722
 21
18.02500217966735
 31
0.0
  0
LINE
  5
1FB
330
1F
100
AcDbEntity
  8
16
  6
Continuous
 62
     3
370
    25
100
AcDbLine
 10
-123.5999991297722
 20
18.57500218786299
 30
0.0
 11
-123.5999991297722
 21
23.02500225417316
 31
0.0
  0
LINE
  5
1FC
330
1F
100
AcDbEntity
  8
16
  6
Continuous
 62
     3
370
    25
100
AcDbLine
 10
-123.5999991297722
 20
23.5750022623688
 30
0.0
 11
-123.5999991297722
 21
27.05000231415033
 31
0.0
  0
LINE
  5
1FD
330
1F
100
AcDbEntity
  8
16
  6
Continuous
 62
     3
370
    25
100
AcDbLine
 10
-123.8999991342425
 20
27.05000231415033
 30
0.0
 11
-123.5999991297722
 21
27.05000231415033
 31
0.0
  0
LINE
  5
1FE
330
1F
100
AcDbEntity
  8
16
  6
Continuous
 62
     3
370
    25
100
AcDbLine
 10
-120.8999990895391
 20
4.550001978874207
 30
0.0
 11
-120.8999990895391
 21
8.025002030655742
 31
0.0
  0
LINE
  5
1FF
330
1F
100
AcDbEntity
  8
16
  6
Continuous
 62
     3
370
    25
100
AcDbLine
 10
-120.8999990895391
 20
8.57500203885138
 30
0.0
 11
-120.8999990895391
 21
13.02500210516155
 31
0.0
  0
LINE
  5
200
330
1F
100
AcDbEntity
  8
16
  6
Continuous
 62
     3
370
    25
100
AcDbLine
 10
-120.8999990895391
 20
13.57500211335719
 30
0.0
 11
-120.8999990895391
 21
18.02500217966735
 31
0.0
  0
LINE
  5
201
330
1F
100
AcDbEntity
  8
16
  6
Continuous
 62
     3
370
    25
100
AcDbLine
 10
-120.8999990895391
 20
18.57500218786299
 30
0.0
 11
-120.8999990895391
 21
23.02500225417316
 31
0.0
  0
LINE
  5
202
330
1F
100
AcDbEntity
  8
16
  6
Continuous
 62
     3
370
    25
100
AcDbLine
 10
-120.8999990895391
 20
23.5750022623688
 30
0.0
 11
-120.8999990895391
 21
27.05000231415033
 31
0.0
  0
LINE
  5
203
330
1F
100
AcDbEntity
  8
16
  6
Continuous
 62
     3
370
    25
100
AcDbLine
 10
-120.8999990895391
 20
4.550001978874207
 30
0.0
 11
-120.5999990850687
 21
4.550001978874207
 31
0.0
  0
LINE
  5
204
330
1F
100
AcDbEntity
  8
16
  6
Continuous
 62
     3
370
    25
100
AcDbLine
 10
-120.5999990850687
 20
4.550001978874207
 30
0.0
 11
-120.5999990850687
 21
8.025002030655742
 31
0.0
  0
LINE
  5
205
330
1F
100
AcDbEntity
  8
16
  6
Continuous
 62
     3
370
    25
100
AcDbLine
 10
-120.5999990850687
 20
8.57500203885138
 30
0.0
 11
-120.5999990850687
 21
13.02500210516155
 31
0.0
  0
LINE
  5
206
330
1F
100
AcDbEntity
  8
16
  6
Continuous
 62
     3
370
    25
100
AcDbLine
 10
-120.5999990850687
 20
13.57500211335719
 30
0.0
 11
-120.5999990850687
 21
18.02500217966735
 31
0.0
  0
LINE
  5
207
330
1F
100
AcDbEntity
  8
16
  6
Continuous
 62
     3
370
    25
100
AcDbLine
 10
-120.5999990850687
 20
18.57500218786299
 30
0.0
 11
-120.5999990850687
 21
23.02500225417316
 31
0.0
  0
LINE
  5
208
330
1F
100
AcDbEntity
  8
16
  6
Continuous
 62
     3
370
    25
100
AcDbLine
 10
-120.5999990850687
 20
23.5750022623688
 30
0.0
 11
-120.5999990850687
 21
27.05000231415033
 31
0.0
  0
LINE
  5
209
330
1F
100
AcDbEntity
  8
16
  6
Continuous
 62
     3
370
    25
100
AcDbLine
 10
-120.8999990895391
 20
27.05000231415033
 30
0.0
 11
-120.5999990850687
 21
27.05000231415033
 31
0.0
  0
LINE
  5
20A
330
1F
100
AcDbEntity
  8
16
  6
Continuous
 62
     3
370
    25
100
AcDbLine
 10
-117.8999990448356
 20
4.550001978874207
 30
0.0
 11
-117.8999990448356
 21
8.025002030655742
 31
0.0
  0
LINE
  5
20B
330
1F
100
AcDbEntity
  8
16
  6
Continuous
 62
     3
370
    25
100
AcDbLine
 10
-117.8999990448356
 20
8.57500203885138
 30
0.0
 11
-117.8999990448356
 21
13.02500210516155
 31
0.0
  0
LINE
  5
20C
330
1F
100
AcDbEntity
  8
16
  6
Continuous
 62
     3
370
    25
100
AcDbLine
 10
-117.8999990448356
 20
13.57500211335719
 30
0.0
 11
-117.8999990448356
 21
18.02500217966735
 31
0.0
  0
LINE
  5
20D
330
1F
100
AcDbEntity
  8
16
  6
Continuous
 62
     3
370
    25
100
AcDbLine
 10
-117.8999990448356
 20
18.57500218786299
 30
0.0
 11
-117.8999990448356
 21
23.02500225417316
 31
0.0
  0
LINE
  5
20E
330
1F
100
AcDbEntity
  8
16
  6
Continuous
 62
     3
370
    25
100
AcDbLine
 10
-117.8999990448356
 20
23.5750022623688
 30
0.0
 11
-117.8999990448356
 21
27.05000231415033
 31
0.0
  0
LINE
  5
20F
330
1F
100
AcDbEntity
  8
16
  6
Continuous
 62
     3
370
    25
100
AcDbLine
 10
-117.8999990448356
 20
4.550001978874207
 30
0.0
 11
-117.5999990403652
 21
4.550001978874207
 31
0.0
  0
LINE
  5
210
330
1F
100
AcDbEntity
  8
16
  6
Continuous
 62
     3
370
    25
100
AcDbLine
 10
-117.5999990403652
 20
4.550001978874207
 30
0.0
 11
-117.5999990403652
 21
8.025002030655742
 31
0.0
  0
LINE
  5
211
330
1F
100
AcDbEntity
  8
16
  6
Continuous
 62
     3
370
    25
100
AcDbLine
 10
-117.5999990403652
 20
8.57500203885138
 30
0.0
 11
-117.5999990403652
 21
13.02500210516155
 31
0.0
  0
LINE
  5
212
330
1F
100
AcDbEntity
  8
16
  6
Continuous
 62
     3
370
    25
100
AcDbLine
 10
-117.5999990403652
 20
13.57500211335719
 30
0.0
 11
-117.5999990403652
 21
18.02500217966735
 31
0.0
  0
LINE
  5
213
330
1F
100
AcDbEntity
  8
16
  6
Continuous
 62
     3
370
    25
100
AcDbLine
 10
-117.5999990403652
 20
18.57500218786299
 30
0.0
 11
-117.5999990403652
 21
23.02500225417316
 31
0.0
  0
LINE
  5
214
330
1F
100
AcDbEntity
  8
16
  6
Continuous
 62
     3
370
    25
100
AcDbLine
 10
-117.5999990403652
 20
23.5750022623688
 30
0.0
 11
-117.5999990403652
 21
27.05000231415033
 31
0.0
  0
LINE
  5
215
330
1F
100
AcDbEntity
  8
16
  6
Continuous
 62
     3
370
    25
100
AcDbLine
 10
-117.8999990448356
 20
27.05000231415033
 30
0.0
 11
-117.5999990403652
 21
27.05000231415033
 31
0.0
  0
LINE
  5
216
330
1F
100
AcDbEntity
  8
16
  6
Continuous
 62
     3
370
    25
100
AcDbLine
 10
-114.8999990001321
 20
4.550001978874207
 30
0.0
 11
-114.8999990001321
 21
8.025002030655742
 31
0.0
  0
LINE
  5
217
330
1F
100
AcDbEntity
  8
16
  6
Continuous
 62
     3
370
    25
100
AcDbLine
 10
-114.8999990001321
 20
8.57500203885138
 30
0.0
 11
-114.8999990001321
 21
13.02500210516155
 31
0.0
  0
LINE
  5
218
330
1F
100
AcDbEntity
  8
16
  6
Continuous
 62
     3
370
    25
100
AcDbLine
 10
-114.8999990001321
 20
13.57500211335719
 30
0.0
 11
-114.8999990001321
 21
18.02500217966735
 31
0.0
  0
LINE
  5
219
330
1F
100
AcDbEntity
  8
16
  6
Continuous
 62
     3
370
    25
100
AcDbLine
 10
-114.8999990001321
 20
18.57500218786299
 30
0.0
 11
-114.8999990001321
 21
23.02500225417316
 31
0.0
  0
LINE
  5
21A
330
1F
100
AcDbEntity
  8
16
  6
Continuous
 62
     3
370
    25
100
AcDbLine
 10
-114.8999990001321
 20
23.5750022623688
 30
0.0
 11
-114.8999990001321
 21
27.05000231415033
 31
0.0
  0
LINE
  5
21B
330
1F
100
AcDbEntity
  8
16
  6
Continuous
 62
     3
370
    25
100
AcDbLine
 10
-114.8999990001321
 20
4.550001978874207
 30
0.0
 11
-114.5999989956617
 21
4.550001978874207
 31
0.0
  0
LINE
  5
21C
330
1F
100
AcDbEntity
  8
16
  6
Continuous
 62
     3
370
    25
100
AcDbLine
 10
-114.5999989956617
 20
4.550001978874207
 30
0.0
 11
-114.5999989956617
 21
8.025002030655742
 31
0.0
  0
LINE
  5
21D
330
1F
100
AcDbEntity
  8
16
  6
Continuous
 62
     3
370
    25
100
AcDbLine
 10
-114.5999989956617
 20
8.57500203885138
 30
0.0
 11
-114.5999989956617
 21
13.02500210516155
 31
0.0
  0
LINE
  5
21E
330
1F
100
AcDbEntity
  8
16
  6
Continuous
 62
     3
370
    25
100
AcDbLine
 10
-114.5999989956617
 20
13.57500211335719
 30
0.0
 11
-114.5999989956617
 21
18.02500217966735
 31
0.0
  0
LINE
  5
21F
330
1F
100
AcDbEntity
  8
16
  6
Continuous
 62
     3
370
    25
100
AcDbLine
 10
-114.5999989956617
 20
18.57500218786299
 30
0.0
 11
-114.5999989956617
 21
23.02500225417316
 31
0.0
  0
LINE
  5
220
330
1F
100
AcDbEntity
  8
16
  6
Continuous
 62
     3
370
    25
100
AcDbLine
 10
-114.5999989956617
 20
23.5750022623688
 30
0.0
 11
-114.5999989956617
 21
27.05000231415033
 31
0.0
  0
LINE
  5
221
330
1F
100
AcDbEntity
  8
16
  6
Continuous
 62
     3
370
    25
100
AcDbLine
 10
-114.8999990001321
 20
27.05000231415033
 30
0.0
 11
-114.5999989956617
 21
27.05000231415033
 31
0.0
  0
LINE
  5
222
330
1F
100
AcDbEntity
  8
16
  6
Continuous
 62
     3
370
    25
100
AcDbLine
 10
-111.8999989554286
 20
4.550001978874207
 30
0.0
 11
-111.8999989554286
 21
8.025002030655742
 31
0.0
  0
LINE
  5
223
330
1F
100
AcDbEntity
  8
16
  6
Continuous
 62
     3
370
    25
100
AcDbLine
 10
-111.8999989554286
 20
8.57500203885138
 30
0.0
 11
-111.8999989554286
 21
13.02500210516155
 31
0.0
  0
LINE
  5
224
330
1F
100
AcDbEntity
  8
16
  6
Continuous
 62
     3
370
    25
100
AcDbLine
 10
-111.8999989554286
 20
13.57500211335719
 30
0.0
 11
-111.8999989554286
 21
18.02500217966735
 31
0.0
  0
LINE
  5
225
330
1F
100
AcDbEntity
  8
16
  6
Continuous
 62
     3
370
    25
100
AcDbLine
 10
-111.8999989554286
 20
18.57500218786299
 30
0.0
 11
-111.8999989554286
 21
23.02500225417316
 31
0.0
  0
LINE
  5
226
330
1F
100
AcDbEntity
  8
16
  6
Continuous
 62
     3
370
    25
100
AcDbLine
 10
-111.8999989554286
 20
23.5750022623688
 30
0.0
 11
-111.8999989554286
 21
27.05000231415033
 31
0.0
  0
LINE
  5
227
330
1F
100
AcDbEntity
  8
16
  6
Continuous
 62
     3
370
    25
100
AcDbLine
 10
-111.8999989554286
 20
4.550001978874207
 30
0.0
 11
-111.5999989509583
 21
4.550001978874207
 31
0.0
  0
LINE
  5
228
330
1F
100
AcDbEntity
  8
16
  6
Continuous
 62
     3
370
    25
100
AcDbLine
 10
-111.5999989509583
 20
4.550001978874207
 30
0.0
 11
-111.5999989509583
 21
8.025002030655742
 31
0.0
  0
LINE
  5
229
330
1F
100
AcDbEntity
  8
16
  6
Continuous
 62
     3
370
    25
100
AcDbLine
 10
-111.5999989509583
 20
8.57500203885138
 30
0.0
 11
-111.5999989509583
 21
13.02500210516155
 31
0.0
  0
LINE
  5
22A
330
1F
100
AcDbEntity
  8
16
  6
Continuous
 62
     3
370
    25
100
AcDbLine
 10
-111.5999989509583
 20
13.57500211335719
 30
0.0
 11
-111.5999989509583
 21
18.02500217966735
 31
0.0
  0
LINE
  5
22B
330
1F
100
AcDbEntity
  8
16
  6
Continuous
 62
     3
370
    25
100
AcDbLine
 10
-111.5999989509583
 20
18.57500218786299
 30
0.0
 11
-111.5999989509583
 21
23.02500225417316
 31
0.0
  0
LINE
  5
22C
330
1F
100
AcDbEntity
  8
16
  6
Continuous
 62
     3
370
    25
100
AcDbLine
 10
-111.5999989509583
 20
23.5750022623688
 30
0.0
 11
-111.5999989509583
 21
27.05000231415033
 31
0.0
  0
LINE
  5
22D
330
1F
100
AcDbEntity
  8
16
  6
Continuous
 62
     3
370
    25
100
AcDbLine
 10
-111.8999989554286
 20
27.05000231415033
 30
0.0
 11
-111.5999989509583
 21
27.05000231415033
 31
0.0
  0
LINE
  5
22E
330
1F
100
AcDbEntity
  8
16
  6
Continuous
 62
     3
370
    25
100
AcDbLine
 10
-108.8999989107251
 20
4.550001978874207
 30
0.0
 11
-108.8999989107251
 21
8.025002030655742
 31
0.0
  0
LINE
  5
22F
330
1F
100
AcDbEntity
  8
16
  6
Continuous
 62
     3
370
    25
100
AcDbLine
 10
-108.8999989107251
 20
8.57500203885138
 30
0.0
 11
-108.8999989107251
 21
13.02500210516155
 31
0.0
  0
LINE
  5
230
330
1F
100
AcDbEntity
  8
16
  6
Continuous
 62
     3
370
    25
100
AcDbLine
 10
-108.8999989107251
 20
13.57500211335719
 30
0.0
 11
-108.8999989107251
 21
18.02500217966735
 31
0.0
  0
LINE
  5
231
330
1F
100
AcDbEntity
  8
16
  6
Continuous
 62
     3
370
    25
100
AcDbLine
 10
-108.8999989107251
 20
18.57500218786299
 30
0.0
 11
-108.8999989107251
 21
23.02500225417316
 31
0.0
  0
LINE
  5
232
330
1F
100
AcDbEntity
  8
16
  6
Continuous
 62
     3
370
    25
100
AcDbLine
 10
-108.8999989107251
 20
23.5750022623688
 30
0.0
 11
-108.8999989107251
 21
27.05000231415033
 31
0.0
  0
LINE
  5
233
330
1F
100
AcDbEntity
  8
16
  6
Continuous
 62
     3
370
    25
100
AcDbLine
 10
-108.8999989107251
 20
4.550001978874207
 30
0.0
 11
-108.5999989062548
 21
4.550001978874207
 31
0.0
  0
LINE
  5
234
330
1F
100
AcDbEntity
  8
16
  6
Continuous
 62
     3
370
    25
100
AcDbLine
 10
-108.5999989062548
 20
4.550001978874207
 30
0.0
 11
-108.5999989062548
 21
8.025002030655742
 31
0.0
  0
LINE
  5
235
330
1F
100
AcDbEntity
  8
16
  6
Continuous
 62
     3
370
    25
100
AcDbLine
 10
-108.5999989062548
 20
8.57500203885138
 30
0.0
 11
-108.5999989062548
 21
13.02500210516155
 31
0.0
  0
LINE
  5
236
330
1F
100
AcDbEntity
  8
16
  6
Continuous
 62
     3
370
    25
100
AcDbLine
 10
-108.5999989062548
 20
13.57500211335719
 30
0.0
 11
-108.5999989062548
 21
18.02500217966735
 31
0.0
  0
LINE
  5
237
330
1F
100
AcDbEntity
  8
16
  6
Continuous
 62
     3
370
    25
100
AcDbLine
 10
-108.5999989062548
 20
18.57500218786299
 30
0.0
 11
-108.5999989062548
 21
23.02500225417316
 31
0.0
  0
LINE
  5
238
330
1F
100
AcDbEntity
  8
16
  6
Continuous
 62
     3
370
    25
100
AcDbLine
 10
-108.5999989062548
 20
23.5750022623688
 30
0.0
 11
-108.5999989062548
 21
27.05000231415033
 31
0.0
  0
LINE
  5
239
330
1F
100
AcDbEntity
  8
16
  6
Continuous
 62
     3
370
    25
100
AcDbLine
 10
-108.8999989107251
 20
27.05000231415033
 30
0.0
 11
-108.5999989062548
 21
27.05000231415033
 31
0.0
  0
LINE
  5
23A
330
1F
100
AcDbEntity
  8
16
  6
Continuous
 62
     3
370
    25
100
AcDbLine
 10
-105.8999988660216
 20
4.550001978874207
 30
0.0
 11
-105.8999988660216
 21
8.025002030655742
 31
0.0
  0
LINE
  5
23B
330
1F
100
AcDbEntity
  8
16
  6
Continuous
 62
     3
370
    25
100
AcDbLine
 10
-105.8999988660216
 20
8.57500203885138
 30
0.0
 11
-105.8999988660216
 21
13.02500210516155
 31
0.0
  0
LINE
  5
23C
330
1F
100
AcDbEntity
  8
16
  6
Continuous
 62
     3
370
    25
100
AcDbLine
 10
-105.8999988660216
 20
13.57500211335719
 30
0.0
 11
-105.8999988660216
 21
18.02500217966735
 31
0.0
  0
LINE
  5
23D
330
1F
100
AcDbEntity
  8
16
  6
Continuous
 62
     3
370
    25
100
AcDbLine
 10
-105.8999988660216
 20
18.57500218786299
 30
0.0
 11
-105.8999988660216
 21
23.02500225417316
 31
0.0
  0
LINE
  5
23E
330
1F
100
AcDbEntity
  8
16
  6
Continuous
 62
     3
370
    25
100
AcDbLine
 10
-105.8999988660216
 20
23.5750022623688
 30
0.0
 11
-105.8999988660216
 21
27.05000231415033
 31
0.0
  0
LINE
  5
23F
330
1F
100
AcDbEntity
  8
16
  6
Continuous
 62
     3
370
    25
100
AcDbLine
 10
-105.8999988660216
 20
4.550001978874207
 30
0.0
 11
-105.5999988615513
 21
4.550001978874207
 31
0.0
  0
LINE
  5
240
330
1F
100
AcDbEntity
  8
16
  6
Continuous
 62
     3
370
    25
100
AcDbLine
 10
-105.5999988615513
 20
4.550001978874207
 30
0.0
 11
-105.5999988615513
 21
8.025002030655742
 31
0.0
  0
LINE
  5
241
330
1F
100
AcDbEntity
  8
16
  6
Continuous
 62
     3
370
    25
100
AcDbLine
 10
-105.5999988615513
 20
8.57500203885138
 30
0.0
 11
-105.5999988615513
 21
13.02500210516155
 31
0.0
  0
LINE
  5
242
330
1F
100
AcDbEntity
  8
16
  6
Continuous
 62
     3
370
    25
100
AcDbLine
 10
-105.5999988615513
 20
13.57500211335719
 30
0.0
 11
-105.5999988615513
 21
18.02500217966735
 31
0.0
  0
LINE
  5
243
330
1F
100
AcDbEntity
  8
16
  6
Continuous
 62
     3
370
    25
100
AcDbLine
 10
-105.5999988615513
 20
18.57500218786299
 30
0.0
 11
-105.5999988615513
 21
23.02500225417316
 31
0.0
  0
LINE
  5
244
330
1F
100
AcDbEntity
  8
16
  6
Continuous
 62
     3
370
    25
100
AcDbLine
 10
-105.5999988615513
 20
23.5750022623688
 30
0.0
 11
-105.5999988615513
 21
27.05000231415033
 31
0.0
  0
LINE
  5
245
330
1F
100
AcDbEntity
  8
16
  6
Continuous
 62
     3
370
    25
100
AcDbLine
 10
-105.8999988660216
 20
27.05000231415033
 30
0.0
 11
-105.5999988615513
 21
27.05000231415033
 31
0.0
  0
LINE
  5
246
330
1F
100
AcDbEntity
  8
16
  6
Continuous
 62
     3
370
    25
100
AcDbLine
 10
-102.8999988213181
 20
4.550001978874207
 30
0.0
 11
-102.8999988213181
 21
8.025002030655742
 31
0.0
  0
LINE
  5
247
330
1F
100
AcDbEntity
  8
16
  6
Continuous
 62
     3
370
    25
100
AcDbLine
 10
-102.8999988213181
 20
8.57500203885138
 30
0.0
 11
-102.8999988213181
 21
13.02500210516155
 31
0.0
  0
LINE
  5
248
330
1F
100
AcDbEntity
  8
16
  6
Continuous
 62
     3
370
    25
100
AcDbLine
 10
-102.8999988213181
 20
13.57500211335719
 30
0.0
 11
-102.8999988213181
 21
18.02500217966735
 31
0.0
  0
LINE
  5
249
330
1F
100
AcDbEntity
  8
16
  6
Continuous
 62
     3
370
    25
100
AcDbLine
 10
-102.8999988213181
 20
18.57500218786299
 30
0.0
 11
-102.8999988213181
 21
23.02500225417316
 31
0.0
  0
LINE
  5
24A
330
1F
100
AcDbEntity
  8
16
  6
Continuous
 62
     3
370
    25
100
AcDbLine
 10
-102.8999988213181
 20
23.5750022623688
 30
0.0
 11
-102.8999988213181
 21
27.05000231415033
 31
0.0
  0
LINE
  5
24B
330
1F
100
AcDbEntity
  8
16
  6
Continuous
 62
     3
370
    25
100
AcDbLine
 10
-102.8999988213181
 20
4.550001978874207
 30
0.0
 11
-102.5999988168478
 21
4.550001978874207
 31
0.0
  0
LINE
  5
24C
330
1F
100
AcDbEntity
  8
16
  6
Continuous
 62
     3
370
    25
100
AcDbLine
 10
-102.5999988168478
 20
4.550001978874207
 30
0.0
 11
-102.5999988168478
 21
8.025002030655742
 31
0.0
  0
LINE
  5
24D
330
1F
100
AcDbEntity
  8
16
  6
Continuous
 62
     3
370
    25
100
AcDbLine
 10
-102.5999988168478
 20
8.57500203885138
 30
0.0
 11
-102.5999988168478
 21
13.02500210516155
 31
0.0
  0
LINE
  5
24E
330
1F
100
AcDbEntity
  8
16
  6
Continuous
 62
     3
370
    25
100
AcDbLine
 10
-102.5999988168478
 20
13.57500211335719
 30
0.0
 11
-102.5999988168478
 21
18.02500217966735
 31
0.0
  0
LINE
  5
24F
330
1F
100
AcDbEntity
  8
16
  6
Continuous
 62
     3
370
    25
100
AcDbLine
 10
-102.5999988168478
 20
18.57500218786299
 30
0.0
 11
-102.5999988168478
 21
23.02500225417316
 31
0.0
  0
LINE
  5
250
330
1F
100
AcDbEntity
  8
16
  6
Continuous
 62
     3
370
    25
100
AcDbLine
 10
-102.5999988168478
 20
23.5750022623688
 30
0.0
 11
-102.5999988168478
 21
27.05000231415033
 31
0.0
  0
LINE
  5
251
330
1F
100
AcDbEntity
  8
16
  6
Continuous
 62
     3
370
    25
100
AcDbLine
 10
-102.8999988213181
 20
27.05000231415033
 30
0.0
 11
-102.5999988168478
 21
27.05000231415033
 31
0.0
  0
LINE
  5
252
330
1F
100
AcDbEntity
  8
16
  6
Continuous
 62
     3
370
    25
100
AcDbLine
 10
-99.89999877661467
 20
4.550001978874207
 30
0.0
 11
-99.89999877661467
 21
8.025002030655742
 31
0.0
  0
LINE
  5
253
330
1F
100
AcDbEntity
  8
16
  6
Continuous
 62
     3
370
    25
100
AcDbLine
 10
-99.89999877661467
 20
8.57500203885138
 30
0.0
 11
-99.89999877661467
 21
13.02500210516155
 31
0.0
  0
LINE
  5
254
330
1F
100
AcDbEntity
  8
16
  6
Continuous
 62
     3
370
    25
100
AcDbLine
 10
-99.89999877661467
 20
13.57500211335719
 30
0.0
 11
-99.89999877661467
 21
18.02500217966735
 31
0.0
  0
LINE
  5
255
330
1F
100
AcDbEntity
  8
16
  6
Continuous
 62
     3
370
    25
100
AcDbLine
 10
-99.89999877661467
 20
18.57500218786299
 30
0.0
 11
-99.89999877661467
 21
23.02500225417316
 31
0.0
  0
LINE
  5
256
330
1F
100
AcDbEntity
  8
16
  6
Continuous
 62
     3
370
    25
100
AcDbLine
 10
-99.89999877661467
 20
23.5750022623688
 30
0.0
 11
-99.89999877661467
 21
27.05000231415033
 31
0.0
  0
LINE
  5
257
330
1F
100
AcDbEntity
  8
16
  6
Continuous
 62
     3
370
    25
100
AcDbLine
 10
-99.89999877661467
 20
4.550001978874207
 30
0.0
 11
-99.59999877214432
 21
4.550001978874207
 31
0.0
  0
LINE
  5
258
330
1F
100
AcDbEntity
  8
16
  6
Continuous
 62
     3
370
    25
100
AcDbLine
 10
-99.59999877214432
 20
4.550001978874207
 30
0.0
 11
-99.59999877214432
 21
8.025002030655742
 31
0.0
  0
LINE
  5
259
330
1F
100
AcDbEntity
  8
16
  6
Continuous
 62
     3
370
    25
100
AcDbLine
 10
-99.59999877214432
 20
8.57500203885138
 30
0.0
 11
-99.59999877214432
 21
13.02500210516155
 31
0.0
  0
LINE
  5
25A
330
1F
100
AcDbEntity
  8
16
  6
Continuous
 62
     3
370
    25
100
AcDbLine
 10
-99.59999877214432
 20
13.57500211335719
 30
0.0
 11
-99.59999877214432
 21
18.02500217966735
 31
0.0
  0
LINE
  5
25B
330
1F
100
AcDbEntity
  8
16
  6
Continuous
 62
     3
370
    25
100
AcDbLine
 10
-99.59999877214432
 20
18.57500218786299
 30
0.0
 11
-99.59999877214432
 21
23.02500225417316
 31
0.0
  0
LINE
  5
25C
330
1F
100
AcDbEntity
  8
16
  6
Continuous
 62
     3
370
    25
100
AcDbLine
 10
-99.59999877214432
 20
23.5750022623688
 30
0.0
 11
-99.59999877214432
 21
27.05000231415033
 31
0.0
  0
LINE
  5
25D
330
1F
100
AcDbEntity
  8
16
  6
Continuous
 62
     3
370
    25
100
AcDbLine
 10
-99.89999877661467
 20
27.05000231415033
 30
0.0
 11
-99.59999877214432
 21
27.05000231415033
 31
0.0
  0
LINE
  5
25E
330
1F
100
AcDbEntity
  8
16
  6
Continuous
 62
     3
370
    25
100
AcDbLine
 10
-96.89999873191118
 20
4.550001978874207
 30
0.0
 11
-96.89999873191118
 21
8.025002030655742
 31
0.0
  0
LINE
  5
25F
330
1F
100
AcDbEntity
  8
16
  6
Continuous
 62
     3
370
    25
100
AcDbLine
 10
-96.89999873191118
 20
8.57500203885138
 30
0.0
 11
-96.89999873191118
 21
13.02500210516155
 31
0.0
  0
LINE
  5
260
330
1F
100
AcDbEntity
  8
16
  6
Continuous
 62
     3
370
    25
100
AcDbLine
 10
-96.89999873191118
 20
13.57500211335719
 30
0.0
 11
-96.89999873191118
 21
18.02500217966735
 31
0.0
  0
LINE
  5
261
330
1F
100
AcDbEntity
  8
16
  6
Continuous
 62
     3
370
    25
100
AcDbLine
 10
-96.89999873191118
 20
18.57500218786299
 30
0.0
 11
-96.89999873191118
 21
23.02500225417316
 31
0.0
  0
LINE
  5
262
330
1F
100
AcDbEntity
  8
16
  6
Continuous
 62
     3
370
    25
100
AcDbLine
 10
-96.89999873191118
 20
23.5750022623688
 30
0.0
 11
-96.89999873191118
 21
27.05000231415033
 31
0.0
  0
LINE
  5
263
330
1F
100
AcDbEntity
  8
16
  6
Continuous
 62
     3
370
    25
100
AcDbLine
 10
-96.89999873191118
 20
4.550001978874207
 30
0.0
 11
-96.59999872744083
 21
4.550001978874207
 31
0.0
  0
LINE
  5
264
330
1F
100
AcDbEntity
  8
16
  6
Continuous
 62
     3
370
    25
100
AcDbLine
 10
-96.59999872744083
 20
4.550001978874207
 30
0.0
 11
-96.59999872744083
 21
8.025002030655742
 31
0.0
  0
LINE
  5
265
330
1F
100
AcDbEntity
  8
16
  6
Continuous
 62
     3
370
    25
100
AcDbLine
 10
-96.59999872744083
 20
8.57500203885138
 30
0.0
 11
-96.59999872744083
 21
13.02500210516155
 31
0.0
  0
LINE
  5
266
330
1F
100
AcDbEntity
  8
16
  6
Continuous
 62
     3
370
    25
100
AcDbLine
 10
-96.59999872744083
 20
13.57500211335719
 30
0.0
 11
-96.59999872744083
 21
18.02500217966735
 31
0.0
  0
LINE
  5
267
330
1F
100
AcDbEntity
  8
16
  6
Continuous
 62
     3
370
    25
100
AcDbLine
 10
-96.59999872744083
 20
18.57500218786299
 30
0.0
 11
-96.59999872744083
 21
23.02500225417316
 31
0.0
  0
LINE
  5
268
330
1F
100
AcDbEntity
  8
16
  6
Continuous
 62
     3
370
    25
100
AcDbLine
 10
-96.59999872744083
 20
23.5750022623688
 30
0.0
 11
-96.59999872744083
 21
27.05000231415033
 31
0.0
  0
LINE
  5
269
330
1F
100
AcDbEntity
  8
16
  6
Continuous
 62
     3
370
    25
100
AcDbLine
 10
-96.89999873191118
 20
27.05000231415033
 30
0.0
 11
-96.59999872744083
 21
27.05000231415033
 31
0.0
  0
LINE
  5
26A
330
1F
100
AcDbEntity
  8
16
  6
Continuous
 62
     3
370
    25
100
AcDbLine
 10
-93.8999986872077
 20
4.550001978874207
 30
0.0
 11
-93.8999986872077
 21
8.025002030655742
 31
0.0
  0
LINE
  5
26B
330
1F
100
AcDbEntity
  8
16
  6
Continuous
 62
     3
370
    25
100
AcDbLine
 10
-93.8999986872077
 20
8.57500203885138
 30
0.0
 11
-93.8999986872077
 21
13.02500210516155
 31
0.0
  0
LINE
  5
26C
330
1F
100
AcDbEntity
  8
16
  6
Continuous
 62
     3
370
    25
100
AcDbLine
 10
-93.8999986872077
 20
13.57500211335719
 30
0.0
 11
-93.8999986872077
 21
18.02500217966735
 31
0.0
  0
LINE
  5
26D
330
1F
100
AcDbEntity
  8
16
  6
Continuous
 62
     3
370
    25
100
AcDbLine
 10
-93.8999986872077
 20
18.57500218786299
 30
0.0
 11
-93.8999986872077
 21
23.02500225417316
 31
0.0
  0
LINE
  5
26E
330
1F
100
AcDbEntity
  8
16
  6
Continuous
 62
     3
370
    25
100
AcDbLine
 10
-93.8999986872077
 20
23.5750022623688
 30
0.0
 11
-93.8999986872077
 21
27.05000231415033
 31
0.0
  0
LINE
  5
26F
330
1F
100
AcDbEntity
  8
16
  6
Continuous
 62
     3
370
    25
100
AcDbLine
 10
-93.8999986872077
 20
4.550001978874207
 30
0.0
 11
-93.59999868273735
 21
4.550001978874207
 31
0.0
  0
LINE
  5
270
330
1F
100
AcDbEntity
  8
16
  6
Continuous
 62
     3
370
    25
100
AcDbLine
 10
-93.59999868273735
 20
4.550001978874207
 30
0.0
 11
-93.59999868273735
 21
8.025002030655742
 31
0.0
  0
LINE
  5
271
330
1F
100
AcDbEntity
  8
16
  6
Continuous
 62
     3
370
    25
100
AcDbLine
 10
-93.59999868273735
 20
8.57500203885138
 30
0.0
 11
-93.59999868273735
 21
13.02500210516155
 31
0.0
  0
LINE
  5
272
330
1F
100
AcDbEntity
  8
16
  6
Continuous
 62
     3
370
    25
100
AcDbLine
 10
-93.59999868273735
 20
13.57500211335719
 30
0.0
 11
-93.59999868273735
 21
18.02500217966735
 31
0.0
  0
LINE
  5
273
330
1F
100
AcDbEntity
  8
16
  6
Continuous
 62
     3
370
    25
100
AcDbLine
 10
-93.59999868273735
 20
18.57500218786299
 30
0.0
 11
-93.59999868273735
 21
23.02500225417316
 31
0.0
  0
LINE
  5
274
330
1F
100
AcDbEntity
  8
16
  6
Continuous
 62
     3
370
    25
100
AcDbLine
 10
-93.59999868273735
 20
23.5750022623688
 30
0.0
 11
-93.59999868273735
 21
27.05000231415033
 31
0.0
  0
LINE
  5
275
330
1F
100
AcDbEntity
  8
16
  6
Continuous
 62
     3
370
    25
100
AcDbLine
 10
-93.8999986872077
 20
27.05000231415033
 30
0.0
 11
-93.59999868273735
 21
27.05000231415033
 31
0.0
  0
LINE
  5
276
330
1F
100
AcDbEntity
  8
16
  6
Continuous
 62
     3
370
    25
100
AcDbLine
 10
-90.89999864250422
 20
4.550001978874207
 30
0.0
 11
-90.89999864250422
 21
8.025002030655742
 31
0.0
  0
LINE
  5
277
330
1F
100
AcDbEntity
  8
16
  6
Continuous
 62
     3
370
    25
100
AcDbLine
 10
-90.89999864250422
 20
8.57500203885138
 30
0.0
 11
-90.89999864250422
 21
13.02500210516155
 31
0.0
  0
LINE
  5
278
330
1F
100
AcDbEntity
  8
16
  6
Continuous
 62
     3
370
    25
100
AcDbLine
 10
-90.89999864250422
 20
13.57500211335719
 30
0.0
 11
-90.89999864250422
 21
18.02500217966735
 31
0.0
  0
LINE
  5
279
330
1F
100
AcDbEntity
  8
16
  6
Continuous
 62
     3
370
    25
100
AcDbLine
 10
-90.89999864250422
 20
18.57500218786299
 30
0.0
 11
-90.89999864250422
 21
23.02500225417316
 31
0.0
  0
LINE
  5
27A
330
1F
100
AcDbEntity
  8
16
  6
Continuous
 62
     3
370
    25
100
AcDbLine
 10
-90.89999864250422
 20
23.5750022623688
 30
0.0
 11
-90.89999864250422
 21
27.05000231415033
 31
0.0
  0
LINE
  5
27B
330
1F
100
AcDbEntity
  8
16
  6
Continuous
 62
     3
370
    25
100
AcDbLine
 10
-90.89999864250422
 20
4.550001978874207
 30
0.0
 11
-90.59999863803387
 21
4.550001978874207
 31
0.0
  0
LINE
  5
27C
330
1F
100
AcDbEntity
  8
16
  6
Continuous
 62
     3
370
    25
100
AcDbLine
 10
-90.59999863803387
 20
4.550001978874207
 30
0.0
 11
-90.59999863803387
 21
8.025002030655742
 31
0.0
  0
LINE
  5
27D
330
1F
100
AcDbEntity
  8
16
  6
Continuous
 62
     3
370
    25
100
AcDbLine
 10
-90.59999863803387
 20
8.57500203885138
 30
0.0
 11
-90.59999863803387
 21
13.02500210516155
 31
0.0
  0
LINE
  5
27E
330
1F
100
AcDbEntity
  8
16
  6
Continuous
 62
     3
370
    25
100
AcDbLine
 10
-90.59999863803387
 20
13.57500211335719
 30
0.0
 11
-90.59999863803387
 21
18.02500217966735
 31
0.0
  0
LINE
  5
27F
330
1F
100
AcDbEntity
  8
16
  6
Continuous
 62
     3
370
    25
100
AcDbLine
 10
-90.59999863803387
 20
18.57500218786299
 30
0.0
 11
-90.59999863803387
 21
23.02500225417316
 31
0.0
  0
LINE
  5
280
330
1F
100
AcDbEntity
  8
16
  6
Continuous
 62
     3
370
    25
100
AcDbLine
 10
-90.59999863803387
 20
23.5750022623688
 30
0.0
 11
-90.59999863803387
 21
27.05000231415033
 31
0.0
  0
LINE
  5
281
330
1F
100
AcDbEntity
  8
16
  6
Continuous
 62
     3
370
    25
100
AcDbLine
 10
-90.89999864250422
 20
27.05000231415033
 30
0.0
 11
-90.59999863803387
 21
27.05000231415033
 31
0.0
  0
LINE
  5
282
330
1F
100
AcDbEntity
  8
16
  6
Continuous
 62
     3
370
    25
100
AcDbLine
 10
-87.89999859780073
 20
4.550001978874207
 30
0.0
 11
-87.89999859780073
 21
8.025002030655742
 31
0.0
  0
LINE
  5
283
330
1F
100
AcDbEntity
  8
16
  6
Continuous
 62
     3
370
    25
100
AcDbLine
 10
-87.89999859780073
 20
8.57500203885138
 30
0.0
 11
-87.89999859780073
 21
13.02500210516155
 31
0.0
  0
LINE
  5
284
330
1F
100
AcDbEntity
  8
16
  6
Continuous
 62
     3
370
    25
100
AcDbLine
 10
-87.89999859780073
 20
13.57500211335719
 30
0.0
 11
-87.89999859780073
 21
18.02500217966735
 31
0.0
  0
LINE
  5
285
330
1F
100
AcDbEntity
  8
16
  6
Continuous
 62
     3
370
    25
100
AcDbLine
 10
-87.89999859780073
 20
18.57500218786299
 30
0.0
 11
-87.89999859780073
 21
23.02500225417316
 31
0.0
  0
LINE
  5
286
330
1F
100
AcDbEntity
  8
16
  6
Continuous
 62
     3
370
    25
100
AcDbLine
 10
-87.89999859780073
 20
23.5750022623688
 30
0.0
 11
-87.89999859780073
 21
27.05000231415033
 31
0.0
  0
LINE
  5
287
330
1F
100
AcDbEntity
  8
16
  6
Continuous
 62
     3
370
    25
100
AcDbLine
 10
-87.89999859780073
 20
4.550001978874207
 30
0.0
 11
-87.59999859333038
 21
4.550001978874207
 31
0.0
  0
LINE
  5
288
330
1F
100
AcDbEntity
  8
16
  6
Continuous
 62
     3
370
    25
100
AcDbLine
 10
-87.59999859333038
 20
4.550001978874207
 30
0.0
 11
-87.59999859333038
 21
8.025002030655742
 31
0.0
  0
LINE
  5
289
330
1F
100
AcDbEntity
  8
16
  6
Continuous
 62
     3
370
    25
100
AcDbLine
 10
-87.59999859333038
 20
8.57500203885138
 30
0.0
 11
-87.59999859333038
 21
13.02500210516155
 31
0.0
  0
LINE
  5
28A
330
1F
100
AcDbEntity
  8
16
  6
Continuous
 62
     3
370
    25
100
AcDbLine
 10
-87.59999859333038
 20
13.57500211335719
 30
0.0
 11
-87.59999859333038
 21
18.02500217966735
 31
0.0
  0
LINE
  5
28B
330
1F
100
AcDbEntity
  8
16
  6
Continuous
 62
     3
370
    25
100
AcDbLine
 10
-87.59999859333038
 20
18.57500218786299
 30
0.0
 11
-87.59999859333038
 21
23.02500225417316
 31
0.0
  0
LINE
  5
28C
330
1F
100
AcDbEntity
  8
16
  6
Continuous
 62
     3
370
    25
100
AcDbLine
 10
-87.59999859333038
 20
23.5750022623688
 30
0.0
 11
-87.59999859333038
 21
27.05000231415033
 31
0.0
  0
LINE
  5
28D
330
1F
100
AcDbEntity
  8
16
  6
Continuous
 62
     3
370
    25
100
AcDbLine
 10
-87.89999859780073
 20
27.05000231415033
 30
0.0
 11
-87.59999859333038
 21
27.05000231415033
 31
0.0
  0
LINE
  5
28E
330
1F
100
AcDbEntity
  8
16
  6
Continuous
 62
     3
370
    25
100
AcDbLine
 10
-84.89999855309725
 20
4.550001978874207
 30
0.0
 11
-84.89999855309725
 21
8.025002030655742
 31
0.0
  0
LINE
  5
28F
330
1F
100
AcDbEntity
  8
16
  6
Continuous
 62
     3
370
    25
100
AcDbLine
 10
-84.89999855309725
 20
8.57500203885138
 30
0.0
 11
-84.89999855309725
 21
13.02500210516155
 31
0.0
  0
LINE
  5
290
330
1F
100
AcDbEntity
  8
16
  6
Continuous
 62
     3
370
    25
100
AcDbLine
 10
-84.89999855309725
 20
13.57500211335719
 30
0.0
 11
-84.89999855309725
 21
18.02500217966735
 31
0.0
  0
LINE
  5
291
330
1F
100
AcDbEntity
  8
16
  6
Continuous
 62
     3
370
    25
100
AcDbLine
 10
-84.89999855309725
 20
18.57500218786299
 30
0.0
 11
-84.89999855309725
 21
23.02500225417316
 31
0.0
  0
LINE
  5
292
330
1F
100
AcDbEntity
  8
16
  6
Continuous
 62
     3
370
    25
100
AcDbLine
 10
-84.89999855309725
 20
23.5750022623688
 30
0.0
 11
-84.89999855309725
 21
27.05000231415033
 31
0.0
  0
LINE
  5
293
330
1F
100
AcDbEntity
  8
16
  6
Continuous
 62
     3
370
    25
100
AcDbLine
 10
-84.89999855309725
 20
4.550001978874207
 30
0.0
 11
-84.5999985486269
 21
4.550001978874207
 31
0.0
  0
LINE
  5
294
330
1F
100
AcDbEntity
  8
16
  6
Continuous
 62
     3
370
    25
100
AcDbLine
 10
-84.5999985486269
 20
4.550001978874207
 30
0.0
 11
-84.5999985486269
 21
8.025002030655742
 31
0.0
  0
LINE
  5
295
330
1F
100
AcDbEntity
  8
16
  6
Continuous
 62
     3
370
    25
100
AcDbLine
 10
-84.5999985486269
 20
8.57500203885138
 30
0.0
 11
-84.5999985486269
 21
13.02500210516155
 31
0.0
  0
LINE
  5
296
330
1F
100
AcDbEntity
  8
16
  6
Continuous
 62
     3
370
    25
100
AcDbLine
 10
-84.5999985486269
 20
13.57500211335719
 30
0.0
 11
-84.5999985486269
 21
18.02500217966735
 31
0.0
  0
LINE
  5
297
330
1F
100
AcDbEntity
  8
16
  6
Continuous
 62
     3
370
    25
100
AcDbLine
 10
-84.5999985486269
 20
18.57500218786299
 30
0.0
 11
-84.5999985486269
 21
23.02500225417316
 31
0.0
  0
LINE
  5
298
330
1F
100
AcDbEntity
  8
16
  6
Continuous
 62
     3
370
    25
100
AcDbLine
 10
-84.5999985486269
 20
23.5750022623688
 30
0.0
 11
-84.5999985486269
 21
27.05000231415033
 31
0.0
  0
LINE
  5
299
330
1F
100
AcDbEntity
  8
16
  6
Continuous
 62
     3
370
    25
100
AcDbLine
 10
-84.89999855309725
 20
27.05000231415033
 30
0.0
 11
-84.5999985486269
 21
27.05000231415033
 31
0.0
  0
LINE
  5
29A
330
1F
100
AcDbEntity
  8
16
  6
Continuous
 62
     3
370
    25
100
AcDbLine
 10
-81.89999850839376
 20
4.550001978874207
 30
0.0
 11
-81.89999850839376
 21
8.025002030655742
 31
0.0
  0
LINE
  5
29B
330
1F
100
AcDbEntity
  8
16
  6
Continuous
 62
     3
370
    25
100
AcDbLine
 10
-81.89999850839376
 20
8.57500203885138
 30
0.0
 11
-81.89999850839376
 21
13.02500210516155
 31
0.0
  0
LINE
  5
29C
330
1F
100
AcDbEntity
  8
16
  6
Continuous
 62
     3
370
    25
100
AcDbLine
 10
-81.89999850839376
 20
13.57500211335719
 30
0.0
 11
-81.89999850839376
 21
18.02500217966735
 31
0.0
  0
LINE
  5
29D
330
1F
100
AcDbEntity
  8
16
  6
Continuous
 62
     3
370
    25
100
AcDbLine
 10
-81.89999850839376
 20
18.57500218786299
 30
0.0
 11
-81.89999850839376
 21
23.02500225417316
 31
0.0
  0
LINE
  5
29E
330
1F
100
AcDbEntity
  8
16
  6
Continuous
 62
     3
370
    25
100
AcDbLine
 10
-81.89999850839376
 20
23.5750022623688
 30
0.0
 11
-81.89999850839376
 21
27.05000231415033
 31
0.0
  0
LINE
  5
29F
330
1F
100
AcDbEntity
  8
16
  6
Continuous
 62
     3
370
    25
100
AcDbLine
 10
-81.89999850839376
 20
4.550001978874207
 30
0.0
 11
-81.59999850392342
 21
4.550001978874207
 31
0.0
  0
LINE
  5
2A0
330
1F
100
AcDbEntity
  8
16
  6
Continuous
 62
     3
370
    25
100
AcDbLine
 10
-81.59999850392342
 20
4.550001978874207
 30
0.0
 11
-81.59999850392342
 21
8.025002030655742
 31
0.0
  0
LINE
  5
2A1
330
1F
100
AcDbEntity
  8
16
  6
Continuous
 62
     3
370
    25
100
AcDbLine
 10
-81.59999850392342
 20
8.57500203885138
 30
0.0
 11
-81.59999850392342
 21
13.02500210516155
 31
0.0
  0
LINE
  5
2A2
330
1F
100
AcDbEntity
  8
16
  6
Continuous
 62
     3
370
    25
100
AcDbLine
 10
-81.59999850392342
 20
13.57500211335719
 30
0.0
 11
-81.59999850392342
 21
18.02500217966735
 31
0.0
  0
LINE
  5
2A3
330
1F
100
AcDbEntity
  8
16
  6
Continuous
 62
     3
370
    25
100
AcDbLine
 10
-81.59999850392342
 20
18.57500218786299
 30
0.0
 11
-81.59999850392342
 21
23.02500225417316
 31
0.0
  0
LINE
  5
2A4
330
1F
100
AcDbEntity
  8
16
  6
Continuous
 62
     3
370
    25
100
AcDbLine
 10
-81.59999850392342
 20
23.5750022623688
 30
0.0
 11
-81.59999850392342
 21
27.05000231415033
 31
0.0
  0
LINE
  5
2A5
330
1F
100
AcDbEntity
  8
16
  6
Continuous
 62
     3
370
    25
100
AcDbLine
 10
-81.89999850839376
 20
27.05000231415033
 30
0.0
 11
-81.59999850392342
 21
27.05000231415033
 31
0.0
  0
LINE
  5
2A6
330
1F
100
AcDbEntity
  8
16
  6
Continuous
 62
     3
370
    25
100
AcDbLine
 10
-78.89999846369028
 20
4.550001978874207
 30
0.0
 11
-78.89999846369028
 21
8.025002030655742
 31
0.0
  0
LINE
  5
2A7
330
1F
100
AcDbEntity
  8
16
  6
Continuous
 62
     3
370
    25
100
AcDbLine
 10
-78.89999846369028
 20
8.57500203885138
 30
0.0
 11
-78.89999846369028
 21
13.02500210516155
 31
0.0
  0
LINE
  5
2A8
330
1F
100
AcDbEntity
  8
16
  6
Continuous
 62
     3
370
    25
100
AcDbLine
 10
-78.89999846369028
 20
13.57500211335719
 30
0.0
 11
-78.89999846369028
 21
18.02500217966735
 31
0.0
  0
LINE
  5
2A9
330
1F
100
AcDbEntity
  8
16
  6
Continuous
 62
     3
370
    25
100
AcDbLine
 10
-78.89999846369028
 20
18.57500218786299
 30
0.0
 11
-78.89999846369028
 21
23.02500225417316
 31
0.0
  0
LINE
  5
2AA
330
1F
100
AcDbEntity
  8
16
  6
Continuous
 62
     3
370
    25
100
AcDbLine
 10
-78.89999846369028
 20
23.5750022623688
 30
0.0
 11
-78.89999846369028
 21
27.05000231415033
 31
0.0
  0
LINE
  5
2AB
330
1F
100
AcDbEntity
  8
16
  6
Continuous
 62
     3
370
    25
100
AcDbLine
 10
-78.89999846369028
 20
4.550001978874207
 30
0.0
 11
-78.59999845921993
 21
4.550001978874207
 31
0.0
  0
LINE
  5
2AC
330
1F
100
AcDbEntity
  8
16
  6
Continuous
 62
     3
370
    25
100
AcDbLine
 10
-78.59999845921993
 20
4.550001978874207
 30
0.0
 11
-78.59999845921993
 21
8.025002030655742
 31
0.0
  0
LINE
  5
2AD
330
1F
100
AcDbEntity
  8
16
  6
Continuous
 62
     3
370
    25
100
AcDbLine
 10
-78.59999845921993
 20
8.57500203885138
 30
0.0
 11
-78.59999845921993
 21
13.02500210516155
 31
0.0
  0
LINE
  5
2AE
330
1F
100
AcDbEntity
  8
16
  6
Continuous
 62
     3
370
    25
100
AcDbLine
 10
-78.59999845921993
 20
13.57500211335719
 30
0.0
 11
-78.59999845921993
 21
18.02500217966735
 31
0.0
  0
LINE
  5
2AF
330
1F
100
AcDbEntity
  8
16
  6
Continuous
 62
     3
370
    25
100
AcDbLine
 10
-78.59999845921993
 20
18.57500218786299
 30
0.0
 11
-78.59999845921993
 21
23.02500225417316
 31
0.0
  0
LINE
  5
2B0
330
1F
100
AcDbEntity
  8
16
  6
Continuous
 62
     3
370
    25
100
AcDbLine
 10
-78.59999845921993
 20
23.5750022623688
 30
0.0
 11
-78.59999845921993
 21
27.05000231415033
 31
0.0
  0
LINE
  5
2B1
330
1F
100
AcDbEntity
  8
16
  6
Continuous
 62
     3
370
    25
100
AcDbLine
 10
-78.89999846369028
 20
27.05000231415033
 30
0.0
 11
-78.59999845921993
 21
27.05000231415033
 31
0.0
  0
LINE
  5
2B2
330
1F
100
AcDbEntity
  8
16
  6
Continuous
 62
     3
370
    25
100
AcDbLine
 10
-75.8999984189868
 20
4.550001978874207
 30
0.0
 11
-75.8999984189868
 21
8.025002030655742
 31
0.0
  0
LINE
  5
2B3
330
1F
100
AcDbEntity
  8
16
  6
Continuous
 62
     3
370
    25
100
AcDbLine
 10
-75.8999984189868
 20
8.57500203885138
 30
0.0
 11
-75.8999984189868
 21
13.02500210516155
 31
0.0
  0
LINE
  5
2B4
330
1F
100
AcDbEntity
  8
16
  6
Continuous
 62
     3
370
    25
100
AcDbLine
 10
-75.8999984189868
 20
13.57500211335719
 30
0.0
 11
-75.8999984189868
 21
18.02500217966735
 31
0.0
  0
LINE
  5
2B5
330
1F
100
AcDbEntity
  8
16
  6
Continuous
 62
     3
370
    25
100
AcDbLine
 10
-75.8999984189868
 20
18.57500218786299
 30
0.0
 11
-75.8999984189868
 21
23.02500225417316
 31
0.0
  0
LINE
  5
2B6
330
1F
100
AcDbEntity
  8
16
  6
Continuous
 62
     3
370
    25
100
AcDbLine
 10
-75.8999984189868
 20
23.5750022623688
 30
0.0
 11
-75.8999984189868
 21
27.05000231415033
 31
0.0
  0
LINE
  5
2B7
330
1F
100
AcDbEntity
  8
16
  6
Continuous
 62
     3
370
    25
100
AcDbLine
 10
-75.8999984189868
 20
4.550001978874207
 30
0.0
 11
-75.59999841451645
 21
4.550001978874207
 31
0.0
  0
LINE
  5
2B8
330
1F
100
AcDbEntity
  8
16
  6
Continuous
 62
     3
370
    25
100
AcDbLine
 10
-75.59999841451645
 20
4.550001978874207
 30
0.0
 11
-75.59999841451645
 21
8.025002030655742
 31
0.0
  0
LINE
  5
2B9
330
1F
100
AcDbEntity
  8
16
  6
Continuous
 62
     3
370
    25
100
AcDbLine
 10
-75.59999841451645
 20
8.57500203885138
 30
0.0
 11
-75.59999841451645
 21
13.02500210516155
 31
0.0
  0
LINE
  5
2BA
330
1F
100
AcDbEntity
  8
16
  6
Continuous
 62
     3
370
    25
100
AcDbLine
 10
-75.59999841451645
 20
13.57500211335719
 30
0.0
 11
-75.59999841451645
 21
18.02500217966735
 31
0.0
  0
LINE
  5
2BB
330
1F
100
AcDbEntity
  8
16
  6
Continuous
 62
     3
370
    25
100
AcDbLine
 10
-75.59999841451645
 20
18.57500218786299
 30
0.0
 11
-75.59999841451645
 21
23.02500225417316
 31
0.0
  0
LINE
  5
2BC
330
1F
100
AcDbEntity
  8
16
  6
Continuous
 62
     3
370
    25
100
AcDbLine
 10
-75.59999841451645
 20
23.5750022623688
 30
0.0
 11
-75.59999841451645
 21
27.05000231415033
 31
0.0
  0
LINE
  5
2BD
330
1F
100
AcDbEntity
  8
16
  6
Continuous
 62
     3
370
    25
100
AcDbLine
 10
-75.8999984189868
 20
27.05000231415033
 30
0.0
 11
-75.59999841451645
 21
27.05000231415033
 31
0.0
  0
LINE
  5
2BE
330
1F
100
AcDbEntity
  8
16
  6
Continuous
 62
     3
370
    25
100
AcDbLine
 10
-72.89999837428331
 20
4.550001978874207
 30
0.0
 11
-72.89999837428331
 21
8.025002030655742
 31
0.0
  0
LINE
  5
2BF
330
1F
100
AcDbEntity
  8
16
  6
Continuous
 62
     3
370
    25
100
AcDbLine
 10
-72.89999837428331
 20
8.57500203885138
 30
0.0
 11
-72.89999837428331
 21
13.02500210516155
 31
0.0
  0
LINE
  5
2C0
330
1F
100
AcDbEntity
  8
16
  6
Continuous
 62
     3
370
    25
100
AcDbLine
 10
-72.89999837428331
 20
13.57500211335719
 30
0.0
 11
-72.89999837428331
 21
18.02500217966735
 31
0.0
  0
LINE
  5
2C1
330
1F
100
AcDbEntity
  8
16
  6
Continuous
 62
     3
370
    25
100
AcDbLine
 10
-72.89999837428331
 20
18.57500218786299
 30
0.0
 11
-72.89999837428331
 21
23.02500225417316
 31
0.0
  0
LINE
  5
2C2
330
1F
100
AcDbEntity
  8
16
  6
Continuous
 62
     3
370
    25
100
AcDbLine
 10
-72.89999837428331
 20
23.5750022623688
 30
0.0
 11
-72.89999837428331
 21
27.05000231415033
 31
0.0
  0
LINE
  5
2C3
330
1F
100
AcDbEntity
  8
16
  6
Continuous
 62
     3
370
    25
100
AcDbLine
 10
-72.89999837428331
 20
4.550001978874207
 30
0.0
 11
-72.59999836981297
 21
4.550001978874207
 31
0.0
  0
LINE
  5
2C4
330
1F
100
AcDbEntity
  8
16
  6
Continuous
 62
     3
370
    25
100
AcDbLine
 10
-72.59999836981297
 20
4.550001978874207
 30
0.0
 11
-72.59999836981297
 21
8.025002030655742
 31
0.0
  0
LINE
  5
2C5
330
1F
100
AcDbEntity
  8
16
  6
Continuous
 62
     3
370
    25
100
AcDbLine
 10
-72.59999836981297
 20
8.57500203885138
 30
0.0
 11
-72.59999836981297
 21
13.02500210516155
 31
0.0
  0
LINE
  5
2C6
330
1F
100
AcDbEntity
  8
16
  6
Continuous
 62
     3
370
    25
100
AcDbLine
 10
-72.59999836981297
 20
13.57500211335719
 30
0.0
 11
-72.59999836981297
 21
18.02500217966735
 31
0.0
  0
LINE
  5
2C7
330
1F
100
AcDbEntity
  8
16
  6
Continuous
 62
     3
370
    25
100
AcDbLine
 10
-72.59999836981297
 20
18.57500218786299
 30
0.0
 11
-72.59999836981297
 21
23.02500225417316
 31
0.0
  0
LINE
  5
2C8
330
1F
100
AcDbEntity
  8
16
  6
Continuous
 62
     3
370
    25
100
AcDbLine
 10
-72.59999836981297
 20
23.5750022623688
 30
0.0
 11
-72.59999836981297
 21
27.05000231415033
 31
0.0
  0
LINE
  5
2C9
330
1F
100
AcDbEntity
  8
16
  6
Continuous
 62
     3
370
    25
100
AcDbLine
 10
-72.89999837428331
 20
27.05000231415033
 30
0.0
 11
-72.59999836981297
 21
27.05000231415033
 31
0.0
  0
LINE
  5
2CA
330
1F
100
AcDbEntity
  8
16
  6
Continuous
 62
     3
370
    25
100
AcDbLine
 10
-69.89999832957983
 20
4.550001978874207
 30
0.0
 11
-69.89999832957983
 21
8.025002030655742
 31
0.0
  0
LINE
  5
2CB
330
1F
100
AcDbEntity
  8
16
  6
Continuous
 62
     3
370
    25
100
AcDbLine
 10
-69.89999832957983
 20
8.57500203885138
 30
0.0
 11
-69.89999832957983
 21
13.02500210516155
 31
0.0
  0
LINE
  5
2CC
330
1F
100
AcDbEntity
  8
16
  6
Continuous
 62
     3
370
    25
100
AcDbLine
 10
-69.89999832957983
 20
13.57500211335719
 30
0.0
 11
-69.89999832957983
 21
18.02500217966735
 31
0.0
  0
LINE
  5
2CD
330
1F
100
AcDbEntity
  8
16
  6
Continuous
 62
     3
370
    25
100
AcDbLine
 10
-69.89999832957983
 20
18.57500218786299
 30
0.0
 11
-69.89999832957983
 21
23.02500225417316
 31
0.0
  0
LINE
  5
2CE
330
1F
100
AcDbEntity
  8
16
  6
Continuous
 62
     3
370
    25
100
AcDbLine
 10
-69.89999832957983
 20
23.5750022623688
 30
0.0
 11
-69.89999832957983
 21
27.05000231415033
 31
0.0
  0
LINE
  5
2CF
330
1F
100
AcDbEntity
  8
16
  6
Continuous
 62
     3
370
    25
100
AcDbLine
 10
-69.89999832957983
 20
4.550001978874207
 30
0.0
 11
-69.59999832510948
 21
4.550001978874207
 31
0.0
  0
LINE
  5
2D0
330
1F
100
AcDbEntity
  8
16
  6
Continuous
 62
     3
370
    25
100
AcDbLine
 10
-69.59999832510948
 20
4.550001978874207
 30
0.0
 11
-69.59999832510948
 21
8.025002030655742
 31
0.0
  0
LINE
  5
2D1
330
1F
100
AcDbEntity
  8
16
  6
Continuous
 62
     3
370
    25
100
AcDbLine
 10
-69.59999832510948
 20
8.57500203885138
 30
0.0
 11
-69.59999832510948
 21
13.02500210516155
 31
0.0
  0
LINE
  5
2D2
330
1F
100
AcDbEntity
  8
16
  6
Continuous
 62
     3
370
    25
100
AcDbLine
 10
-69.59999832510948
 20
13.57500211335719
 30
0.0
 11
-69.59999832510948
 21
18.02500217966735
 31
0.0
  0
LINE
  5
2D3
330
1F
100
AcDbEntity
  8
16
  6
Continuous
 62
     3
370
    25
100
AcDbLine
 10
-69.59999832510948
 20
18.57500218786299
 30
0.0
 11
-69.59999832510948
 21
23.02500225417316
 31
0.0
  0
LINE
  5
2D4
330
1F
100
AcDbEntity
  8
16
  6
Continuous
 62
     3
370
    25
100
AcDbLine
 10
-69.59999832510948
 20
23.5750022623688
 30
0.0
 11
-69.59999832510948
 21
27.05000231415033
 31
0.0
  0
LINE
  5
2D5
330
1F
100
AcDbEntity
  8
16
  6
Continuous
 62
     3
370
    25
100
AcDbLine
 10
-69.89999832957983
 20
27.05000231415033
 30
0.0
 11
-69.59999832510948
 21
27.05000231415033
 31
0.0
  0
LINE
  5
2D6
330
1F
100
AcDbEntity
  8
16
  6
Continuous
 62
     3
370
    25
100
AcDbLine
 10
-66.89999828487635
 20
4.550001978874207
 30
0.0
 11
-66.89999828487635
 21
8.025002030655742
 31
0.0
  0
LINE
  5
2D7
330
1F
100
AcDbEntity
  8
16
  6
Continuous
 62
     3
370
    25
100
AcDbLine
 10
-66.89999828487635
 20
8.57500203885138
 30
0.0
 11
-66.89999828487635
 21
13.02500210516155
 31
0.0
  0
LINE
  5
2D8
330
1F
100
AcDbEntity
  8
16
  6
Continuous
 62
     3
370
    25
100
AcDbLine
 10
-66.89999828487635
 20
13.57500211335719
 30
0.0
 11
-66.89999828487635
 21
18.02500217966735
 31
0.0
  0
LINE
  5
2D9
330
1F
100
AcDbEntity
  8
16
  6
Continuous
 62
     3
370
    25
100
AcDbLine
 10
-66.89999828487635
 20
18.57500218786299
 30
0.0
 11
-66.89999828487635
 21
23.02500225417316
 31
0.0
  0
LINE
  5
2DA
330
1F
100
AcDbEntity
  8
16
  6
Continuous
 62
     3
370
    25
100
AcDbLine
 10
-66.89999828487635
 20
23.5750022623688
 30
0.0
 11
-66.89999828487635
 21
27.05000231415033
 31
0.0
  0
LINE
  5
2DB
330
1F
100
AcDbEntity
  8
16
  6
Continuous
 62
     3
370
    25
100
AcDbLine
 10
-66.89999828487635
 20
4.550001978874207
 30
0.0
 11
-66.599998280406
 21
4.550001978874207
 31
0.0
  0
LINE
  5
2DC
330
1F
100
AcDbEntity
  8
16
  6
Continuous
 62
     3
370
    25
100
AcDbLine
 10
-66.599998280406
 20
4.550001978874207
 30
0.0
 11
-66.599998280406
 21
8.025002030655742
 31
0.0
  0
LINE
  5
2DD
330
1F
100
AcDbEntity
  8
16
  6
Continuous
 62
     3
370
    25
100
AcDbLine
 10
-66.599998280406
 20
8.57500203885138
 30
0.0
 11
-66.599998280406
 21
13.02500210516155
 31
0.0
  0
LINE
  5
2DE
330
1F
100
AcDbEntity
  8
16
  6
Continuous
 62
     3
370
    25
100
AcDbLine
 10
-66.599998280406
 20
13.57500211335719
 30
0.0
 11
-66.599998280406
 21
18.02500217966735
 31
0.0
  0
LINE
  5
2DF
330
1F
100
AcDbEntity
  8
16
  6
Continuous
 62
     3
370
    25
100
AcDbLine
 10
-66.599998280406
 20
18.57500218786299
 30
0.0
 11
-66.599998280406
 21
23.02500225417316
 31
0.0
  0
LINE
  5
2E0
330
1F
100
AcDbEntity
  8
16
  6
Continuous
 62
     3
370
    25
100
AcDbLine
 10
-66.599998280406
 20
23.5750022623688
 30
0.0
 11
-66.599998280406
 21
27.05000231415033
 31
0.0
  0
LINE
  5
2E1
330
1F
100
AcDbEntity
  8
16
  6
Continuous
 62
     3
370
    25
100
AcDbLine
 10
-66.89999828487635
 20
27.05000231415033
 30
0.0
 11
-66.599998280406
 21
27.05000231415033
 31
0.0
  0
LINE
  5
2E2
330
1F
100
AcDbEntity
  8
16
  6
Continuous
 62
     3
370
    25
100
AcDbLine
 10
-63.89999824017286
 20
4.550001978874207
 30
0.0
 11
-63.89999824017286
 21
8.025002030655742
 31
0.0
  0
LINE
  5
2E3
330
1F
100
AcDbEntity
  8
16
  6
Continuous
 62
     3
370
    25
100
AcDbLine
 10
-63.89999824017286
 20
8.57500203885138
 30
0.0
 11
-63.89999824017286
 21
13.02500210516155
 31
0.0
  0
LINE
  5
2E4
330
1F
100
AcDbEntity
  8
16
  6
Continuous
 62
     3
370
    25
100
AcDbLine
 10
-63.89999824017286
 20
13.57500211335719
 30
0.0
 11
-63.89999824017286
 21
18.02500217966735
 31
0.0
  0
LINE
  5
2E5
330
1F
100
AcDbEntity
  8
16
  6
Continuous
 62
     3
370
    25
100
AcDbLine
 10
-63.89999824017286
 20
18.57500218786299
 30
0.0
 11
-63.89999824017286
 21
23.02500225417316
 31
0.0
  0
LINE
  5
2E6
330
1F
100
AcDbEntity
  8
16
  6
Continuous
 62
     3
370
    25
100
AcDbLine
 10
-63.89999824017286
 20
23.5750022623688
 30
0.0
 11
-63.89999824017286
 21
27.05000231415033
 31
0.0
  0
LINE
  5
2E7
330
1F
100
AcDbEntity
  8
16
  6
Continuous
 62
     3
370
    25
100
AcDbLine
 10
-63.89999824017286
 20
4.550001978874207
 30
0.0
 11
-63.59999823570251
 21
4.550001978874207
 31
0.0
  0
LINE
  5
2E8
330
1F
100
AcDbEntity
  8
16
  6
Continuous
 62
     3
370
    25
100
AcDbLine
 10
-63.59999823570251
 20
4.550001978874207
 30
0.0
 11
-63.59999823570251
 21
8.025002030655742
 31
0.0
  0
LINE
  5
2E9
330
1F
100
AcDbEntity
  8
16
  6
Continuous
 62
     3
370
    25
100
AcDbLine
 10
-63.59999823570251
 20
8.57500203885138
 30
0.0
 11
-63.59999823570251
 21
13.02500210516155
 31
0.0
  0
LINE
  5
2EA
330
1F
100
AcDbEntity
  8
16
  6
Continuous
 62
     3
370
    25
100
AcDbLine
 10
-63.59999823570251
 20
13.57500211335719
 30
0.0
 11
-63.59999823570251
 21
18.02500217966735
 31
0.0
  0
LINE
  5
2EB
330
1F
100
AcDbEntity
  8
16
  6
Continuous
 62
     3
370
    25
100
AcDbLine
 10
-63.59999823570251
 20
18.57500218786299
 30
0.0
 11
-63.59999823570251
 21
23.02500225417316
 31
0.0
  0
LINE
  5
2EC
330
1F
100
AcDbEntity
  8
16
  6
Continuous
 62
     3
370
    25
100
AcDbLine
 10
-63.59999823570251
 20
23.5750022623688
 30
0.0
 11
-63.59999823570251
 21
27.05000231415033
 31
0.0
  0
LINE
  5
2ED
330
1F
100
AcDbEntity
  8
16
  6
Continuous
 62
     3
370
    25
100
AcDbLine
 10
-63.89999824017286
 20
27.05000231415033
 30
0.0
 11
-63.59999823570251
 21
27.05000231415033
 31
0.0
  0
LINE
  5
2EE
330
1F
100
AcDbEntity
  8
16
  6
Continuous
 62
     3
370
    25
100
AcDbLine
 10
-60.89999819546938
 20
4.550001978874207
 30
0.0
 11
-60.89999819546938
 21
8.025002030655742
 31
0.0
  0
LINE
  5
2EF
330
1F
100
AcDbEntity
  8
16
  6
Continuous
 62
     3
370
    25
100
AcDbLine
 10
-60.89999819546938
 20
8.57500203885138
 30
0.0
 11
-60.89999819546938
 21
13.02500210516155
 31
0.0
  0
LINE
  5
2F0
330
1F
100
AcDbEntity
  8
16
  6
Continuous
 62
     3
370
    25
100
AcDbLine
 10
-60.89999819546938
 20
13.57500211335719
 30
0.0
 11
-60.89999819546938
 21
18.02500217966735
 31
0.0
  0
LINE
  5
2F1
330
1F
100
AcDbEntity
  8
16
  6
Continuous
 62
     3
370
    25
100
AcDbLine
 10
-60.89999819546938
 20
18.57500218786299
 30
0.0
 11
-60.89999819546938
 21
23.02500225417316
 31
0.0
  0
LINE
  5
2F2
330
1F
100
AcDbEntity
  8
16
  6
Continuous
 62
     3
370
    25
100
AcDbLine
 10
-60.89999819546938
 20
23.5750022623688
 30
0.0
 11
-60.89999819546938
 21
27.05000231415033
 31
0.0
  0
LINE
  5
2F3
330
1F
100
AcDbEntity
  8
16
  6
Continuous
 62
     3
370
    25
100
AcDbLine
 10
-60.89999819546938
 20
4.550001978874207
 30
0.0
 11
-60.59999819099903
 21
4.550001978874207
 31
0.0
  0
LINE
  5
2F4
330
1F
100
AcDbEntity
  8
16
  6
Continuous
 62
     3
370
    25
100
AcDbLine
 10
-60.59999819099903
 20
4.550001978874207
 30
0.0
 11
-60.59999819099903
 21
8.025002030655742
 31
0.0
  0
LINE
  5
2F5
330
1F
100
AcDbEntity
  8
16
  6
Continuous
 62
     3
370
    25
100
AcDbLine
 10
-60.59999819099903
 20
8.57500203885138
 30
0.0
 11
-60.59999819099903
 21
13.02500210516155
 31
0.0
  0
LINE
  5
2F6
330
1F
100
AcDbEntity
  8
16
  6
Continuous
 62
     3
370
    25
100
AcDbLine
 10
-60.59999819099903
 20
13.57500211335719
 30
0.0
 11
-60.59999819099903
 21
18.02500217966735
 31
0.0
  0
LINE
  5
2F7
330
1F
100
AcDbEntity
  8
16
  6
Continuous
 62
     3
370
    25
100
AcDbLine
 10
-60.59999819099903
 20
18.57500218786299
 30
0.0
 11
-60.59999819099903
 21
23.02500225417316
 31
0.0
  0
LINE
  5
2F8
330
1F
100
AcDbEntity
  8
16
  6
Continuous
 62
     3
370
    25
100
AcDbLine
 10
-60.59999819099903
 20
23.5750022623688
 30
0.0
 11
-60.59999819099903
 21
27.05000231415033
 31
0.0
  0
LINE
  5
2F9
330
1F
100
AcDbEntity
  8
16
  6
Continuous
 62
     3
370
    25
100
AcDbLine
 10
-60.89999819546938
 20
27.05000231415033
 30
0.0
 11
-60.59999819099903
 21
27.05000231415033
 31
0.0
  0
LINE
  5
2FA
330
1F
100
AcDbEntity
  8
16
  6
Continuous
 62
     3
370
    25
100
AcDbLine
 10
-57.8999981507659
 20
4.550001978874207
 30
0.0
 11
-57.8999981507659
 21
8.025002030655742
 31
0.0
  0
LINE
  5
2FB
330
1F
100
AcDbEntity
  8
16
  6
Continuous
 62
     3
370
    25
100
AcDbLine
 10
-57.8999981507659
 20
8.57500203885138
 30
0.0
 11
-57.8999981507659
 21
13.02500210516155
 31
0.0
  0
LINE
  5
2FC
330
1F
100
AcDbEntity
  8
16
  6
Continuous
 62
     3
370
    25
100
AcDbLine
 10
-57.8999981507659
 20
13.57500211335719
 30
0.0
 11
-57.8999981507659
 21
18.02500217966735
 31
0.0
  0
LINE
  5
2FD
330
1F
100
AcDbEntity
  8
16
  6
Continuous
 62
     3
370
    25
100
AcDbLine
 10
-57.8999981507659
 20
18.57500218786299
 30
0.0
 11
-57.8999981507659
 21
23.02500225417316
 31
0.0
  0
LINE
  5
2FE
330
1F
100
AcDbEntity
  8
16
  6
Continuous
 62
     3
370
    25
100
AcDbLine
 10
-57.8999981507659
 20
23.5750022623688
 30
0.0
 11
-57.8999981507659
 21
27.05000231415033
 31
0.0
  0
LINE
  5
2FF
330
1F
100
AcDbEntity
  8
16
  6
Continuous
 62
     3
370
    25
100
AcDbLine
 10
-57.8999981507659
 20
4.550001978874207
 30
0.0
 11
-57.59999814629555
 21
4.550001978874207
 31
0.0
  0
LINE
  5
300
330
1F
100
AcDbEntity
  8
16
  6
Continuous
 62
     3
370
    25
100
AcDbLine
 10
-57.59999814629555
 20
4.550001978874207
 30
0.0
 11
-57.59999814629555
 21
8.025002030655742
 31
0.0
  0
LINE
  5
301
330
1F
100
AcDbEntity
  8
16
  6
Continuous
 62
     3
370
    25
100
AcDbLine
 10
-57.59999814629555
 20
8.57500203885138
 30
0.0
 11
-57.59999814629555
 21
13.02500210516155
 31
0.0
  0
LINE
  5
302
330
1F
100
AcDbEntity
  8
16
  6
Continuous
 62
     3
370
    25
100
AcDbLine
 10
-57.59999814629555
 20
13.57500211335719
 30
0.0
 11
-57.59999814629555
 21
18.02500217966735
 31
0.0
  0
LINE
  5
303
330
1F
100
AcDbEntity
  8
16
  6
Continuous
 62
     3
370
    25
100
AcDbLine
 10
-57.59999814629555
 20
18.57500218786299
 30
0.0
 11
-57.59999814629555
 21
23.02500225417316
 31
0.0
  0
LINE
  5
304
330
1F
100
AcDbEntity
  8
16
  6
Continuous
 62
     3
370
    25
100
AcDbLine
 10
-57.59999814629555
 20
23.5750022623688
 30
0.0
 11
-57.59999814629555
 21
27.05000231415033
 31
0.0
  0
LINE
  5
305
330
1F
100
AcDbEntity
  8
16
  6
Continuous
 62
     3
370
    25
100
AcDbLine
 10
-57.8999981507659
 20
27.05000231415033
 30
0.0
 11
-57.59999814629555
 21
27.05000231415033
 31
0.0
  0
LINE
  5
306
330
1F
100
AcDbEntity
  8
16
  6
Continuous
 62
     3
370
    25
100
AcDbLine
 10
-54.89999810606241
 20
4.550001978874207
 30
0.0
 11
-54.89999810606241
 21
8.025002030655742
 31
0.0
  0
LINE
  5
307
330
1F
100
AcDbEntity
  8
16
  6
Continuous
 62
     3
370
    25
100
AcDbLine
 10
-54.89999810606241
 20
8.57500203885138
 30
0.0
 11
-54.89999810606241
 21
13.02500210516155
 31
0.0
  0
LINE
  5
308
330
1F
100
AcDbEntity
  8
16
  6
Continuous
 62
     3
370
    25
100
AcDbLine
 10
-54.89999810606241
 20
13.57500211335719
 30
0.0
 11
-54.89999810606241
 21
18.02500217966735
 31
0.0
  0
LINE
  5
309
330
1F
100
AcDbEntity
  8
16
  6
Continuous
 62
     3
370
    25
100
AcDbLine
 10
-54.89999810606241
 20
18.57500218786299
 30
0.0
 11
-54.89999810606241
 21
23.02500225417316
 31
0.0
  0
LINE
  5
30A
330
1F
100
AcDbEntity
  8
16
  6
Continuous
 62
     3
370
    25
100
AcDbLine
 10
-54.89999810606241
 20
23.5750022623688
 30
0.0
 11
-54.89999810606241
 21
27.05000231415033
 31
0.0
  0
LINE
  5
30B
330
1F
100
AcDbEntity
  8
16
  6
Continuous
 62
     3
370
    25
100
AcDbLine
 10
-54.89999810606241
 20
4.550001978874207
 30
0.0
 11
-54.59999810159206
 21
4.550001978874207
 31
0.0
  0
LINE
  5
30C
330
1F
100
AcDbEntity
  8
16
  6
Continuous
 62
     3
370
    25
100
AcDbLine
 10
-54.59999810159206
 20
4.550001978874207
 30
0.0
 11
-54.59999810159206
 21
8.025002030655742
 31
0.0
  0
LINE
  5
30D
330
1F
100
AcDbEntity
  8
16
  6
Continuous
 62
     3
370
    25
100
AcDbLine
 10
-54.59999810159206
 20
8.57500203885138
 30
0.0
 11
-54.59999810159206
 21
13.02500210516155
 31
0.0
  0
LINE
  5
30E
330
1F
100
AcDbEntity
  8
16
  6
Continuous
 62
     3
370
    25
100
AcDbLine
 10
-54.59999810159206
 20
13.57500211335719
 30
0.0
 11
-54.59999810159206
 21
18.02500217966735
 31
0.0
  0
LINE
  5
30F
330
1F
100
AcDbEntity
  8
16
  6
Continuous
 62
     3
370
    25
100
AcDbLine
 10
-54.59999810159206
 20
18.57500218786299
 30
0.0
 11
-54.59999810159206
 21
23.02500225417316
 31
0.0
  0
LINE
  5
310
330
1F
100
AcDbEntity
  8
16
  6
Continuous
 62
     3
370
    25
100
AcDbLine
 10
-54.59999810159206
 20
23.5750022623688
 30
0.0
 11
-54.59999810159206
 21
27.05000231415033
 31
0.0
  0
LINE
  5
311
330
1F
100
AcDbEntity
  8
16
  6
Continuous
 62
     3
370
    25
100
AcDbLine
 10
-54.89999810606241
 20
27.05000231415033
 30
0.0
 11
-54.59999810159206
 21
27.05000231415033
 31
0.0
  0
LINE
  5
312
330
1F
100
AcDbEntity
  8
16
  6
Continuous
 62
     3
370
    25
100
AcDbLine
 10
-51.89999806135893
 20
4.550001978874207
 30
0.0
 11
-51.89999806135893
 21
8.025002030655742
 31
0.0
  0
LINE
  5
313
330
1F
100
AcDbEntity
  8
16
  6
Continuous
 62
     3
370
    25
100
AcDbLine
 10
-51.89999806135893
 20
8.57500203885138
 30
0.0
 11
-51.89999806135893
 21
13.02500210516155
 31
0.0
  0
LINE
  5
314
330
1F
100
AcDbEntity
  8
16
  6
Continuous
 62
     3
370
    25
100
AcDbLine
 10
-51.89999806135893
 20
13.57500211335719
 30
0.0
 11
-51.89999806135893
 21
18.02500217966735
 31
0.0
  0
LINE
  5
315
330
1F
100
AcDbEntity
  8
16
  6
Continuous
 62
     3
370
    25
100
AcDbLine
 10
-51.89999806135893
 20
18.57500218786299
 30
0.0
 11
-51.89999806135893
 21
23.02500225417316
 31
0.0
  0
LINE
  5
316
330
1F
100
AcDbEntity
  8
16
  6
Continuous
 62
     3
370
    25
100
AcDbLine
 10
-51.89999806135893
 20
23.5750022623688
 30
0.0
 11
-51.89999806135893
 21
27.05000231415033
 31
0.0
  0
LINE
  5
317
330
1F
100
AcDbEntity
  8
16
  6
Continuous
 62
     3
370
    25
100
AcDbLine
 10
-51.89999806135893
 20
4.550001978874207
 30
0.0
 11
-51.59999805688858
 21
4.550001978874207
 31
0.0
  0
LINE
  5
318
330
1F
100
AcDbEntity
  8
16
  6
Continuous
 62
     3
370
    25
100
AcDbLine
 10
-51.59999805688858
 20
4.550001978874207
 30
0.0
 11
-51.59999805688858
 21
8.025002030655742
 31
0.0
  0
LINE
  5
319
330
1F
100
AcDbEntity
  8
16
  6
Continuous
 62
     3
370
    25
100
AcDbLine
 10
-51.59999805688858
 20
8.57500203885138
 30
0.0
 11
-51.59999805688858
 21
13.02500210516155
 31
0.0
  0
LINE
  5
31A
330
1F
100
AcDbEntity
  8
16
  6
Continuous
 62
     3
370
    25
100
AcDbLine
 10
-51.59999805688858
 20
13.57500211335719
 30
0.0
 11
-51.59999805688858
 21
18.02500217966735
 31
0.0
  0
LINE
  5
31B
330
1F
100
AcDbEntity
  8
16
  6
Continuous
 62
     3
370
    25
100
AcDbLine
 10
-51.59999805688858
 20
18.57500218786299
 30
0.0
 11
-51.59999805688858
 21
23.02500225417316
 31
0.0
  0
LINE
  5
31C
330
1F
100
AcDbEntity
  8
16
  6
Continuous
 62
     3
370
    25
100
AcDbLine
 10
-51.59999805688858
 20
23.5750022623688
 30
0.0
 11
-51.59999805688858
 21
27.05000231415033
 31
0.0
  0
LINE
  5
31D
330
1F
100
AcDbEntity
  8
16
  6
Continuous
 62
     3
370
    25
100
AcDbLine
 10
-51.89999806135893
 20
27.05000231415033
 30
0.0
 11
-51.59999805688858
 21
27.05000231415033
 31
0.0
  0
LINE
  5
31E
330
1F
100
AcDbEntity
  8
16
  6
Continuous
 62
     3
370
    25
100
AcDbLine
 10
-48.89999801665544
 20
4.550001978874207
 30
0.0
 11
-48.89999801665544
 21
8.025002030655742
 31
0.0
  0
LINE
  5
31F
330
1F
100
AcDbEntity
  8
16
  6
Continuous
 62
     3
370
    25
100
AcDbLine
 10
-48.89999801665544
 20
8.57500203885138
 30
0.0
 11
-48.89999801665544
 21
13.02500210516155
 31
0.0
  0
LINE
  5
320
330
1F
100
AcDbEntity
  8
16
  6
Continuous
 62
     3
370
    25
100
AcDbLine
 10
-48.89999801665544
 20
13.57500211335719
 30
0.0
 11
-48.89999801665544
 21
18.02500217966735
 31
0.0
  0
LINE
  5
321
330
1F
100
AcDbEntity
  8
16
  6
Continuous
 62
     3
370
    25
100
AcDbLine
 10
-48.89999801665544
 20
18.57500218786299
 30
0.0
 11
-48.89999801665544
 21
23.02500225417316
 31
0.0
  0
LINE
  5
322
330
1F
100
AcDbEntity
  8
16
  6
Continuous
 62
     3
370
    25
100
AcDbLine
 10
-48.89999801665544
 20
23.5750022623688
 30
0.0
 11
-48.89999801665544
 21
27.05000231415033
 31
0.0
  0
LINE
  5
323
330
1F
100
AcDbEntity
  8
16
  6
Continuous
 62
     3
370
    25
100
AcDbLine
 10
-48.89999801665544
 20
4.550001978874207
 30
0.0
 11
-48.5999980121851
 21
4.550001978874207
 31
0.0
  0
LINE
  5
324
330
1F
100
AcDbEntity
  8
16
  6
Continuous
 62
     3
370
    25
100
AcDbLine
 10
-48.5999980121851
 20
4.550001978874207
 30
0.0
 11
-48.5999980121851
 21
8.025002030655742
 31
0.0
  0
LINE
  5
325
330
1F
100
AcDbEntity
  8
16
  6
Continuous
 62
     3
370
    25
100
AcDbLine
 10
-48.5999980121851
 20
8.57500203885138
 30
0.0
 11
-48.5999980121851
 21
13.02500210516155
 31
0.0
  0
LINE
  5
326
330
1F
100
AcDbEntity
  8
16
  6
Continuous
 62
     3
370
    25
100
AcDbLine
 10
-48.5999980121851
 20
13.57500211335719
 30
0.0
 11
-48.5999980121851
 21
18.02500217966735
 31
0.0
  0
LINE
  5
327
330
1F
100
AcDbEntity
  8
16
  6
Continuous
 62
     3
370
    25
100
AcDbLine
 10
-48.5999980121851
 20
18.57500218786299
 30
0.0
 11
-48.5999980121851
 21
23.02500225417316
 31
0.0
  0
LINE
  5
328
330
1F
100
AcDbEntity
  8
16
  6
Continuous
 62
     3
370
    25
100
AcDbLine
 10
-48.5999980121851
 20
23.5750022623688
 30
0.0
 11
-48.5999980121851
 21
27.05000231415033
 31
0.0
  0
LINE
  5
329
330
1F
100
AcDbEntity
  8
16
  6
Continuous
 62
     3
370
    25
100
AcDbLine
 10
-48.89999801665544
 20
27.05000231415033
 30
0.0
 11
-48.5999980121851
 21
27.05000231415033
 31
0.0
  0
LINE
  5
32A
330
1F
100
AcDbEntity
  8
16
  6
Continuous
 62
     3
370
    25
100
AcDbLine
 10
-45.89999797195196
 20
4.550001978874207
 30
0.0
 11
-45.89999797195196
 21
8.025002030655742
 31
0.0
  0
LINE
  5
32B
330
1F
100
AcDbEntity
  8
16
  6
Continuous
 62
     3
370
    25
100
AcDbLine
 10
-45.89999797195196
 20
8.57500203885138
 30
0.0
 11
-45.89999797195196
 21
13.02500210516155
 31
0.0
  0
LINE
  5
32C
330
1F
100
AcDbEntity
  8
16
  6
Continuous
 62
     3
370
    25
100
AcDbLine
 10
-45.89999797195196
 20
13.57500211335719
 30
0.0
 11
-45.89999797195196
 21
18.02500217966735
 31
0.0
  0
LINE
  5
32D
330
1F
100
AcDbEntity
  8
16
  6
Continuous
 62
     3
370
    25
100
AcDbLine
 10
-45.89999797195196
 20
18.57500218786299
 30
0.0
 11
-45.89999797195196
 21
23.02500225417316
 31
0.0
  0
LINE
  5
32E
330
1F
100
AcDbEntity
  8
16
  6
Continuous
 62
     3
370
    25
100
AcDbLine
 10
-45.89999797195196
 20
23.5750022623688
 30
0.0
 11
-45.89999797195196
 21
27.05000231415033
 31
0.0
  0
LINE
  5
32F
330
1F
100
AcDbEntity
  8
16
  6
Continuous
 62
     3
370
    25
100
AcDbLine
 10
-45.89999797195196
 20
4.550001978874207
 30
0.0
 11
-45.59999796748161
 21
4.550001978874207
 31
0.0
  0
LINE
  5
330
330
1F
100
AcDbEntity
  8
16
  6
Continuous
 62
     3
370
    25
100
AcDbLine
 10
-45.59999796748161
 20
4.550001978874207
 30
0.0
 11
-45.59999796748161
 21
8.025002030655742
 31
0.0
  0
LINE
  5
331
330
1F
100
AcDbEntity
  8
16
  6
Continuous
 62
     3
370
    25
100
AcDbLine
 10
-45.59999796748161
 20
8.57500203885138
 30
0.0
 11
-45.59999796748161
 21
13.02500210516155
 31
0.0
  0
LINE
  5
332
330
1F
100
AcDbEntity
  8
16
  6
Continuous
 62
     3
370
    25
100
AcDbLine
 10
-45.59999796748161
 20
13.57500211335719
 30
0.0
 11
-45.59999796748161
 21
18.02500217966735
 31
0.0
  0
LINE
  5
333
330
1F
100
AcDbEntity
  8
16
  6
Continuous
 62
     3
370
    25
100
AcDbLine
 10
-45.59999796748161
 20
18.57500218786299
 30
0.0
 11
-45.59999796748161
 21
23.02500225417316
 31
0.0
  0
LINE
  5
334
330
1F
100
AcDbEntity
  8
16
  6
Continuous
 62
     3
370
    25
100
AcDbLine
 10
-45.59999796748161
 20
23.5750022623688
 30
0.0
 11
-45.59999796748161
 21
27.05000231415033
 31
0.0
  0
LINE
  5
335
330
1F
100
AcDbEntity
  8
16
  6
Continuous
 62
     3
370
    25
100
AcDbLine
 10
-45.89999797195196
 20
27.05000231415033
 30
0.0
 11
-45.59999796748161
 21
27.05000231415033
 31
0.0
  0
LINE
  5
336
330
1F
100
AcDbEntity
  8
16
  6
Continuous
 62
     3
370
    25
100
AcDbLine
 10
-42.69999792426825
 20
4.550001978874207
 30
0.0
 11
-42.69999792426825
 21
8.025002030655742
 31
0.0
  0
LINE
  5
337
330
1F
100
AcDbEntity
  8
16
  6
Continuous
 62
     3
370
    25
100
AcDbLine
 10
-42.69999792426825
 20
8.57500203885138
 30
0.0
 11
-42.69999792426825
 21
13.02500210516155
 31
0.0
  0
LINE
  5
338
330
1F
100
AcDbEntity
  8
16
  6
Continuous
 62
     3
370
    25
100
AcDbLine
 10
-42.69999792426825
 20
13.57500211335719
 30
0.0
 11
-42.69999792426825
 21
18.02500217966735
 31
0.0
  0
LINE
  5
339
330
1F
100
AcDbEntity
  8
16
  6
Continuous
 62
     3
370
    25
100
AcDbLine
 10
-42.69999792426825
 20
18.57500218786299
 30
0.0
 11
-42.69999792426825
 21
23.02500225417316
 31
0.0
  0
LINE
  5
33A
330
1F
100
AcDbEntity
  8
16
  6
Continuous
 62
     3
370
    25
100
AcDbLine
 10
-42.69999792426825
 20
23.5750022623688
 30
0.0
 11
-42.69999792426825
 21
27.05000231415033
 31
0.0
  0
LINE
  5
33B
330
1F
100
AcDbEntity
  8
16
  6
Continuous
 62
     3
370
    25
100
AcDbLine
 10
-42.69999792426825
 20
4.550001978874207
 30
0.0
 11
-42.3999979197979
 21
4.550001978874207
 31
0.0
  0
LINE
  5
33C
330
1F
100
AcDbEntity
  8
16
  6
Continuous
 62
     3
370
    25
100
AcDbLine
 10
-42.3999979197979
 20
4.550001978874207
 30
0.0
 11
-42.3999979197979
 21
27.05000231415033
 31
0.0
  0
LINE
  5
33D
330
1F
100
AcDbEntity
  8
16
  6
Continuous
 62
     3
370
    25
100
AcDbLine
 10
-42.69999792426825
 20
27.05000231415033
 30
0.0
 11
-42.3999979197979
 21
27.05000231415033
 31
0.0
  0
LINE
  5
33E
330
1F
100
AcDbEntity
  8
16
  6
Continuous
 62
     3
370
    25
100
AcDbLine
 10
-141.8999994024634
 20
-40.44999869167805
 30
0.0
 11
-141.8999994024634
 21
-42.34999871999025
 31
0.0
  0
LINE
  5
33F
330
1F
100
AcDbEntity
  8
16
  6
Continuous
 62
     3
370
    25
100
AcDbLine
 10
-141.8999994024634
 20
-42.34999871999025
 30
0.0
 11
-141.5999993979931
 21
-42.34999871999025
 31
0.0
  0
LINE
  5
340
330
1F
100
AcDbEntity
  8
16
  6
Continuous
 62
     3
370
    25
100
AcDbLine
 10
-141.5999993979931
 20
-42.34999871999025
 30
0.0
 11
-141.5999993979931
 21
-40.44999869167805
 31
0.0
  0
LINE
  5
341
330
1F
100
AcDbEntity
  8
16
  6
Continuous
 62
     3
370
    25
100
AcDbLine
 10
-141.5999993979931
 20
-40.44999869167805
 30
0.0
 11
-141.8999994024634
 21
-40.44999869167805
 31
0.0
  0
LINE
  5
342
330
1F
100
AcDbEntity
  8
16
  6
Continuous
 62
     3
370
    25
100
AcDbLine
 10
-141.8999994024634
 20
-40.44999869167805
 30
0.0
 11
-141.8999994024634
 21
-40.37999869182706
 31
0.0
  0
LINE
  5
343
330
1F
100
AcDbEntity
  8
16
  6
Continuous
 62
     3
370
    25
100
AcDbLine
 10
-141.8999994024634
 20
-40.37999869182706
 30
0.0
 11
-141.5999993979931
 21
-40.37999869182706
 31
0.0
  0
LINE
  5
344
330
1F
100
AcDbEntity
  8
16
  6
Continuous
 62
     3
370
    25
100
AcDbLine
 10
-141.5999993979931
 20
-40.37999869182706
 30
0.0
 11
-141.5999993979931
 21
-40.44999869167805
 31
0.0
  0
LINE
  5
345
330
1F
100
AcDbEntity
  8
16
  6
Continuous
 62
     3
370
    25
100
AcDbLine
 10
-138.8999993577599
 20
-40.44999869167805
 30
0.0
 11
-138.8999993577599
 21
-42.34999871999025
 31
0.0
  0
LINE
  5
346
330
1F
100
AcDbEntity
  8
16
  6
Continuous
 62
     3
370
    25
100
AcDbLine
 10
-138.8999993577599
 20
-42.34999871999025
 30
0.0
 11
-138.5999993532896
 21
-42.34999871999025
 31
0.0
  0
LINE
  5
347
330
1F
100
AcDbEntity
  8
16
  6
Continuous
 62
     3
370
    25
100
AcDbLine
 10
-138.5999993532896
 20
-42.34999871999025
 30
0.0
 11
-138.5999993532896
 21
-40.44999869167805
 31
0.0
  0
LINE
  5
348
330
1F
100
AcDbEntity
  8
16
  6
Continuous
 62
     3
370
    25
100
AcDbLine
 10
-138.5999993532896
 20
-40.44999869167805
 30
0.0
 11
-138.8999993577599
 21
-40.44999869167805
 31
0.0
  0
LINE
  5
349
330
1F
100
AcDbEntity
  8
16
  6
Continuous
 62
     3
370
    25
100
AcDbLine
 10
-138.8999993577599
 20
-40.44999869167805
 30
0.0
 11
-138.8999993577599
 21
-40.37999869182706
 31
0.0
  0
LINE
  5
34A
330
1F
100
AcDbEntity
  8
16
  6
Continuous
 62
     3
370
    25
100
AcDbLine
 10
-138.8999993577599
 20
-40.37999869182706
 30
0.0
 11
-138.5999993532896
 21
-40.37999869182706
 31
0.0
  0
LINE
  5
34B
330
1F
100
AcDbEntity
  8
16
  6
Continuous
 62
     3
370
    25
100
AcDbLine
 10
-138.5999993532896
 20
-40.37999869182706
 30
0.0
 11
-138.5999993532896
 21
-40.44999869167805
 31
0.0
  0
LINE
  5
34C
330
1F
100
AcDbEntity
  8
16
  6
Continuous
 62
     3
370
    25
100
AcDbLine
 10
-135.8999993130565
 20
-40.44999869167805
 30
0.0
 11
-135.8999993130565
 21
-42.34999871999025
 31
0.0
  0
LINE
  5
34D
330
1F
100
AcDbEntity
  8
16
  6
Continuous
 62
     3
370
    25
100
AcDbLine
 10
-135.8999993130565
 20
-42.34999871999025
 30
0.0
 11
-135.5999993085861
 21
-42.34999871999025
 31
0.0
  0
LINE
  5
34E
330
1F
100
AcDbEntity
  8
16
  6
Continuous
 62
     3
370
    25
100
AcDbLine
 10
-135.5999993085861
 20
-42.34999871999025
 30
0.0
 11
-135.5999993085861
 21
-40.44999869167805
 31
0.0
  0
LINE
  5
34F
330
1F
100
AcDbEntity
  8
16
  6
Continuous
 62
     3
370
    25
100
AcDbLine
 10
-135.5999993085861
 20
-40.44999869167805
 30
0.0
 11
-135.8999993130565
 21
-40.44999869167805
 31
0.0
  0
LINE
  5
350
330
1F
100
AcDbEntity
  8
16
  6
Continuous
 62
     3
370
    25
100
AcDbLine
 10
-135.8999993130565
 20
-40.44999869167805
 30
0.0
 11
-135.8999993130565
 21
-40.37999869182706
 31
0.0
  0
LINE
  5
351
330
1F
100
AcDbEntity
  8
16
  6
Continuous
 62
     3
370
    25
100
AcDbLine
 10
-135.8999993130565
 20
-40.37999869182706
 30
0.0
 11
-135.5999993085861
 21
-40.37999869182706
 31
0.0
  0
LINE
  5
352
330
1F
100
AcDbEntity
  8
16
  6
Continuous
 62
     3
370
    25
100
AcDbLine
 10
-135.5999993085861
 20
-40.37999869182706
 30
0.0
 11
-135.5999993085861
 21
-40.44999869167805
 31
0.0
  0
LINE
  5
353
330
1F
100
AcDbEntity
  8
16
  6
Continuous
 62
     3
370
    25
100
AcDbLine
 10
-132.899999268353
 20
-40.44999869167805
 30
0.0
 11
-132.899999268353
 21
-42.34999871999025
 31
0.0
  0
LINE
  5
354
330
1F
100
AcDbEntity
  8
16
  6
Continuous
 62
     3
370
    25
100
AcDbLine
 10
-132.899999268353
 20
-42.34999871999025
 30
0.0
 11
-132.5999992638826
 21
-42.34999871999025
 31
0.0
  0
LINE
  5
355
330
1F
100
AcDbEntity
  8
16
  6
Continuous
 62
     3
370
    25
100
AcDbLine
 10
-132.5999992638826
 20
-42.34999871999025
 30
0.0
 11
-132.5999992638826
 21
-40.44999869167805
 31
0.0
  0
LINE
  5
356
330
1F
100
AcDbEntity
  8
16
  6
Continuous
 62
     3
370
    25
100
AcDbLine
 10
-132.5999992638826
 20
-40.44999869167805
 30
0.0
 11
-132.899999268353
 21
-40.44999869167805
 31
0.0
  0
LINE
  5
357
330
1F
100
AcDbEntity
  8
16
  6
Continuous
 62
     3
370
    25
100
AcDbLine
 10
-132.899999268353
 20
-40.44999869167805
 30
0.0
 11
-132.899999268353
 21
-40.37999869182706
 31
0.0
  0
LINE
  5
358
330
1F
100
AcDbEntity
  8
16
  6
Continuous
 62
     3
370
    25
100
AcDbLine
 10
-132.899999268353
 20
-40.37999869182706
 30
0.0
 11
-132.5999992638826
 21
-40.37999869182706
 31
0.0
  0
LINE
  5
359
330
1F
100
AcDbEntity
  8
16
  6
Continuous
 62
     3
370
    25
100
AcDbLine
 10
-132.5999992638826
 20
-40.37999869182706
 30
0.0
 11
-132.5999992638826
 21
-40.44999869167805
 31
0.0
  0
LINE
  5
35A
330
1F
100
AcDbEntity
  8
16
  6
Continuous
 62
     3
370
    25
100
AcDbLine
 10
-129.8999992236495
 20
-40.44999869167805
 30
0.0
 11
-129.8999992236495
 21
-42.34999871999025
 31
0.0
  0
LINE
  5
35B
330
1F
100
AcDbEntity
  8
16
  6
Continuous
 62
     3
370
    25
100
AcDbLine
 10
-129.8999992236495
 20
-42.34999871999025
 30
0.0
 11
-129.5999992191792
 21
-42.34999871999025
 31
0.0
  0
LINE
  5
35C
330
1F
100
AcDbEntity
  8
16
  6
Continuous
 62
     3
370
    25
100
AcDbLine
 10
-129.5999992191792
 20
-42.34999871999025
 30
0.0
 11
-129.5999992191792
 21
-40.44999869167805
 31
0.0
  0
LINE
  5
35D
330
1F
100
AcDbEntity
  8
16
  6
Continuous
 62
     3
370
    25
100
AcDbLine
 10
-129.5999992191792
 20
-40.44999869167805
 30
0.0
 11
-129.8999992236495
 21
-40.44999869167805
 31
0.0
  0
LINE
  5
35E
330
1F
100
AcDbEntity
  8
16
  6
Continuous
 62
     3
370
    25
100
AcDbLine
 10
-129.8999992236495
 20
-40.44999869167805
 30
0.0
 11
-129.8999992236495
 21
-40.37999869182706
 31
0.0
  0
LINE
  5
35F
330
1F
100
AcDbEntity
  8
16
  6
Continuous
 62
     3
370
    25
100
AcDbLine
 10
-129.8999992236495
 20
-40.37999869182706
 30
0.0
 11
-129.5999992191792
 21
-40.37999869182706
 31
0.0
  0
LINE
  5
360
330
1F
100
AcDbEntity
  8
16
  6
Continuous
 62
     3
370
    25
100
AcDbLine
 10
-129.5999992191792
 20
-40.37999869182706
 30
0.0
 11
-129.5999992191792
 21
-40.44999869167805
 31
0.0
  0
LINE
  5
361
330
1F
100
AcDbEntity
  8
16
  6
Continuous
 62
     3
370
    25
100
AcDbLine
 10
-126.899999178946
 20
-40.44999869167805
 30
0.0
 11
-126.899999178946
 21
-42.34999871999025
 31
0.0
  0
LINE
  5
362
330
1F
100
AcDbEntity
  8
16
  6
Continuous
 62
     3
370
    25
100
AcDbLine
 10
-126.899999178946
 20
-42.34999871999025
 30
0.0
 11
-126.5999991744757
 21
-42.34999871999025
 31
0.0
  0
LINE
  5
363
330
1F
100
AcDbEntity
  8
16
  6
Continuous
 62
     3
370
    25
100
AcDbLine
 10
-126.5999991744757
 20
-42.34999871999025
 30
0.0
 11
-126.5999991744757
 21
-40.44999869167805
 31
0.0
  0
LINE
  5
364
330
1F
100
AcDbEntity
  8
16
  6
Continuous
 62
     3
370
    25
100
AcDbLine
 10
-126.5999991744757
 20
-40.44999869167805
 30
0.0
 11
-126.899999178946
 21
-40.44999869167805
 31
0.0
  0
LINE
  5
365
330
1F
100
AcDbEntity
  8
16
  6
Continuous
 62
     3
370
    25
100
AcDbLine
 10
-126.899999178946
 20
-40.44999869167805
 30
0.0
 11
-126.899999178946
 21
-40.37999869182706
 31
0.0
  0
LINE
  5
366
330
1F
100
AcDbEntity
  8
16
  6
Continuous
 62
     3
370
    25
100
AcDbLine
 10
-126.899999178946
 20
-40.37999869182706
 30
0.0
 11
-126.5999991744757
 21
-40.37999869182706
 31
0.0
  0
LINE
  5
367
330
1F
100
AcDbEntity
  8
16
  6
Continuous
 62
     3
370
    25
100
AcDbLine
 10
-126.5999991744757
 20
-40.37999869182706
 30
0.0
 11
-126.5999991744757
 21
-40.44999869167805
 31
0.0
  0
LINE
  5
368
330
1F
100
AcDbEntity
  8
16
  6
Continuous
 62
     3
370
    25
100
AcDbLine
 10
-123.8999991342425
 20
-40.44999869167805
 30
0.0
 11
-123.8999991342425
 21
-42.34999871999025
 31
0.0
  0
LINE
  5
369
330
1F
100
AcDbEntity
  8
16
  6
Continuous
 62
     3
370
    25
100
AcDbLine
 10
-123.8999991342425
 20
-42.34999871999025
 30
0.0
 11
-123.5999991297722
 21
-42.34999871999025
 31
0.0
  0
LINE
  5
36A
330
1F
100
AcDbEntity
  8
16
  6
Continuous
 62
     3
370
    25
100
AcDbLine
 10
-123.5999991297722
 20
-42.34999871999025
 30
0.0
 11
-123.5999991297722
 21
-40.44999869167805
 31
0.0
  0
LINE
  5
36B
330
1F
100
AcDbEntity
  8
16
  6
Continuous
 62
     3
370
    25
100
AcDbLine
 10
-123.5999991297722
 20
-40.44999869167805
 30
0.0
 11
-123.8999991342425
 21
-40.44999869167805
 31
0.0
  0
LINE
  5
36C
330
1F
100
AcDbEntity
  8
16
  6
Continuous
 62
     3
370
    25
100
AcDbLine
 10
-123.8999991342425
 20
-40.44999869167805
 30
0.0
 11
-123.8999991342425
 21
-40.37999869182706
 31
0.0
  0
LINE
  5
36D
330
1F
100
AcDbEntity
  8
16
  6
Continuous
 62
     3
370
    25
100
AcDbLine
 10
-123.8999991342425
 20
-40.37999869182706
 30
0.0
 11
-123.5999991297722
 21
-40.37999869182706
 31
0.0
  0
LINE
  5
36E
330
1F
100
AcDbEntity
  8
16
  6
Continuous
 62
     3
370
    25
100
AcDbLine
 10
-123.5999991297722
 20
-40.37999869182706
 30
0.0
 11
-123.5999991297722
 21
-40.44999869167805
 31
0.0
  0
LINE
  5
36F
330
1F
100
AcDbEntity
  8
16
  6
Continuous
 62
     3
370
    25
100
AcDbLine
 10
-120.8999990895391
 20
-40.44999869167805
 30
0.0
 11
-120.8999990895391
 21
-42.34999871999025
 31
0.0
  0
LINE
  5
370
330
1F
100
AcDbEntity
  8
16
  6
Continuous
 62
     3
370
    25
100
AcDbLine
 10
-120.8999990895391
 20
-42.34999871999025
 30
0.0
 11
-120.5999990850687
 21
-42.34999871999025
 31
0.0
  0
LINE
  5
371
330
1F
100
AcDbEntity
  8
16
  6
Continuous
 62
     3
370
    25
100
AcDbLine
 10
-120.5999990850687
 20
-42.34999871999025
 30
0.0
 11
-120.5999990850687
 21
-40.44999869167805
 31
0.0
  0
LINE
  5
372
330
1F
100
AcDbEntity
  8
16
  6
Continuous
 62
     3
370
    25
100
AcDbLine
 10
-120.5999990850687
 20
-40.44999869167805
 30
0.0
 11
-120.8999990895391
 21
-40.44999869167805
 31
0.0
  0
LINE
  5
373
330
1F
100
AcDbEntity
  8
16
  6
Continuous
 62
     3
370
    25
100
AcDbLine
 10
-120.8999990895391
 20
-40.44999869167805
 30
0.0
 11
-120.8999990895391
 21
-40.37999869182706
 31
0.0
  0
LINE
  5
374
330
1F
100
AcDbEntity
  8
16
  6
Continuous
 62
     3
370
    25
100
AcDbLine
 10
-120.8999990895391
 20
-40.37999869182706
 30
0.0
 11
-120.5999990850687
 21
-40.37999869182706
 31
0.0
  0
LINE
  5
375
330
1F
100
AcDbEntity
  8
16
  6
Continuous
 62
     3
370
    25
100
AcDbLine
 10
-120.5999990850687
 20
-40.37999869182706
 30
0.0
 11
-120.5999990850687
 21
-40.44999869167805
 31
0.0
  0
LINE
  5
376
330
1F
100
AcDbEntity
  8
16
  6
Continuous
 62
     3
370
    25
100
AcDbLine
 10
-117.8999990448356
 20
-40.44999869167805
 30
0.0
 11
-117.8999990448356
 21
-42.34999871999025
 31
0.0
  0
LINE
  5
377
330
1F
100
AcDbEntity
  8
16
  6
Continuous
 62
     3
370
    25
100
AcDbLine
 10
-117.8999990448356
 20
-42.34999871999025
 30
0.0
 11
-117.5999990403652
 21
-42.34999871999025
 31
0.0
  0
LINE
  5
378
330
1F
100
AcDbEntity
  8
16
  6
Continuous
 62
     3
370
    25
100
AcDbLine
 10
-117.5999990403652
 20
-42.34999871999025
 30
0.0
 11
-117.5999990403652
 21
-40.44999869167805
 31
0.0
  0
LINE
  5
379
330
1F
100
AcDbEntity
  8
16
  6
Continuous
 62
     3
370
    25
100
AcDbLine
 10
-117.5999990403652
 20
-40.44999869167805
 30
0.0
 11
-117.8999990448356
 21
-40.44999869167805
 31
0.0
  0
LINE
  5
37A
330
1F
100
AcDbEntity
  8
16
  6
Continuous
 62
     3
370
    25
100
AcDbLine
 10
-117.8999990448356
 20
-40.44999869167805
 30
0.0
 11
-117.8999990448356
 21
-40.37999869182706
 31
0.0
  0
LINE
  5
37B
330
1F
100
AcDbEntity
  8
16
  6
Continuous
 62
     3
370
    25
100
AcDbLine
 10
-117.8999990448356
 20
-40.37999869182706
 30
0.0
 11
-117.5999990403652
 21
-40.37999869182706
 31
0.0
  0
LINE
  5
37C
330
1F
100
AcDbEntity
  8
16
  6
Continuous
 62
     3
370
    25
100
AcDbLine
 10
-117.5999990403652
 20
-40.37999869182706
 30
0.0
 11
-117.5999990403652
 21
-40.44999869167805
 31
0.0
  0
LINE
  5
37D
330
1F
100
AcDbEntity
  8
16
  6
Continuous
 62
     3
370
    25
100
AcDbLine
 10
-114.8999990001321
 20
-40.44999869167805
 30
0.0
 11
-114.8999990001321
 21
-42.34999871999025
 31
0.0
  0
LINE
  5
37E
330
1F
100
AcDbEntity
  8
16
  6
Continuous
 62
     3
370
    25
100
AcDbLine
 10
-114.8999990001321
 20
-42.34999871999025
 30
0.0
 11
-114.5999989956617
 21
-42.34999871999025
 31
0.0
  0
LINE
  5
37F
330
1F
100
AcDbEntity
  8
16
  6
Continuous
 62
     3
370
    25
100
AcDbLine
 10
-114.5999989956617
 20
-42.34999871999025
 30
0.0
 11
-114.5999989956617
 21
-40.44999869167805
 31
0.0
  0
LINE
  5
380
330
1F
100
AcDbEntity
  8
16
  6
Continuous
 62
     3
370
    25
100
AcDbLine
 10
-114.5999989956617
 20
-40.44999869167805
 30
0.0
 11
-114.8999990001321
 21
-40.44999869167805
 31
0.0
  0
LINE
  5
381
330
1F
100
AcDbEntity
  8
16
  6
Continuous
 62
     3
370
    25
100
AcDbLine
 10
-114.8999990001321
 20
-40.44999869167805
 30
0.0
 11
-114.8999990001321
 21
-40.37999869182706
 31
0.0
  0
LINE
  5
382
330
1F
100
AcDbEntity
  8
16
  6
Continuous
 62
     3
370
    25
100
AcDbLine
 10
-114.8999990001321
 20
-40.37999869182706
 30
0.0
 11
-114.5999989956617
 21
-40.37999869182706
 31
0.0
  0
LINE
  5
383
330
1F
100
AcDbEntity
  8
16
  6
Continuous
 62
     3
370
    25
100
AcDbLine
 10
-114.5999989956617
 20
-40.37999869182706
 30
0.0
 11
-114.5999989956617
 21
-40.44999869167805
 31
0.0
  0
LINE
  5
384
330
1F
100
AcDbEntity
  8
16
  6
Continuous
 62
     3
370
    25
100
AcDbLine
 10
-111.8999989554286
 20
-40.44999869167805
 30
0.0
 11
-111.8999989554286
 21
-42.34999871999025
 31
0.0
  0
LINE
  5
385
330
1F
100
AcDbEntity
  8
16
  6
Continuous
 62
     3
370
    25
100
AcDbLine
 10
-111.8999989554286
 20
-42.34999871999025
 30
0.0
 11
-111.5999989509583
 21
-42.34999871999025
 31
0.0
  0
LINE
  5
386
330
1F
100
AcDbEntity
  8
16
  6
Continuous
 62
     3
370
    25
100
AcDbLine
 10
-111.5999989509583
 20
-42.34999871999025
 30
0.0
 11
-111.5999989509583
 21
-40.44999869167805
 31
0.0
  0
LINE
  5
387
330
1F
100
AcDbEntity
  8
16
  6
Continuous
 62
     3
370
    25
100
AcDbLine
 10
-111.5999989509583
 20
-40.44999869167805
 30
0.0
 11
-111.8999989554286
 21
-40.44999869167805
 31
0.0
  0
LINE
  5
388
330
1F
100
AcDbEntity
  8
16
  6
Continuous
 62
     3
370
    25
100
AcDbLine
 10
-111.8999989554286
 20
-40.44999869167805
 30
0.0
 11
-111.8999989554286
 21
-40.37999869182706
 31
0.0
  0
LINE
  5
389
330
1F
100
AcDbEntity
  8
16
  6
Continuous
 62
     3
370
    25
100
AcDbLine
 10
-111.8999989554286
 20
-40.37999869182706
 30
0.0
 11
-111.5999989509583
 21
-40.37999869182706
 31
0.0
  0
LINE
  5
38A
330
1F
100
AcDbEntity
  8
16
  6
Continuous
 62
     3
370
    25
100
AcDbLine
 10
-111.5999989509583
 20
-40.37999869182706
 30
0.0
 11
-111.5999989509583
 21
-40.44999869167805
 31
0.0
  0
LINE
  5
38B
330
1F
100
AcDbEntity
  8
16
  6
Continuous
 62
     3
370
    25
100
AcDbLine
 10
-108.8999989107251
 20
-40.44999869167805
 30
0.0
 11
-108.8999989107251
 21
-42.34999871999025
 31
0.0
  0
LINE
  5
38C
330
1F
100
AcDbEntity
  8
16
  6
Continuous
 62
     3
370
    25
100
AcDbLine
 10
-108.8999989107251
 20
-42.34999871999025
 30
0.0
 11
-108.5999989062548
 21
-42.34999871999025
 31
0.0
  0
LINE
  5
38D
330
1F
100
AcDbEntity
  8
16
  6
Continuous
 62
     3
370
    25
100
AcDbLine
 10
-108.5999989062548
 20
-42.34999871999025
 30
0.0
 11
-108.5999989062548
 21
-40.44999869167805
 31
0.0
  0
LINE
  5
38E
330
1F
100
AcDbEntity
  8
16
  6
Continuous
 62
     3
370
    25
100
AcDbLine
 10
-108.5999989062548
 20
-40.44999869167805
 30
0.0
 11
-108.8999989107251
 21
-40.44999869167805
 31
0.0
  0
LINE
  5
38F
330
1F
100
AcDbEntity
  8
16
  6
Continuous
 62
     3
370
    25
100
AcDbLine
 10
-108.8999989107251
 20
-40.44999869167805
 30
0.0
 11
-108.8999989107251
 21
-40.37999869182706
 31
0.0
  0
LINE
  5
390
330
1F
100
AcDbEntity
  8
16
  6
Continuous
 62
     3
370
    25
100
AcDbLine
 10
-108.8999989107251
 20
-40.37999869182706
 30
0.0
 11
-108.5999989062548
 21
-40.37999869182706
 31
0.0
  0
LINE
  5
391
330
1F
100
AcDbEntity
  8
16
  6
Continuous
 62
     3
370
    25
100
AcDbLine
 10
-108.5999989062548
 20
-40.37999869182706
 30
0.0
 11
-108.5999989062548
 21
-40.44999869167805
 31
0.0
  0
LINE
  5
392
330
1F
100
AcDbEntity
  8
16
  6
Continuous
 62
     3
370
    25
100
AcDbLine
 10
-105.8999988660216
 20
-40.44999869167805
 30
0.0
 11
-105.8999988660216
 21
-42.34999871999025
 31
0.0
  0
LINE
  5
393
330
1F
100
AcDbEntity
  8
16
  6
Continuous
 62
     3
370
    25
100
AcDbLine
 10
-105.8999988660216
 20
-42.34999871999025
 30
0.0
 11
-105.5999988615513
 21
-42.34999871999025
 31
0.0
  0
LINE
  5
394
330
1F
100
AcDbEntity
  8
16
  6
Continuous
 62
     3
370
    25
100
AcDbLine
 10
-105.5999988615513
 20
-42.34999871999025
 30
0.0
 11
-105.5999988615513
 21
-40.44999869167805
 31
0.0
  0
LINE
  5
395
330
1F
100
AcDbEntity
  8
16
  6
Continuous
 62
     3
370
    25
100
AcDbLine
 10
-105.5999988615513
 20
-40.44999869167805
 30
0.0
 11
-105.8999988660216
 21
-40.44999869167805
 31
0.0
  0
LINE
  5
396
330
1F
100
AcDbEntity
  8
16
  6
Continuous
 62
     3
370
    25
100
AcDbLine
 10
-105.8999988660216
 20
-40.44999869167805
 30
0.0
 11
-105.8999988660216
 21
-40.37999869182706
 31
0.0
  0
LINE
  5
397
330
1F
100
AcDbEntity
  8
16
  6
Continuous
 62
     3
370
    25
100
AcDbLine
 10
-105.8999988660216
 20
-40.37999869182706
 30
0.0
 11
-105.5999988615513
 21
-40.37999869182706
 31
0.0
  0
LINE
  5
398
330
1F
100
AcDbEntity
  8
16
  6
Continuous
 62
     3
370
    25
100
AcDbLine
 10
-105.5999988615513
 20
-40.37999869182706
 30
0.0
 11
-105.5999988615513
 21
-40.44999869167805
 31
0.0
  0
LINE
  5
399
330
1F
100
AcDbEntity
  8
16
  6
Continuous
 62
     3
370
    25
100
AcDbLine
 10
-102.8999988213181
 20
-40.44999869167805
 30
0.0
 11
-102.8999988213181
 21
-42.34999871999025
 31
0.0
  0
LINE
  5
39A
330
1F
100
AcDbEntity
  8
16
  6
Continuous
 62
     3
370
    25
100
AcDbLine
 10
-102.8999988213181
 20
-42.34999871999025
 30
0.0
 11
-102.5999988168478
 21
-42.34999871999025
 31
0.0
  0
LINE
  5
39B
330
1F
100
AcDbEntity
  8
16
  6
Continuous
 62
     3
370
    25
100
AcDbLine
 10
-102.5999988168478
 20
-42.34999871999025
 30
0.0
 11
-102.5999988168478
 21
-40.44999869167805
 31
0.0
  0
LINE
  5
39C
330
1F
100
AcDbEntity
  8
16
  6
Continuous
 62
     3
370
    25
100
AcDbLine
 10
-102.5999988168478
 20
-40.44999869167805
 30
0.0
 11
-102.8999988213181
 21
-40.44999869167805
 31
0.0
  0
LINE
  5
39D
330
1F
100
AcDbEntity
  8
16
  6
Continuous
 62
     3
370
    25
100
AcDbLine
 10
-102.8999988213181
 20
-40.44999869167805
 30
0.0
 11
-102.8999988213181
 21
-40.37999869182706
 31
0.0
  0
LINE
  5
39E
330
1F
100
AcDbEntity
  8
16
  6
Continuous
 62
     3
370
    25
100
AcDbLine
 10
-102.8999988213181
 20
-40.37999869182706
 30
0.0
 11
-102.5999988168478
 21
-40.37999869182706
 31
0.0
  0
LINE
  5
39F
330
1F
100
AcDbEntity
  8
16
  6
Continuous
 62
     3
370
    25
100
AcDbLine
 10
-102.5999988168478
 20
-40.37999869182706
 30
0.0
 11
-102.5999988168478
 21
-40.44999869167805
 31
0.0
  0
LINE
  5
3A0
330
1F
100
AcDbEntity
  8
16
  6
Continuous
 62
     3
370
    25
100
AcDbLine
 10
-99.89999877661467
 20
-40.44999869167805
 30
0.0
 11
-99.89999877661467
 21
-42.34999871999025
 31
0.0
  0
LINE
  5
3A1
330
1F
100
AcDbEntity
  8
16
  6
Continuous
 62
     3
370
    25
100
AcDbLine
 10
-99.89999877661467
 20
-42.34999871999025
 30
0.0
 11
-99.59999877214432
 21
-42.34999871999025
 31
0.0
  0
LINE
  5
3A2
330
1F
100
AcDbEntity
  8
16
  6
Continuous
 62
     3
370
    25
100
AcDbLine
 10
-99.59999877214432
 20
-42.34999871999025
 30
0.0
 11
-99.59999877214432
 21
-40.44999869167805
 31
0.0
  0
LINE
  5
3A3
330
1F
100
AcDbEntity
  8
16
  6
Continuous
 62
     3
370
    25
100
AcDbLine
 10
-99.59999877214432
 20
-40.44999869167805
 30
0.0
 11
-99.89999877661467
 21
-40.44999869167805
 31
0.0
  0
LINE
  5
3A4
330
1F
100
AcDbEntity
  8
16
  6
Continuous
 62
     3
370
    25
100
AcDbLine
 10
-99.89999877661467
 20
-40.44999869167805
 30
0.0
 11
-99.89999877661467
 21
-40.37999869182706
 31
0.0
  0
LINE
  5
3A5
330
1F
100
AcDbEntity
  8
16
  6
Continuous
 62
     3
370
    25
100
AcDbLine
 10
-99.89999877661467
 20
-40.37999869182706
 30
0.0
 11
-99.59999877214432
 21
-40.37999869182706
 31
0.0
  0
LINE
  5
3A6
330
1F
100
AcDbEntity
  8
16
  6
Continuous
 62
     3
370
    25
100
AcDbLine
 10
-99.59999877214432
 20
-40.37999869182706
 30
0.0
 11
-99.59999877214432
 21
-40.44999869167805
 31
0.0
  0
LINE
  5
3A7
330
1F
100
AcDbEntity
  8
16
  6
Continuous
 62
     3
370
    25
100
AcDbLine
 10
-96.89999873191118
 20
-40.44999869167805
 30
0.0
 11
-96.89999873191118
 21
-42.34999871999025
 31
0.0
  0
LINE
  5
3A8
330
1F
100
AcDbEntity
  8
16
  6
Continuous
 62
     3
370
    25
100
AcDbLine
 10
-96.89999873191118
 20
-42.34999871999025
 30
0.0
 11
-96.59999872744083
 21
-42.34999871999025
 31
0.0
  0
LINE
  5
3A9
330
1F
100
AcDbEntity
  8
16
  6
Continuous
 62
     3
370
    25
100
AcDbLine
 10
-96.59999872744083
 20
-42.34999871999025
 30
0.0
 11
-96.59999872744083
 21
-40.44999869167805
 31
0.0
  0
LINE
  5
3AA
330
1F
100
AcDbEntity
  8
16
  6
Continuous
 62
     3
370
    25
100
AcDbLine
 10
-96.59999872744083
 20
-40.44999869167805
 30
0.0
 11
-96.89999873191118
 21
-40.44999869167805
 31
0.0
  0
LINE
  5
3AB
330
1F
100
AcDbEntity
  8
16
  6
Continuous
 62
     3
370
    25
100
AcDbLine
 10
-96.89999873191118
 20
-40.44999869167805
 30
0.0
 11
-96.89999873191118
 21
-40.37999869182706
 31
0.0
  0
LINE
  5
3AC
330
1F
100
AcDbEntity
  8
16
  6
Continuous
 62
     3
370
    25
100
AcDbLine
 10
-96.89999873191118
 20
-40.37999869182706
 30
0.0
 11
-96.59999872744083
 21
-40.37999869182706
 31
0.0
  0
LINE
  5
3AD
330
1F
100
AcDbEntity
  8
16
  6
Continuous
 62
     3
370
    25
100
AcDbLine
 10
-96.59999872744083
 20
-40.37999869182706
 30
0.0
 11
-96.59999872744083
 21
-40.44999869167805
 31
0.0
  0
LINE
  5
3AE
330
1F
100
AcDbEntity
  8
16
  6
Continuous
 62
     3
370
    25
100
AcDbLine
 10
-93.8999986872077
 20
-40.44999869167805
 30
0.0
 11
-93.8999986872077
 21
-42.34999871999025
 31
0.0
  0
LINE
  5
3AF
330
1F
100
AcDbEntity
  8
16
  6
Continuous
 62
     3
370
    25
100
AcDbLine
 10
-93.8999986872077
 20
-42.34999871999025
 30
0.0
 11
-93.59999868273735
 21
-42.34999871999025
 31
0.0
  0
LINE
  5
3B0
330
1F
100
AcDbEntity
  8
16
  6
Continuous
 62
     3
370
    25
100
AcDbLine
 10
-93.59999868273735
 20
-42.34999871999025
 30
0.0
 11
-93.59999868273735
 21
-40.44999869167805
 31
0.0
  0
LINE
  5
3B1
330
1F
100
AcDbEntity
  8
16
  6
Continuous
 62
     3
370
    25
100
AcDbLine
 10
-93.59999868273735
 20
-40.44999869167805
 30
0.0
 11
-93.8999986872077
 21
-40.44999869167805
 31
0.0
  0
LINE
  5
3B2
330
1F
100
AcDbEntity
  8
16
  6
Continuous
 62
     3
370
    25
100
AcDbLine
 10
-93.8999986872077
 20
-40.44999869167805
 30
0.0
 11
-93.8999986872077
 21
-40.37999869182706
 31
0.0
  0
LINE
  5
3B3
330
1F
100
AcDbEntity
  8
16
  6
Continuous
 62
     3
370
    25
100
AcDbLine
 10
-93.8999986872077
 20
-40.37999869182706
 30
0.0
 11
-93.59999868273735
 21
-40.37999869182706
 31
0.0
  0
LINE
  5
3B4
330
1F
100
AcDbEntity
  8
16
  6
Continuous
 62
     3
370
    25
100
AcDbLine
 10
-93.59999868273735
 20
-40.37999869182706
 30
0.0
 11
-93.59999868273735
 21
-40.44999869167805
 31
0.0
  0
LINE
  5
3B5
330
1F
100
AcDbEntity
  8
16
  6
Continuous
 62
     3
370
    25
100
AcDbLine
 10
-90.89999864250422
 20
-40.44999869167805
 30
0.0
 11
-90.89999864250422
 21
-42.34999871999025
 31
0.0
  0
LINE
  5
3B6
330
1F
100
AcDbEntity
  8
16
  6
Continuous
 62
     3
370
    25
100
AcDbLine
 10
-90.89999864250422
 20
-42.34999871999025
 30
0.0
 11
-90.59999863803387
 21
-42.34999871999025
 31
0.0
  0
LINE
  5
3B7
330
1F
100
AcDbEntity
  8
16
  6
Continuous
 62
     3
370
    25
100
AcDbLine
 10
-90.59999863803387
 20
-42.34999871999025
 30
0.0
 11
-90.59999863803387
 21
-40.44999869167805
 31
0.0
  0
LINE
  5
3B8
330
1F
100
AcDbEntity
  8
16
  6
Continuous
 62
     3
370
    25
100
AcDbLine
 10
-90.59999863803387
 20
-40.44999869167805
 30
0.0
 11
-90.89999864250422
 21
-40.44999869167805
 31
0.0
  0
LINE
  5
3B9
330
1F
100
AcDbEntity
  8
16
  6
Continuous
 62
     3
370
    25
100
AcDbLine
 10
-90.89999864250422
 20
-40.44999869167805
 30
0.0
 11
-90.89999864250422
 21
-40.37999869182706
 31
0.0
  0
LINE
  5
3BA
330
1F
100
AcDbEntity
  8
16
  6
Continuous
 62
     3
370
    25
100
AcDbLine
 10
-90.89999864250422
 20
-40.37999869182706
 30
0.0
 11
-90.59999863803387
 21
-40.37999869182706
 31
0.0
  0
LINE
  5
3BB
330
1F
100
AcDbEntity
  8
16
  6
Continuous
 62
     3
370
    25
100
AcDbLine
 10
-90.59999863803387
 20
-40.37999869182706
 30
0.0
 11
-90.59999863803387
 21
-40.44999869167805
 31
0.0
  0
LINE
  5
3BC
330
1F
100
AcDbEntity
  8
16
  6
Continuous
 62
     3
370
    25
100
AcDbLine
 10
-87.89999859780073
 20
-40.44999869167805
 30
0.0
 11
-87.89999859780073
 21
-42.34999871999025
 31
0.0
  0
LINE
  5
3BD
330
1F
100
AcDbEntity
  8
16
  6
Continuous
 62
     3
370
    25
100
AcDbLine
 10
-87.89999859780073
 20
-42.34999871999025
 30
0.0
 11
-87.59999859333038
 21
-42.34999871999025
 31
0.0
  0
LINE
  5
3BE
330
1F
100
AcDbEntity
  8
16
  6
Continuous
 62
     3
370
    25
100
AcDbLine
 10
-87.59999859333038
 20
-42.34999871999025
 30
0.0
 11
-87.59999859333038
 21
-40.44999869167805
 31
0.0
  0
LINE
  5
3BF
330
1F
100
AcDbEntity
  8
16
  6
Continuous
 62
     3
370
    25
100
AcDbLine
 10
-87.59999859333038
 20
-40.44999869167805
 30
0.0
 11
-87.89999859780073
 21
-40.44999869167805
 31
0.0
  0
LINE
  5
3C0
330
1F
100
AcDbEntity
  8
16
  6
Continuous
 62
     3
370
    25
100
AcDbLine
 10
-87.89999859780073
 20
-40.44999869167805
 30
0.0
 11
-87.89999859780073
 21
-40.37999869182706
 31
0.0
  0
LINE
  5
3C1
330
1F
100
AcDbEntity
  8
16
  6
Continuous
 62
     3
370
    25
100
AcDbLine
 10
-87.89999859780073
 20
-40.37999869182706
 30
0.0
 11
-87.59999859333038
 21
-40.37999869182706
 31
0.0
  0
LINE
  5
3C2
330
1F
100
AcDbEntity
  8
16
  6
Continuous
 62
     3
370
    25
100
AcDbLine
 10
-87.59999859333038
 20
-40.37999869182706
 30
0.0
 11
-87.59999859333038
 21
-40.44999869167805
 31
0.0
  0
LINE
  5
3C3
330
1F
100
AcDbEntity
  8
16
  6
Continuous
 62
     3
370
    25
100
AcDbLine
 10
-84.89999855309725
 20
-40.44999869167805
 30
0.0
 11
-84.89999855309725
 21
-42.34999871999025
 31
0.0
  0
LINE
  5
3C4
330
1F
100
AcDbEntity
  8
16
  6
Continuous
 62
     3
370
    25
100
AcDbLine
 10
-84.89999855309725
 20
-42.34999871999025
 30
0.0
 11
-84.5999985486269
 21
-42.34999871999025
 31
0.0
  0
LINE
  5
3C5
330
1F
100
AcDbEntity
  8
16
  6
Continuous
 62
     3
370
    25
100
AcDbLine
 10
-84.5999985486269
 20
-42.34999871999025
 30
0.0
 11
-84.5999985486269
 21
-40.44999869167805
 31
0.0
  0
LINE
  5
3C6
330
1F
100
AcDbEntity
  8
16
  6
Continuous
 62
     3
370
    25
100
AcDbLine
 10
-84.5999985486269
 20
-40.44999869167805
 30
0.0
 11
-84.89999855309725
 21
-40.44999869167805
 31
0.0
  0
LINE
  5
3C7
330
1F
100
AcDbEntity
  8
16
  6
Continuous
 62
     3
370
    25
100
AcDbLine
 10
-84.89999855309725
 20
-40.44999869167805
 30
0.0
 11
-84.89999855309725
 21
-40.37999869182706
 31
0.0
  0
LINE
  5
3C8
330
1F
100
AcDbEntity
  8
16
  6
Continuous
 62
     3
370
    25
100
AcDbLine
 10
-84.89999855309725
 20
-40.37999869182706
 30
0.0
 11
-84.5999985486269
 21
-40.37999869182706
 31
0.0
  0
LINE
  5
3C9
330
1F
100
AcDbEntity
  8
16
  6
Continuous
 62
     3
370
    25
100
AcDbLine
 10
-84.5999985486269
 20
-40.37999869182706
 30
0.0
 11
-84.5999985486269
 21
-40.44999869167805
 31
0.0
  0
LINE
  5
3CA
330
1F
100
AcDbEntity
  8
16
  6
Continuous
 62
     3
370
    25
100
AcDbLine
 10
-81.89999850839376
 20
-40.44999869167805
 30
0.0
 11
-81.89999850839376
 21
-42.34999871999025
 31
0.0
  0
LINE
  5
3CB
330
1F
100
AcDbEntity
  8
16
  6
Continuous
 62
     3
370
    25
100
AcDbLine
 10
-81.89999850839376
 20
-42.34999871999025
 30
0.0
 11
-81.59999850392342
 21
-42.34999871999025
 31
0.0
  0
LINE
  5
3CC
330
1F
100
AcDbEntity
  8
16
  6
Continuous
 62
     3
370
    25
100
AcDbLine
 10
-81.59999850392342
 20
-42.34999871999025
 30
0.0
 11
-81.59999850392342
 21
-40.44999869167805
 31
0.0
  0
LINE
  5
3CD
330
1F
100
AcDbEntity
  8
16
  6
Continuous
 62
     3
370
    25
100
AcDbLine
 10
-81.59999850392342
 20
-40.44999869167805
 30
0.0
 11
-81.89999850839376
 21
-40.44999869167805
 31
0.0
  0
LINE
  5
3CE
330
1F
100
AcDbEntity
  8
16
  6
Continuous
 62
     3
370
    25
100
AcDbLine
 10
-81.89999850839376
 20
-40.44999869167805
 30
0.0
 11
-81.89999850839376
 21
-40.37999869182706
 31
0.0
  0
LINE
  5
3CF
330
1F
100
AcDbEntity
  8
16
  6
Continuous
 62
     3
370
    25
100
AcDbLine
 10
-81.89999850839376
 20
-40.37999869182706
 30
0.0
 11
-81.59999850392342
 21
-40.37999869182706
 31
0.0
  0
LINE
  5
3D0
330
1F
100
AcDbEntity
  8
16
  6
Continuous
 62
     3
370
    25
100
AcDbLine
 10
-81.59999850392342
 20
-40.37999869182706
 30
0.0
 11
-81.59999850392342
 21
-40.44999869167805
 31
0.0
  0
LINE
  5
3D1
330
1F
100
AcDbEntity
  8
16
  6
Continuous
 62
     3
370
    25
100
AcDbLine
 10
-78.89999846369028
 20
-40.44999869167805
 30
0.0
 11
-78.89999846369028
 21
-42.34999871999025
 31
0.0
  0
LINE
  5
3D2
330
1F
100
AcDbEntity
  8
16
  6
Continuous
 62
     3
370
    25
100
AcDbLine
 10
-78.89999846369028
 20
-42.34999871999025
 30
0.0
 11
-78.59999845921993
 21
-42.34999871999025
 31
0.0
  0
LINE
  5
3D3
330
1F
100
AcDbEntity
  8
16
  6
Continuous
 62
     3
370
    25
100
AcDbLine
 10
-78.59999845921993
 20
-42.34999871999025
 30
0.0
 11
-78.59999845921993
 21
-40.44999869167805
 31
0.0
  0
LINE
  5
3D4
330
1F
100
AcDbEntity
  8
16
  6
Continuous
 62
     3
370
    25
100
AcDbLine
 10
-78.59999845921993
 20
-40.44999869167805
 30
0.0
 11
-78.89999846369028
 21
-40.44999869167805
 31
0.0
  0
LINE
  5
3D5
330
1F
100
AcDbEntity
  8
16
  6
Continuous
 62
     3
370
    25
100
AcDbLine
 10
-78.89999846369028
 20
-40.44999869167805
 30
0.0
 11
-78.89999846369028
 21
-40.37999869182706
 31
0.0
  0
LINE
  5
3D6
330
1F
100
AcDbEntity
  8
16
  6
Continuous
 62
     3
370
    25
100
AcDbLine
 10
-78.89999846369028
 20
-40.37999869182706
 30
0.0
 11
-78.59999845921993
 21
-40.37999869182706
 31
0.0
  0
LINE
  5
3D7
330
1F
100
AcDbEntity
  8
16
  6
Continuous
 62
     3
370
    25
100
AcDbLine
 10
-78.59999845921993
 20
-40.37999869182706
 30
0.0
 11
-78.59999845921993
 21
-40.44999869167805
 31
0.0
  0
LINE
  5
3D8
330
1F
100
AcDbEntity
  8
16
  6
Continuous
 62
     3
370
    25
100
AcDbLine
 10
-75.8999984189868
 20
-40.44999869167805
 30
0.0
 11
-75.8999984189868
 21
-42.34999871999025
 31
0.0
  0
LINE
  5
3D9
330
1F
100
AcDbEntity
  8
16
  6
Continuous
 62
     3
370
    25
100
AcDbLine
 10
-75.8999984189868
 20
-42.34999871999025
 30
0.0
 11
-75.59999841451645
 21
-42.34999871999025
 31
0.0
  0
LINE
  5
3DA
330
1F
100
AcDbEntity
  8
16
  6
Continuous
 62
     3
370
    25
100
AcDbLine
 10
-75.59999841451645
 20
-42.34999871999025
 30
0.0
 11
-75.59999841451645
 21
-40.44999869167805
 31
0.0
  0
LINE
  5
3DB
330
1F
100
AcDbEntity
  8
16
  6
Continuous
 62
     3
370
    25
100
AcDbLine
 10
-75.59999841451645
 20
-40.44999869167805
 30
0.0
 11
-75.8999984189868
 21
-40.44999869167805
 31
0.0
  0
LINE
  5
3DC
330
1F
100
AcDbEntity
  8
16
  6
Continuous
 62
     3
370
    25
100
AcDbLine
 10
-75.8999984189868
 20
-40.44999869167805
 30
0.0
 11
-75.8999984189868
 21
-40.37999869182706
 31
0.0
  0
LINE
  5
3DD
330
1F
100
AcDbEntity
  8
16
  6
Continuous
 62
     3
370
    25
100
AcDbLine
 10
-75.8999984189868
 20
-40.37999869182706
 30
0.0
 11
-75.59999841451645
 21
-40.37999869182706
 31
0.0
  0
LINE
  5
3DE
330
1F
100
AcDbEntity
  8
16
  6
Continuous
 62
     3
370
    25
100
AcDbLine
 10
-75.59999841451645
 20
-40.37999869182706
 30
0.0
 11
-75.59999841451645
 21
-40.44999869167805
 31
0.0
  0
LINE
  5
3DF
330
1F
100
AcDbEntity
  8
16
  6
Continuous
 62
     3
370
    25
100
AcDbLine
 10
-72.89999837428331
 20
-40.44999869167805
 30
0.0
 11
-72.89999837428331
 21
-42.34999871999025
 31
0.0
  0
LINE
  5
3E0
330
1F
100
AcDbEntity
  8
16
  6
Continuous
 62
     3
370
    25
100
AcDbLine
 10
-72.89999837428331
 20
-42.34999871999025
 30
0.0
 11
-72.59999836981297
 21
-42.34999871999025
 31
0.0
  0
LINE
  5
3E1
330
1F
100
AcDbEntity
  8
16
  6
Continuous
 62
     3
370
    25
100
AcDbLine
 10
-72.59999836981297
 20
-42.34999871999025
 30
0.0
 11
-72.59999836981297
 21
-40.44999869167805
 31
0.0
  0
LINE
  5
3E2
330
1F
100
AcDbEntity
  8
16
  6
Continuous
 62
     3
370
    25
100
AcDbLine
 10
-72.59999836981297
 20
-40.44999869167805
 30
0.0
 11
-72.89999837428331
 21
-40.44999869167805
 31
0.0
  0
LINE
  5
3E3
330
1F
100
AcDbEntity
  8
16
  6
Continuous
 62
     3
370
    25
100
AcDbLine
 10
-72.89999837428331
 20
-40.44999869167805
 30
0.0
 11
-72.89999837428331
 21
-40.37999869182706
 31
0.0
  0
LINE
  5
3E4
330
1F
100
AcDbEntity
  8
16
  6
Continuous
 62
     3
370
    25
100
AcDbLine
 10
-72.89999837428331
 20
-40.37999869182706
 30
0.0
 11
-72.59999836981297
 21
-40.37999869182706
 31
0.0
  0
LINE
  5
3E5
330
1F
100
AcDbEntity
  8
16
  6
Continuous
 62
     3
370
    25
100
AcDbLine
 10
-72.59999836981297
 20
-40.37999869182706
 30
0.0
 11
-72.59999836981297
 21
-40.44999869167805
 31
0.0
  0
LINE
  5
3E6
330
1F
100
AcDbEntity
  8
16
  6
Continuous
 62
     3
370
    25
100
AcDbLine
 10
-69.89999832957983
 20
-40.44999869167805
 30
0.0
 11
-69.89999832957983
 21
-42.34999871999025
 31
0.0
  0
LINE
  5
3E7
330
1F
100
AcDbEntity
  8
16
  6
Continuous
 62
     3
370
    25
100
AcDbLine
 10
-69.89999832957983
 20
-42.34999871999025
 30
0.0
 11
-69.59999832510948
 21
-42.34999871999025
 31
0.0
  0
LINE
  5
3E8
330
1F
100
AcDbEntity
  8
16
  6
Continuous
 62
     3
370
    25
100
AcDbLine
 10
-69.59999832510948
 20
-42.34999871999025
 30
0.0
 11
-69.59999832510948
 21
-40.44999869167805
 31
0.0
  0
LINE
  5
3E9
330
1F
100
AcDbEntity
  8
16
  6
Continuous
 62
     3
370
    25
100
AcDbLine
 10
-69.59999832510948
 20
-40.44999869167805
 30
0.0
 11
-69.89999832957983
 21
-40.44999869167805
 31
0.0
  0
LINE
  5
3EA
330
1F
100
AcDbEntity
  8
16
  6
Continuous
 62
     3
370
    25
100
AcDbLine
 10
-69.89999832957983
 20
-40.44999869167805
 30
0.0
 11
-69.89999832957983
 21
-40.37999869182706
 31
0.0
  0
LINE
  5
3EB
330
1F
100
AcDbEntity
  8
16
  6
Continuous
 62
     3
370
    25
100
AcDbLine
 10
-69.89999832957983
 20
-40.37999869182706
 30
0.0
 11
-69.59999832510948
 21
-40.37999869182706
 31
0.0
  0
LINE
  5
3EC
330
1F
100
AcDbEntity
  8
16
  6
Continuous
 62
     3
370
    25
100
AcDbLine
 10
-69.59999832510948
 20
-40.37999869182706
 30
0.0
 11
-69.59999832510948
 21
-40.44999869167805
 31
0.0
  0
LINE
  5
3ED
330
1F
100
AcDbEntity
  8
16
  6
Continuous
 62
     3
370
    25
100
AcDbLine
 10
-66.89999828487635
 20
-40.44999869167805
 30
0.0
 11
-66.89999828487635
 21
-42.34999871999025
 31
0.0
  0
LINE
  5
3EE
330
1F
100
AcDbEntity
  8
16
  6
Continuous
 62
     3
370
    25
100
AcDbLine
 10
-66.89999828487635
 20
-42.34999871999025
 30
0.0
 11
-66.599998280406
 21
-42.34999871999025
 31
0.0
  0
LINE
  5
3EF
330
1F
100
AcDbEntity
  8
16
  6
Continuous
 62
     3
370
    25
100
AcDbLine
 10
-66.599998280406
 20
-42.34999871999025
 30
0.0
 11
-66.599998280406
 21
-40.44999869167805
 31
0.0
  0
LINE
  5
3F0
330
1F
100
AcDbEntity
  8
16
  6
Continuous
 62
     3
370
    25
100
AcDbLine
 10
-66.599998280406
 20
-40.44999869167805
 30
0.0
 11
-66.89999828487635
 21
-40.44999869167805
 31
0.0
  0
LINE
  5
3F1
330
1F
100
AcDbEntity
  8
16
  6
Continuous
 62
     3
370
    25
100
AcDbLine
 10
-66.89999828487635
 20
-40.44999869167805
 30
0.0
 11
-66.89999828487635
 21
-40.37999869182706
 31
0.0
  0
LINE
  5
3F2
330
1F
100
AcDbEntity
  8
16
  6
Continuous
 62
     3
370
    25
100
AcDbLine
 10
-66.89999828487635
 20
-40.37999869182706
 30
0.0
 11
-66.599998280406
 21
-40.37999869182706
 31
0.0
  0
LINE
  5
3F3
330
1F
100
AcDbEntity
  8
16
  6
Continuous
 62
     3
370
    25
100
AcDbLine
 10
-66.599998280406
 20
-40.37999869182706
 30
0.0
 11
-66.599998280406
 21
-40.44999869167805
 31
0.0
  0
LINE
  5
3F4
330
1F
100
AcDbEntity
  8
16
  6
Continuous
 62
     3
370
    25
100
AcDbLine
 10
-63.89999824017286
 20
-40.44999869167805
 30
0.0
 11
-63.89999824017286
 21
-42.34999871999025
 31
0.0
  0
LINE
  5
3F5
330
1F
100
AcDbEntity
  8
16
  6
Continuous
 62
     3
370
    25
100
AcDbLine
 10
-63.89999824017286
 20
-42.34999871999025
 30
0.0
 11
-63.59999823570251
 21
-42.34999871999025
 31
0.0
  0
LINE
  5
3F6
330
1F
100
AcDbEntity
  8
16
  6
Continuous
 62
     3
370
    25
100
AcDbLine
 10
-63.59999823570251
 20
-42.34999871999025
 30
0.0
 11
-63.59999823570251
 21
-40.44999869167805
 31
0.0
  0
LINE
  5
3F7
330
1F
100
AcDbEntity
  8
16
  6
Continuous
 62
     3
370
    25
100
AcDbLine
 10
-63.59999823570251
 20
-40.44999869167805
 30
0.0
 11
-63.89999824017286
 21
-40.44999869167805
 31
0.0
  0
LINE
  5
3F8
330
1F
100
AcDbEntity
  8
16
  6
Continuous
 62
     3
370
    25
100
AcDbLine
 10
-63.89999824017286
 20
-40.44999869167805
 30
0.0
 11
-63.89999824017286
 21
-40.37999869182706
 31
0.0
  0
LINE
  5
3F9
330
1F
100
AcDbEntity
  8
16
  6
Continuous
 62
     3
370
    25
100
AcDbLine
 10
-63.89999824017286
 20
-40.37999869182706
 30
0.0
 11
-63.59999823570251
 21
-40.37999869182706
 31
0.0
  0
LINE
  5
3FA
330
1F
100
AcDbEntity
  8
16
  6
Continuous
 62
     3
370
    25
100
AcDbLine
 10
-63.59999823570251
 20
-40.37999869182706
 30
0.0
 11
-63.59999823570251
 21
-40.44999869167805
 31
0.0
  0
LINE
  5
3FB
330
1F
100
AcDbEntity
  8
16
  6
Continuous
 62
     3
370
    25
100
AcDbLine
 10
-60.89999819546938
 20
-40.44999869167805
 30
0.0
 11
-60.89999819546938
 21
-42.34999871999025
 31
0.0
  0
LINE
  5
3FC
330
1F
100
AcDbEntity
  8
16
  6
Continuous
 62
     3
370
    25
100
AcDbLine
 10
-60.89999819546938
 20
-42.34999871999025
 30
0.0
 11
-60.59999819099903
 21
-42.34999871999025
 31
0.0
  0
LINE
  5
3FD
330
1F
100
AcDbEntity
  8
16
  6
Continuous
 62
     3
370
    25
100
AcDbLine
 10
-60.59999819099903
 20
-42.34999871999025
 30
0.0
 11
-60.59999819099903
 21
-40.44999869167805
 31
0.0
  0
LINE
  5
3FE
330
1F
100
AcDbEntity
  8
16
  6
Continuous
 62
     3
370
    25
100
AcDbLine
 10
-60.59999819099903
 20
-40.44999869167805
 30
0.0
 11
-60.89999819546938
 21
-40.44999869167805
 31
0.0
  0
LINE
  5
3FF
330
1F
100
AcDbEntity
  8
16
  6
Continuous
 62
     3
370
    25
100
AcDbLine
 10
-60.89999819546938
 20
-40.44999869167805
 30
0.0
 11
-60.89999819546938
 21
-40.37999869182706
 31
0.0
  0
LINE
  5
400
330
1F
100
AcDbEntity
  8
16
  6
Continuous
 62
     3
370
    25
100
AcDbLine
 10
-60.89999819546938
 20
-40.37999869182706
 30
0.0
 11
-60.59999819099903
 21
-40.37999869182706
 31
0.0
  0
LINE
  5
401
330
1F
100
AcDbEntity
  8
16
  6
Continuous
 62
     3
370
    25
100
AcDbLine
 10
-60.59999819099903
 20
-40.37999869182706
 30
0.0
 11
-60.59999819099903
 21
-40.44999869167805
 31
0.0
  0
LINE
  5
402
330
1F
100
AcDbEntity
  8
16
  6
Continuous
 62
     3
370
    25
100
AcDbLine
 10
-57.8999981507659
 20
-40.44999869167805
 30
0.0
 11
-57.8999981507659
 21
-42.34999871999025
 31
0.0
  0
LINE
  5
403
330
1F
100
AcDbEntity
  8
16
  6
Continuous
 62
     3
370
    25
100
AcDbLine
 10
-57.8999981507659
 20
-42.34999871999025
 30
0.0
 11
-57.59999814629555
 21
-42.34999871999025
 31
0.0
  0
LINE
  5
404
330
1F
100
AcDbEntity
  8
16
  6
Continuous
 62
     3
370
    25
100
AcDbLine
 10
-57.59999814629555
 20
-42.34999871999025
 30
0.0
 11
-57.59999814629555
 21
-40.44999869167805
 31
0.0
  0
LINE
  5
405
330
1F
100
AcDbEntity
  8
16
  6
Continuous
 62
     3
370
    25
100
AcDbLine
 10
-57.59999814629555
 20
-40.44999869167805
 30
0.0
 11
-57.8999981507659
 21
-40.44999869167805
 31
0.0
  0
LINE
  5
406
330
1F
100
AcDbEntity
  8
16
  6
Continuous
 62
     3
370
    25
100
AcDbLine
 10
-57.8999981507659
 20
-40.44999869167805
 30
0.0
 11
-57.8999981507659
 21
-40.37999869182706
 31
0.0
  0
LINE
  5
407
330
1F
100
AcDbEntity
  8
16
  6
Continuous
 62
     3
370
    25
100
AcDbLine
 10
-57.8999981507659
 20
-40.37999869182706
 30
0.0
 11
-57.59999814629555
 21
-40.37999869182706
 31
0.0
  0
LINE
  5
408
330
1F
100
AcDbEntity
  8
16
  6
Continuous
 62
     3
370
    25
100
AcDbLine
 10
-57.59999814629555
 20
-40.37999869182706
 30
0.0
 11
-57.59999814629555
 21
-40.44999869167805
 31
0.0
  0
LINE
  5
409
330
1F
100
AcDbEntity
  8
16
  6
Continuous
 62
     3
370
    25
100
AcDbLine
 10
-54.89999810606241
 20
-40.44999869167805
 30
0.0
 11
-54.89999810606241
 21
-42.34999871999025
 31
0.0
  0
LINE
  5
40A
330
1F
100
AcDbEntity
  8
16
  6
Continuous
 62
     3
370
    25
100
AcDbLine
 10
-54.89999810606241
 20
-42.34999871999025
 30
0.0
 11
-54.59999810159206
 21
-42.34999871999025
 31
0.0
  0
LINE
  5
40B
330
1F
100
AcDbEntity
  8
16
  6
Continuous
 62
     3
370
    25
100
AcDbLine
 10
-54.59999810159206
 20
-42.34999871999025
 30
0.0
 11
-54.59999810159206
 21
-40.44999869167805
 31
0.0
  0
LINE
  5
40C
330
1F
100
AcDbEntity
  8
16
  6
Continuous
 62
     3
370
    25
100
AcDbLine
 10
-54.59999810159206
 20
-40.44999869167805
 30
0.0
 11
-54.89999810606241
 21
-40.44999869167805
 31
0.0
  0
LINE
  5
40D
330
1F
100
AcDbEntity
  8
16
  6
Continuous
 62
     3
370
    25
100
AcDbLine
 10
-54.89999810606241
 20
-40.44999869167805
 30
0.0
 11
-54.89999810606241
 21
-40.37999869182706
 31
0.0
  0
LINE
  5
40E
330
1F
100
AcDbEntity
  8
16
  6
Continuous
 62
     3
370
    25
100
AcDbLine
 10
-54.89999810606241
 20
-40.37999869182706
 30
0.0
 11
-54.59999810159206
 21
-40.37999869182706
 31
0.0
  0
LINE
  5
40F
330
1F
100
AcDbEntity
  8
16
  6
Continuous
 62
     3
370
    25
100
AcDbLine
 10
-54.59999810159206
 20
-40.37999869182706
 30
0.0
 11
-54.59999810159206
 21
-40.44999869167805
 31
0.0
  0
LINE
  5
410
330
1F
100
AcDbEntity
  8
16
  6
Continuous
 62
     3
370
    25
100
AcDbLine
 10
-51.89999806135893
 20
-40.44999869167805
 30
0.0
 11
-51.89999806135893
 21
-42.34999871999025
 31
0.0
  0
LINE
  5
411
330
1F
100
AcDbEntity
  8
16
  6
Continuous
 62
     3
370
    25
100
AcDbLine
 10
-51.89999806135893
 20
-42.34999871999025
 30
0.0
 11
-51.59999805688858
 21
-42.34999871999025
 31
0.0
  0
LINE
  5
412
330
1F
100
AcDbEntity
  8
16
  6
Continuous
 62
     3
370
    25
100
AcDbLine
 10
-51.59999805688858
 20
-42.34999871999025
 30
0.0
 11
-51.59999805688858
 21
-40.44999869167805
 31
0.0
  0
LINE
  5
413
330
1F
100
AcDbEntity
  8
16
  6
Continuous
 62
     3
370
    25
100
AcDbLine
 10
-51.59999805688858
 20
-40.44999869167805
 30
0.0
 11
-51.89999806135893
 21
-40.44999869167805
 31
0.0
  0
LINE
  5
414
330
1F
100
AcDbEntity
  8
16
  6
Continuous
 62
     3
370
    25
100
AcDbLine
 10
-51.89999806135893
 20
-40.44999869167805
 30
0.0
 11
-51.89999806135893
 21
-40.37999869182706
 31
0.0
  0
LINE
  5
415
330
1F
100
AcDbEntity
  8
16
  6
Continuous
 62
     3
370
    25
100
AcDbLine
 10
-51.89999806135893
 20
-40.37999869182706
 30
0.0
 11
-51.59999805688858
 21
-40.37999869182706
 31
0.0
  0
LINE
  5
416
330
1F
100
AcDbEntity
  8
16
  6
Continuous
 62
     3
370
    25
100
AcDbLine
 10
-51.59999805688858
 20
-40.37999869182706
 30
0.0
 11
-51.59999805688858
 21
-40.44999869167805
 31
0.0
  0
LINE
  5
417
330
1F
100
AcDbEntity
  8
16
  6
Continuous
 62
     3
370
    25
100
AcDbLine
 10
-48.89999801665544
 20
-40.44999869167805
 30
0.0
 11
-48.89999801665544
 21
-42.34999871999025
 31
0.0
  0
LINE
  5
418
330
1F
100
AcDbEntity
  8
16
  6
Continuous
 62
     3
370
    25
100
AcDbLine
 10
-48.89999801665544
 20
-42.34999871999025
 30
0.0
 11
-48.5999980121851
 21
-42.34999871999025
 31
0.0
  0
LINE
  5
419
330
1F
100
AcDbEntity
  8
16
  6
Continuous
 62
     3
370
    25
100
AcDbLine
 10
-48.5999980121851
 20
-42.34999871999025
 30
0.0
 11
-48.5999980121851
 21
-40.44999869167805
 31
0.0
  0
LINE
  5
41A
330
1F
100
AcDbEntity
  8
16
  6
Continuous
 62
     3
370
    25
100
AcDbLine
 10
-48.5999980121851
 20
-40.44999869167805
 30
0.0
 11
-48.89999801665544
 21
-40.44999869167805
 31
0.0
  0
LINE
  5
41B
330
1F
100
AcDbEntity
  8
16
  6
Continuous
 62
     3
370
    25
100
AcDbLine
 10
-48.89999801665544
 20
-40.44999869167805
 30
0.0
 11
-48.89999801665544
 21
-40.37999869182706
 31
0.0
  0
LINE
  5
41C
330
1F
100
AcDbEntity
  8
16
  6
Continuous
 62
     3
370
    25
100
AcDbLine
 10
-48.89999801665544
 20
-40.37999869182706
 30
0.0
 11
-48.5999980121851
 21
-40.37999869182706
 31
0.0
  0
LINE
  5
41D
330
1F
100
AcDbEntity
  8
16
  6
Continuous
 62
     3
370
    25
100
AcDbLine
 10
-48.5999980121851
 20
-40.37999869182706
 30
0.0
 11
-48.5999980121851
 21
-40.44999869167805
 31
0.0
  0
LINE
  5
41E
330
1F
100
AcDbEntity
  8
16
  6
Continuous
 62
     3
370
    25
100
AcDbLine
 10
-45.89999797195196
 20
-40.44999869167805
 30
0.0
 11
-45.89999797195196
 21
-42.34999871999025
 31
0.0
  0
LINE
  5
41F
330
1F
100
AcDbEntity
  8
16
  6
Continuous
 62
     3
370
    25
100
AcDbLine
 10
-45.89999797195196
 20
-42.34999871999025
 30
0.0
 11
-45.59999796748161
 21
-42.34999871999025
 31
0.0
  0
LINE
  5
420
330
1F
100
AcDbEntity
  8
16
  6
Continuous
 62
     3
370
    25
100
AcDbLine
 10
-45.59999796748161
 20
-42.34999871999025
 30
0.0
 11
-45.59999796748161
 21
-40.44999869167805
 31
0.0
  0
LINE
  5
421
330
1F
100
AcDbEntity
  8
16
  6
Continuous
 62
     3
370
    25
100
AcDbLine
 10
-45.59999796748161
 20
-40.44999869167805
 30
0.0
 11
-45.89999797195196
 21
-40.44999869167805
 31
0.0
  0
LINE
  5
422
330
1F
100
AcDbEntity
  8
16
  6
Continuous
 62
     3
370
    25
100
AcDbLine
 10
-45.89999797195196
 20
-40.44999869167805
 30
0.0
 11
-45.89999797195196
 21
-40.37999869182706
 31
0.0
  0
LINE
  5
423
330
1F
100
AcDbEntity
  8
16
  6
Continuous
 62
     3
370
    25
100
AcDbLine
 10
-45.89999797195196
 20
-40.37999869182706
 30
0.0
 11
-45.59999796748161
 21
-40.37999869182706
 31
0.0
  0
LINE
  5
424
330
1F
100
AcDbEntity
  8
16
  6
Continuous
 62
     3
370
    25
100
AcDbLine
 10
-45.59999796748161
 20
-40.37999869182706
 30
0.0
 11
-45.59999796748161
 21
-40.44999869167805
 31
0.0
  0
LINE
  5
425
330
1F
100
AcDbEntity
  8
16
  6
Continuous
 62
     3
370
    25
100
AcDbLine
 10
-42.69999792426825
 20
-40.44999869167805
 30
0.0
 11
-42.69999792426825
 21
-42.34999871999025
 31
0.0
  0
LINE
  5
426
330
1F
100
AcDbEntity
  8
16
  6
Continuous
 62
     3
370
    25
100
AcDbLine
 10
-42.69999792426825
 20
-42.34999871999025
 30
0.0
 11
-42.3999979197979
 21
-42.34999871999025
 31
0.0
  0
LINE
  5
427
330
1F
100
AcDbEntity
  8
16
  6
Continuous
 62
     3
370
    25
100
AcDbLine
 10
-42.3999979197979
 20
-42.34999871999025
 30
0.0
 11
-42.3999979197979
 21
-40.44999869167805
 31
0.0
  0
LINE
  5
428
330
1F
100
AcDbEntity
  8
16
  6
Continuous
 62
     3
370
    25
100
AcDbLine
 10
-42.3999979197979
 20
-40.44999869167805
 30
0.0
 11
-42.69999792426825
 21
-40.44999869167805
 31
0.0
  0
LINE
  5
429
330
1F
100
AcDbEntity
  8
16
  6
Continuous
 62
     3
370
    25
100
AcDbLine
 10
-42.69999792426825
 20
-40.44999869167805
 30
0.0
 11
-42.69999792426825
 21
-40.37999869182706
 31
0.0
  0
LINE
  5
42A
330
1F
100
AcDbEntity
  8
16
  6
Continuous
 62
     3
370
    25
100
AcDbLine
 10
-42.69999792426825
 20
-40.37999869182706
 30
0.0
 11
-42.3999979197979
 21
-40.37999869182706
 31
0.0
  0
LINE
  5
42B
330
1F
100
AcDbEntity
  8
16
  6
Continuous
 62
     3
370
    25
100
AcDbLine
 10
-42.3999979197979
 20
-40.37999869182706
 30
0.0
 11
-42.3999979197979
 21
-40.44999869167805
 31
0.0
  0
LINE
  5
42C
330
1F
100
AcDbEntity
  8
16
  6
Continuous
 62
     3
370
    25
100
AcDbLine
 10
-141.8999994024634
 20
-40.44999869167805
 30
0.0
 11
-141.8999994024634
 21
-43.44999873638153
 31
0.0
  0
LINE
  5
42D
330
1F
100
AcDbEntity
  8
16
  6
Continuous
 62
     3
370
    25
100
AcDbLine
 10
-141.8999994024634
 20
-43.44999873638153
 30
0.0
 11
-42.3999979197979
 21
-43.44999873638153
 31
0.0
  0
LINE
  5
42E
330
1F
100
AcDbEntity
  8
16
  6
Continuous
 62
     3
370
    25
100
AcDbLine
 10
-42.3999979197979
 20
-43.44999873638153
 30
0.0
 11
-42.3999979197979
 21
-40.44999869167805
 31
0.0
  0
LINE
  5
42F
330
1F
100
AcDbEntity
  8
16
  6
Continuous
 62
     3
370
    25
100
AcDbLine
 10
-141.5999993979931
 20
-40.44999869167805
 30
0.0
 11
-138.8999993577599
 21
-40.44999869167805
 31
0.0
  0
LINE
  5
430
330
1F
100
AcDbEntity
  8
16
  6
Continuous
 62
     3
370
    25
100
AcDbLine
 10
-141.5999993979931
 20
-40.99999869987369
 30
0.0
 11
-138.8999993577599
 21
-40.44999869167805
 31
0.0
  0
LINE
  5
431
330
1F
100
AcDbEntity
  8
16
  6
Continuous
 62
     3
370
    25
100
AcDbLine
 10
-141.5999993979931
 20
-40.99999869987369
 30
0.0
 11
-138.8999993577599
 21
-40.99999869987369
 31
0.0
  0
LINE
  5
432
330
1F
100
AcDbEntity
  8
16
  6
Continuous
 62
     3
370
    25
100
AcDbLine
 10
-138.5999993532896
 20
-40.44999869167805
 30
0.0
 11
-135.8999993130565
 21
-40.44999869167805
 31
0.0
  0
LINE
  5
433
330
1F
100
AcDbEntity
  8
16
  6
Continuous
 62
     3
370
    25
100
AcDbLine
 10
-138.5999993532896
 20
-40.99999869987369
 30
0.0
 11
-135.8999993130565
 21
-40.44999869167805
 31
0.0
  0
LINE
  5
434
330
1F
100
AcDbEntity
  8
16
  6
Continuous
 62
     3
370
    25
100
AcDbLine
 10
-138.5999993532896
 20
-40.99999869987369
 30
0.0
 11
-135.8999993130565
 21
-40.99999869987369
 31
0.0
  0
LINE
  5
435
330
1F
100
AcDbEntity
  8
16
  6
Continuous
 62
     3
370
    25
100
AcDbLine
 10
-135.5999993085861
 20
-40.44999869167805
 30
0.0
 11
-132.899999268353
 21
-40.44999869167805
 31
0.0
  0
LINE
  5
436
330
1F
100
AcDbEntity
  8
16
  6
Continuous
 62
     3
370
    25
100
AcDbLine
 10
-135.5999993085861
 20
-40.99999869987369
 30
0.0
 11
-132.899999268353
 21
-40.44999869167805
 31
0.0
  0
LINE
  5
437
330
1F
100
AcDbEntity
  8
16
  6
Continuous
 62
     3
370
    25
100
AcDbLine
 10
-135.5999993085861
 20
-40.99999869987369
 30
0.0
 11
-132.899999268353
 21
-40.99999869987369
 31
0.0
  0
LINE
  5
438
330
1F
100
AcDbEntity
  8
16
  6
Continuous
 62
     3
370
    25
100
AcDbLine
 10
-132.5999992638826
 20
-40.44999869167805
 30
0.0
 11
-129.8999992236495
 21
-40.44999869167805
 31
0.0
  0
LINE
  5
439
330
1F
100
AcDbEntity
  8
16
  6
Continuous
 62
     3
370
    25
100
AcDbLine
 10
-132.5999992638826
 20
-40.99999869987369
 30
0.0
 11
-129.8999992236495
 21
-40.44999869167805
 31
0.0
  0
LINE
  5
43A
330
1F
100
AcDbEntity
  8
16
  6
Continuous
 62
     3
370
    25
100
AcDbLine
 10
-132.5999992638826
 20
-40.99999869987369
 30
0.0
 11
-129.8999992236495
 21
-40.99999869987369
 31
0.0
  0
LINE
  5
43B
330
1F
100
AcDbEntity
  8
16
  6
Continuous
 62
     3
370
    25
100
AcDbLine
 10
-129.5999992191792
 20
-40.44999869167805
 30
0.0
 11
-126.899999178946
 21
-40.44999869167805
 31
0.0
  0
LINE
  5
43C
330
1F
100
AcDbEntity
  8
16
  6
Continuous
 62
     3
370
    25
100
AcDbLine
 10
-129.5999992191792
 20
-40.99999869987369
 30
0.0
 11
-126.899999178946
 21
-40.44999869167805
 31
0.0
  0
LINE
  5
43D
330
1F
100
AcDbEntity
  8
16
  6
Continuous
 62
     3
370
    25
100
AcDbLine
 10
-129.5999992191792
 20
-40.99999869987369
 30
0.0
 11
-126.899999178946
 21
-40.99999869987369
 31
0.0
  0
LINE
  5
43E
330
1F
100
AcDbEntity
  8
16
  6
Continuous
 62
     3
370
    25
100
AcDbLine
 10
-126.5999991744757
 20
-40.44999869167805
 30
0.0
 11
-123.8999991342425
 21
-40.44999869167805
 31
0.0
  0
LINE
  5
43F
330
1F
100
AcDbEntity
  8
16
  6
Continuous
 62
     3
370
    25
100
AcDbLine
 10
-126.5999991744757
 20
-40.99999869987369
 30
0.0
 11
-123.8999991342425
 21
-40.44999869167805
 31
0.0
  0
LINE
  5
440
330
1F
100
AcDbEntity
  8
16
  6
Continuous
 62
     3
370
    25
100
AcDbLine
 10
-126.5999991744757
 20
-40.99999869987369
 30
0.0
 11
-123.8999991342425
 21
-40.99999869987369
 31
0.0
  0
LINE
  5
441
330
1F
100
AcDbEntity
  8
16
  6
Continuous
 62
     3
370
    25
100
AcDbLine
 10
-123.5999991297722
 20
-40.44999869167805
 30
0.0
 11
-120.8999990895391
 21
-40.44999869167805
 31
0.0
  0
LINE
  5
442
330
1F
100
AcDbEntity
  8
16
  6
Continuous
 62
     3
370
    25
100
AcDbLine
 10
-123.5999991297722
 20
-40.99999869987369
 30
0.0
 11
-120.8999990895391
 21
-40.44999869167805
 31
0.0
  0
LINE
  5
443
330
1F
100
AcDbEntity
  8
16
  6
Continuous
 62
     3
370
    25
100
AcDbLine
 10
-123.5999991297722
 20
-40.99999869987369
 30
0.0
 11
-120.8999990895391
 21
-40.99999869987369
 31
0.0
  0
LINE
  5
444
330
1F
100
AcDbEntity
  8
16
  6
Continuous
 62
     3
370
    25
100
AcDbLine
 10
-120.5999990850687
 20
-40.44999869167805
 30
0.0
 11
-117.8999990448356
 21
-40.44999869167805
 31
0.0
  0
LINE
  5
445
330
1F
100
AcDbEntity
  8
16
  6
Continuous
 62
     3
370
    25
100
AcDbLine
 10
-120.5999990850687
 20
-40.99999869987369
 30
0.0
 11
-117.8999990448356
 21
-40.44999869167805
 31
0.0
  0
LINE
  5
446
330
1F
100
AcDbEntity
  8
16
  6
Continuous
 62
     3
370
    25
100
AcDbLine
 10
-120.5999990850687
 20
-40.99999869987369
 30
0.0
 11
-117.8999990448356
 21
-40.99999869987369
 31
0.0
  0
LINE
  5
447
330
1F
100
AcDbEntity
  8
16
  6
Continuous
 62
     3
370
    25
100
AcDbLine
 10
-117.5999990403652
 20
-40.44999869167805
 30
0.0
 11
-114.8999990001321
 21
-40.44999869167805
 31
0.0
  0
LINE
  5
448
330
1F
100
AcDbEntity
  8
16
  6
Continuous
 62
     3
370
    25
100
AcDbLine
 10
-117.5999990403652
 20
-40.99999869987369
 30
0.0
 11
-114.8999990001321
 21
-40.44999869167805
 31
0.0
  0
LINE
  5
449
330
1F
100
AcDbEntity
  8
16
  6
Continuous
 62
     3
370
    25
100
AcDbLine
 10
-117.5999990403652
 20
-40.99999869987369
 30
0.0
 11
-114.8999990001321
 21
-40.99999869987369
 31
0.0
  0
LINE
  5
44A
330
1F
100
AcDbEntity
  8
16
  6
Continuous
 62
     3
370
    25
100
AcDbLine
 10
-114.5999989956617
 20
-40.44999869167805
 30
0.0
 11
-111.8999989554286
 21
-40.44999869167805
 31
0.0
  0
LINE
  5
44B
330
1F
100
AcDbEntity
  8
16
  6
Continuous
 62
     3
370
    25
100
AcDbLine
 10
-114.5999989956617
 20
-40.99999869987369
 30
0.0
 11
-111.8999989554286
 21
-40.44999869167805
 31
0.0
  0
LINE
  5
44C
330
1F
100
AcDbEntity
  8
16
  6
Continuous
 62
     3
370
    25
100
AcDbLine
 10
-114.5999989956617
 20
-40.99999869987369
 30
0.0
 11
-111.8999989554286
 21
-40.99999869987369
 31
0.0
  0
LINE
  5
44D
330
1F
100
AcDbEntity
  8
16
  6
Continuous
 62
     3
370
    25
100
AcDbLine
 10
-111.5999989509583
 20
-40.44999869167805
 30
0.0
 11
-108.8999989107251
 21
-40.44999869167805
 31
0.0
  0
LINE
  5
44E
330
1F
100
AcDbEntity
  8
16
  6
Continuous
 62
     3
370
    25
100
AcDbLine
 10
-111.5999989509583
 20
-40.99999869987369
 30
0.0
 11
-108.8999989107251
 21
-40.44999869167805
 31
0.0
  0
LINE
  5
44F
330
1F
100
AcDbEntity
  8
16
  6
Continuous
 62
     3
370
    25
100
AcDbLine
 10
-111.5999989509583
 20
-40.99999869987369
 30
0.0
 11
-108.8999989107251
 21
-40.99999869987369
 31
0.0
  0
LINE
  5
450
330
1F
100
AcDbEntity
  8
16
  6
Continuous
 62
     3
370
    25
100
AcDbLine
 10
-108.5999989062548
 20
-40.44999869167805
 30
0.0
 11
-105.8999988660216
 21
-40.44999869167805
 31
0.0
  0
LINE
  5
451
330
1F
100
AcDbEntity
  8
16
  6
Continuous
 62
     3
370
    25
100
AcDbLine
 10
-108.5999989062548
 20
-40.99999869987369
 30
0.0
 11
-105.8999988660216
 21
-40.44999869167805
 31
0.0
  0
LINE
  5
452
330
1F
100
AcDbEntity
  8
16
  6
Continuous
 62
     3
370
    25
100
AcDbLine
 10
-108.5999989062548
 20
-40.99999869987369
 30
0.0
 11
-105.8999988660216
 21
-40.99999869987369
 31
0.0
  0
LINE
  5
453
330
1F
100
AcDbEntity
  8
16
  6
Continuous
 62
     3
370
    25
100
AcDbLine
 10
-105.5999988615513
 20
-40.44999869167805
 30
0.0
 11
-102.8999988213181
 21
-40.44999869167805
 31
0.0
  0
LINE
  5
454
330
1F
100
AcDbEntity
  8
16
  6
Continuous
 62
     3
370
    25
100
AcDbLine
 10
-105.5999988615513
 20
-40.99999869987369
 30
0.0
 11
-102.8999988213181
 21
-40.44999869167805
 31
0.0
  0
LINE
  5
455
330
1F
100
AcDbEntity
  8
16
  6
Continuous
 62
     3
370
    25
100
AcDbLine
 10
-105.5999988615513
 20
-40.99999869987369
 30
0.0
 11
-102.8999988213181
 21
-40.99999869987369
 31
0.0
  0
LINE
  5
456
330
1F
100
AcDbEntity
  8
16
  6
Continuous
 62
     3
370
    25
100
AcDbLine
 10
-102.5999988168478
 20
-40.44999869167805
 30
0.0
 11
-99.89999877661467
 21
-40.44999869167805
 31
0.0
  0
LINE
  5
457
330
1F
100
AcDbEntity
  8
16
  6
Continuous
 62
     3
370
    25
100
AcDbLine
 10
-102.5999988168478
 20
-40.99999869987369
 30
0.0
 11
-99.89999877661467
 21
-40.44999869167805
 31
0.0
  0
LINE
  5
458
330
1F
100
AcDbEntity
  8
16
  6
Continuous
 62
     3
370
    25
100
AcDbLine
 10
-102.5999988168478
 20
-40.99999869987369
 30
0.0
 11
-99.89999877661467
 21
-40.99999869987369
 31
0.0
  0
LINE
  5
459
330
1F
100
AcDbEntity
  8
16
  6
Continuous
 62
     3
370
    25
100
AcDbLine
 10
-99.59999877214432
 20
-40.44999869167805
 30
0.0
 11
-96.89999873191118
 21
-40.44999869167805
 31
0.0
  0
LINE
  5
45A
330
1F
100
AcDbEntity
  8
16
  6
Continuous
 62
     3
370
    25
100
AcDbLine
 10
-99.59999877214432
 20
-40.99999869987369
 30
0.0
 11
-96.89999873191118
 21
-40.44999869167805
 31
0.0
  0
LINE
  5
45B
330
1F
100
AcDbEntity
  8
16
  6
Continuous
 62
     3
370
    25
100
AcDbLine
 10
-99.59999877214432
 20
-40.99999869987369
 30
0.0
 11
-96.89999873191118
 21
-40.99999869987369
 31
0.0
  0
LINE
  5
45C
330
1F
100
AcDbEntity
  8
16
  6
Continuous
 62
     3
370
    25
100
AcDbLine
 10
-96.59999872744083
 20
-40.44999869167805
 30
0.0
 11
-93.8999986872077
 21
-40.44999869167805
 31
0.0
  0
LINE
  5
45D
330
1F
100
AcDbEntity
  8
16
  6
Continuous
 62
     3
370
    25
100
AcDbLine
 10
-96.59999872744083
 20
-40.99999869987369
 30
0.0
 11
-93.8999986872077
 21
-40.44999869167805
 31
0.0
  0
LINE
  5
45E
330
1F
100
AcDbEntity
  8
16
  6
Continuous
 62
     3
370
    25
100
AcDbLine
 10
-96.59999872744083
 20
-40.99999869987369
 30
0.0
 11
-93.8999986872077
 21
-40.99999869987369
 31
0.0
  0
LINE
  5
45F
330
1F
100
AcDbEntity
  8
16
  6
Continuous
 62
     3
370
    25
100
AcDbLine
 10
-93.59999868273735
 20
-40.44999869167805
 30
0.0
 11
-90.89999864250422
 21
-40.44999869167805
 31
0.0
  0
LINE
  5
460
330
1F
100
AcDbEntity
  8
16
  6
Continuous
 62
     3
370
    25
100
AcDbLine
 10
-93.59999868273735
 20
-40.99999869987369
 30
0.0
 11
-90.89999864250422
 21
-40.44999869167805
 31
0.0
  0
LINE
  5
461
330
1F
100
AcDbEntity
  8
16
  6
Continuous
 62
     3
370
    25
100
AcDbLine
 10
-93.59999868273735
 20
-40.99999869987369
 30
0.0
 11
-90.89999864250422
 21
-40.99999869987369
 31
0.0
  0
LINE
  5
462
330
1F
100
AcDbEntity
  8
16
  6
Continuous
 62
     3
370
    25
100
AcDbLine
 10
-90.59999863803387
 20
-40.44999869167805
 30
0.0
 11
-87.89999859780073
 21
-40.44999869167805
 31
0.0
  0
LINE
  5
463
330
1F
100
AcDbEntity
  8
16
  6
Continuous
 62
     3
370
    25
100
AcDbLine
 10
-90.59999863803387
 20
-40.99999869987369
 30
0.0
 11
-87.89999859780073
 21
-40.44999869167805
 31
0.0
  0
LINE
  5
464
330
1F
100
AcDbEntity
  8
16
  6
Continuous
 62
     3
370
    25
100
AcDbLine
 10
-90.59999863803387
 20
-40.99999869987369
 30
0.0
 11
-87.89999859780073
 21
-40.99999869987369
 31
0.0
  0
LINE
  5
465
330
1F
100
AcDbEntity
  8
16
  6
Continuous
 62
     3
370
    25
100
AcDbLine
 10
-87.59999859333038
 20
-40.44999869167805
 30
0.0
 11
-84.89999855309725
 21
-40.44999869167805
 31
0.0
  0
LINE
  5
466
330
1F
100
AcDbEntity
  8
16
  6
Continuous
 62
     3
370
    25
100
AcDbLine
 10
-87.59999859333038
 20
-40.99999869987369
 30
0.0
 11
-84.89999855309725
 21
-40.44999869167805
 31
0.0
  0
LINE
  5
467
330
1F
100
AcDbEntity
  8
16
  6
Continuous
 62
     3
370
    25
100
AcDbLine
 10
-87.59999859333038
 20
-40.99999869987369
 30
0.0
 11
-84.89999855309725
 21
-40.99999869987369
 31
0.0
  0
LINE
  5
468
330
1F
100
AcDbEntity
  8
16
  6
Continuous
 62
     3
370
    25
100
AcDbLine
 10
-84.5999985486269
 20
-40.44999869167805
 30
0.0
 11
-81.89999850839376
 21
-40.44999869167805
 31
0.0
  0
LINE
  5
469
330
1F
100
AcDbEntity
  8
16
  6
Continuous
 62
     3
370
    25
100
AcDbLine
 10
-84.5999985486269
 20
-40.99999869987369
 30
0.0
 11
-81.89999850839376
 21
-40.44999869167805
 31
0.0
  0
LINE
  5
46A
330
1F
100
AcDbEntity
  8
16
  6
Continuous
 62
     3
370
    25
100
AcDbLine
 10
-84.5999985486269
 20
-40.99999869987369
 30
0.0
 11
-81.89999850839376
 21
-40.99999869987369
 31
0.0
  0
LINE
  5
46B
330
1F
100
AcDbEntity
  8
16
  6
Continuous
 62
     3
370
    25
100
AcDbLine
 10
-81.59999850392342
 20
-40.44999869167805
 30
0.0
 11
-78.89999846369028
 21
-40.44999869167805
 31
0.0
  0
LINE
  5
46C
330
1F
100
AcDbEntity
  8
16
  6
Continuous
 62
     3
370
    25
100
AcDbLine
 10
-81.59999850392342
 20
-40.99999869987369
 30
0.0
 11
-78.89999846369028
 21
-40.44999869167805
 31
0.0
  0
LINE
  5
46D
330
1F
100
AcDbEntity
  8
16
  6
Continuous
 62
     3
370
    25
100
AcDbLine
 10
-81.59999850392342
 20
-40.99999869987369
 30
0.0
 11
-78.89999846369028
 21
-40.99999869987369
 31
0.0
  0
LINE
  5
46E
330
1F
100
AcDbEntity
  8
16
  6
Continuous
 62
     3
370
    25
100
AcDbLine
 10
-78.59999845921993
 20
-40.44999869167805
 30
0.0
 11
-75.8999984189868
 21
-40.44999869167805
 31
0.0
  0
LINE
  5
46F
330
1F
100
AcDbEntity
  8
16
  6
Continuous
 62
     3
370
    25
100
AcDbLine
 10
-78.59999845921993
 20
-40.99999869987369
 30
0.0
 11
-75.8999984189868
 21
-40.44999869167805
 31
0.0
  0
LINE
  5
470
330
1F
100
AcDbEntity
  8
16
  6
Continuous
 62
     3
370
    25
100
AcDbLine
 10
-78.59999845921993
 20
-40.99999869987369
 30
0.0
 11
-75.8999984189868
 21
-40.99999869987369
 31
0.0
  0
LINE
  5
471
330
1F
100
AcDbEntity
  8
16
  6
Continuous
 62
     3
370
    25
100
AcDbLine
 10
-75.59999841451645
 20
-40.44999869167805
 30
0.0
 11
-72.89999837428331
 21
-40.44999869167805
 31
0.0
  0
LINE
  5
472
330
1F
100
AcDbEntity
  8
16
  6
Continuous
 62
     3
370
    25
100
AcDbLine
 10
-75.59999841451645
 20
-40.99999869987369
 30
0.0
 11
-72.89999837428331
 21
-40.44999869167805
 31
0.0
  0
LINE
  5
473
330
1F
100
AcDbEntity
  8
16
  6
Continuous
 62
     3
370
    25
100
AcDbLine
 10
-75.59999841451645
 20
-40.99999869987369
 30
0.0
 11
-72.89999837428331
 21
-40.99999869987369
 31
0.0
  0
LINE
  5
474
330
1F
100
AcDbEntity
  8
16
  6
Continuous
 62
     3
370
    25
100
AcDbLine
 10
-72.59999836981297
 20
-40.44999869167805
 30
0.0
 11
-69.89999832957983
 21
-40.44999869167805
 31
0.0
  0
LINE
  5
475
330
1F
100
AcDbEntity
  8
16
  6
Continuous
 62
     3
370
    25
100
AcDbLine
 10
-72.59999836981297
 20
-40.99999869987369
 30
0.0
 11
-69.89999832957983
 21
-40.44999869167805
 31
0.0
  0
LINE
  5
476
330
1F
100
AcDbEntity
  8
16
  6
Continuous
 62
     3
370
    25
100
AcDbLine
 10
-72.59999836981297
 20
-40.99999869987369
 30
0.0
 11
-69.89999832957983
 21
-40.99999869987369
 31
0.0
  0
LINE
  5
477
330
1F
100
AcDbEntity
  8
16
  6
Continuous
 62
     3
370
    25
100
AcDbLine
 10
-69.59999832510948
 20
-40.44999869167805
 30
0.0
 11
-66.89999828487635
 21
-40.44999869167805
 31
0.0
  0
LINE
  5
478
330
1F
100
AcDbEntity
  8
16
  6
Continuous
 62
     3
370
    25
100
AcDbLine
 10
-69.59999832510948
 20
-40.99999869987369
 30
0.0
 11
-66.89999828487635
 21
-40.44999869167805
 31
0.0
  0
LINE
  5
479
330
1F
100
AcDbEntity
  8
16
  6
Continuous
 62
     3
370
    25
100
AcDbLine
 10
-69.59999832510948
 20
-40.99999869987369
 30
0.0
 11
-66.89999828487635
 21
-40.99999869987369
 31
0.0
  0
LINE
  5
47A
330
1F
100
AcDbEntity
  8
16
  6
Continuous
 62
     3
370
    25
100
AcDbLine
 10
-66.599998280406
 20
-40.44999869167805
 30
0.0
 11
-63.89999824017286
 21
-40.44999869167805
 31
0.0
  0
LINE
  5
47B
330
1F
100
AcDbEntity
  8
16
  6
Continuous
 62
     3
370
    25
100
AcDbLine
 10
-66.599998280406
 20
-40.99999869987369
 30
0.0
 11
-63.89999824017286
 21
-40.44999869167805
 31
0.0
  0
LINE
  5
47C
330
1F
100
AcDbEntity
  8
16
  6
Continuous
 62
     3
370
    25
100
AcDbLine
 10
-66.599998280406
 20
-40.99999869987369
 30
0.0
 11
-63.89999824017286
 21
-40.99999869987369
 31
0.0
  0
LINE
  5
47D
330
1F
100
AcDbEntity
  8
16
  6
Continuous
 62
     3
370
    25
100
AcDbLine
 10
-63.59999823570251
 20
-40.44999869167805
 30
0.0
 11
-60.89999819546938
 21
-40.44999869167805
 31
0.0
  0
LINE
  5
47E
330
1F
100
AcDbEntity
  8
16
  6
Continuous
 62
     3
370
    25
100
AcDbLine
 10
-63.59999823570251
 20
-40.99999869987369
 30
0.0
 11
-60.89999819546938
 21
-40.44999869167805
 31
0.0
  0
LINE
  5
47F
330
1F
100
AcDbEntity
  8
16
  6
Continuous
 62
     3
370
    25
100
AcDbLine
 10
-63.59999823570251
 20
-40.99999869987369
 30
0.0
 11
-60.89999819546938
 21
-40.99999869987369
 31
0.0
  0
LINE
  5
480
330
1F
100
AcDbEntity
  8
16
  6
Continuous
 62
     3
370
    25
100
AcDbLine
 10
-60.59999819099903
 20
-40.44999869167805
 30
0.0
 11
-57.8999981507659
 21
-40.44999869167805
 31
0.0
  0
LINE
  5
481
330
1F
100
AcDbEntity
  8
16
  6
Continuous
 62
     3
370
    25
100
AcDbLine
 10
-60.59999819099903
 20
-40.99999869987369
 30
0.0
 11
-57.8999981507659
 21
-40.44999869167805
 31
0.0
  0
LINE
  5
482
330
1F
100
AcDbEntity
  8
16
  6
Continuous
 62
     3
370
    25
100
AcDbLine
 10
-60.59999819099903
 20
-40.99999869987369
 30
0.0
 11
-57.8999981507659
 21
-40.99999869987369
 31
0.0
  0
LINE
  5
483
330
1F
100
AcDbEntity
  8
16
  6
Continuous
 62
     3
370
    25
100
AcDbLine
 10
-57.59999814629555
 20
-40.44999869167805
 30
0.0
 11
-54.89999810606241
 21
-40.44999869167805
 31
0.0
  0
LINE
  5
484
330
1F
100
AcDbEntity
  8
16
  6
Continuous
 62
     3
370
    25
100
AcDbLine
 10
-57.59999814629555
 20
-40.99999869987369
 30
0.0
 11
-54.89999810606241
 21
-40.44999869167805
 31
0.0
  0
LINE
  5
485
330
1F
100
AcDbEntity
  8
16
  6
Continuous
 62
     3
370
    25
100
AcDbLine
 10
-57.59999814629555
 20
-40.99999869987369
 30
0.0
 11
-54.89999810606241
 21
-40.99999869987369
 31
0.0
  0
LINE
  5
486
330
1F
100
AcDbEntity
  8
16
  6
Continuous
 62
     3
370
    25
100
AcDbLine
 10
-54.59999810159206
 20
-40.44999869167805
 30
0.0
 11
-51.89999806135893
 21
-40.44999869167805
 31
0.0
  0
LINE
  5
487
330
1F
100
AcDbEntity
  8
16
  6
Continuous
 62
     3
370
    25
100
AcDbLine
 10
-54.59999810159206
 20
-40.99999869987369
 30
0.0
 11
-51.89999806135893
 21
-40.44999869167805
 31
0.0
  0
LINE
  5
488
330
1F
100
AcDbEntity
  8
16
  6
Continuous
 62
     3
370
    25
100
AcDbLine
 10
-54.59999810159206
 20
-40.99999869987369
 30
0.0
 11
-51.89999806135893
 21
-40.99999869987369
 31
0.0
  0
LINE
  5
489
330
1F
100
AcDbEntity
  8
16
  6
Continuous
 62
     3
370
    25
100
AcDbLine
 10
-51.59999805688858
 20
-40.44999869167805
 30
0.0
 11
-48.89999801665544
 21
-40.44999869167805
 31
0.0
  0
LINE
  5
48A
330
1F
100
AcDbEntity
  8
16
  6
Continuous
 62
     3
370
    25
100
AcDbLine
 10
-51.59999805688858
 20
-40.99999869987369
 30
0.0
 11
-48.89999801665544
 21
-40.44999869167805
 31
0.0
  0
LINE
  5
48B
330
1F
100
AcDbEntity
  8
16
  6
Continuous
 62
     3
370
    25
100
AcDbLine
 10
-51.59999805688858
 20
-40.99999869987369
 30
0.0
 11
-48.89999801665544
 21
-40.99999869987369
 31
0.0
  0
LINE
  5
48C
330
1F
100
AcDbEntity
  8
16
  6
Continuous
 62
     3
370
    25
100
AcDbLine
 10
-48.5999980121851
 20
-40.44999869167805
 30
0.0
 11
-45.89999797195196
 21
-40.44999869167805
 31
0.0
  0
LINE
  5
48D
330
1F
100
AcDbEntity
  8
16
  6
Continuous
 62
     3
370
    25
100
AcDbLine
 10
-48.5999980121851
 20
-40.99999869987369
 30
0.0
 11
-45.89999797195196
 21
-40.44999869167805
 31
0.0
  0
LINE
  5
48E
330
1F
100
AcDbEntity
  8
16
  6
Continuous
 62
     3
370
    25
100
AcDbLine
 10
-48.5999980121851
 20
-40.99999869987369
 30
0.0
 11
-45.89999797195196
 21
-40.99999869987369
 31
0.0
  0
LINE
  5
48F
330
1F
100
AcDbEntity
  8
16
  6
Continuous
 62
     3
370
    25
100
AcDbLine
 10
-45.59999796748161
 20
-40.44999869167805
 30
0.0
 11
-42.89999792724848
 21
-40.44999869167805
 31
0.0
  0
LINE
  5
490
330
1F
100
AcDbEntity
  8
16
  6
Continuous
 62
     3
370
    25
100
AcDbLine
 10
-45.59999796748161
 20
-40.99999869987369
 30
0.0
 11
-42.89999792724848
 21
-40.44999869167805
 31
0.0
  0
LINE
  5
491
330
1F
100
AcDbEntity
  8
16
  6
Continuous
 62
     3
370
    25
100
AcDbLine
 10
-45.59999796748161
 20
-40.99999869987369
 30
0.0
 11
-42.89999792724848
 21
-40.99999869987369
 31
0.0
  0
LINE
  5
492
330
1F
100
AcDbEntity
  8
16
  6
Continuous
 62
     3
370
    25
100
AcDbLine
 10
4.100002773106098
 20
27.05000231415033
 30
0.0
 11
7.100002817809582
 21
27.05000231415033
 31
0.0
  0
ARC
  5
493
330
1F
100
AcDbEntity
  8
16
  6
Continuous
 62
     3
370
    25
100
AcDbCircle
 10
6.800002813339233
 20
27.05000231415033
 30
0.0
 40
0.3000000044703484
100
AcDbArc
 50
0.0
 51
90.0000000000002
  0
LINE
  5
494
330
1F
100
AcDbEntity
  8
16
  6
Continuous
 62
     3
370
    25
100
AcDbLine
 10
6.800002911377703
 20
27.35000231862066
 30
0.0
 11
4.900002883065497
 21
27.35000231862066
 31
0.0
  0
ARC
  5
495
330
1F
100
AcDbEntity
  8
16
  6
Continuous
 62
     3
370
    25
100
AcDbCircle
 10
4.900002719668045
 20
27.85000232607122
 30
0.0
 40
0.5000000074505806
100
AcDbArc
 50
180.0000000000004
 51
270.0000000000006
  0
LINE
  5
496
330
1F
100
AcDbEntity
  8
16
  6
Continuous
 62
     3
370
    25
100
AcDbLine
 10
4.400002712217571
 20
27.85000199927632
 30
0.0
 11
4.400002712217571
 21
29.75000202758852
 31
0.0
  0
ARC
  5
497
330
1F
100
AcDbEntity
  8
16
  6
Continuous
 62
     3
370
    25
100
AcDbCircle
 10
4.100002707747223
 20
29.75000202758852
 30
0.0
 40
0.3000000044703484
100
AcDbArc
 50
0.0
 51
90.0000000000002
  0
LINE
  5
498
330
1F
100
AcDbEntity
  8
16
  6
Continuous
 62
     3
370
    25
100
AcDbLine
 10
4.100002805785692
 20
30.05000203205885
 30
0.0
 11
4.100002805785692
 21
27.05000198735537
 31
0.0
  0
LINE
  5
499
330
1F
100
AcDbEntity
  8
16
  6
Continuous
 62
     3
370
    25
100
AcDbLine
 10
4.100002773106098
 20
4.550001978874207
 30
0.0
 11
7.100002817809582
 21
4.550001978874207
 31
0.0
  0
ARC
  5
49A
330
1F
100
AcDbEntity
  8
16
  6
Continuous
 62
     3
370
    25
100
AcDbCircle
 10
6.800002813339233
 20
4.550001978874207
 30
0.0
 40
0.3000000044703484
100
AcDbArc
 50
270.0000000000006
 51
0.0000000000008142
  0
LINE
  5
49B
330
1F
100
AcDbEntity
  8
16
  6
Continuous
 62
     3
370
    25
100
AcDbLine
 10
6.800002911377703
 20
4.250001974403876
 30
0.0
 11
4.900002883065497
 21
4.250001974403876
 31
0.0
  0
ARC
  5
49C
330
1F
100
AcDbEntity
  8
16
  6
Continuous
 62
     3
370
    25
100
AcDbCircle
 10
4.900002719668045
 20
3.750001966953324
 30
0.0
 40
0.5000000074505806
100
AcDbArc
 50
90.0000000000002
 51
180.0000000000004
  0
LINE
  5
49D
330
1F
100
AcDbEntity
  8
16
  6
Continuous
 62
     3
370
    25
100
AcDbLine
 10
4.400002712217571
 20
3.750002293748224
 30
0.0
 11
4.400002712217571
 21
1.850002265436018
 31
0.0
  0
ARC
  5
49E
330
1F
100
AcDbEntity
  8
16
  6
Continuous
 62
     3
370
    25
100
AcDbCircle
 10
4.100002707747223
 20
1.850002265436018
 30
0.0
 40
0.3000000044703484
100
AcDbArc
 50
270.0000000000006
 51
0.0000000000008142
  0
LINE
  5
49F
330
1F
100
AcDbEntity
  8
16
  6
Continuous
 62
     3
370
    25
100
AcDbLine
 10
4.100002805785692
 20
1.550002260965687
 30
0.0
 11
4.100002805785692
 21
4.550002305669171
 31
0.0
  0
LINE
  5
4A0
330
1F
100
AcDbEntity
  8
16
  6
Continuous
 62
     3
370
    25
100
AcDbLine
 10
4.100002773106098
 20
27.05000231415033
 30
0.0
 11
4.100002773106098
 21
4.550001978874207
 31
0.0
  0
LINE
  5
4A1
330
1F
100
AcDbEntity
  8
16
  6
Continuous
 62
     3
370
    25
100
AcDbLine
 10
4.100002773106098
 20
4.550001978874207
 30
0.0
 11
4.030002773255109
 21
4.550001978874207
 31
0.0
  0
LINE
  5
4A2
330
1F
100
AcDbEntity
  8
16
  6
Continuous
 62
     3
370
    25
100
AcDbLine
 10
4.030002773255109
 20
4.550001978874207
 30
0.0
 11
4.030002773255109
 21
27.05000231415033
 31
0.0
  0
LINE
  5
4A3
330
1F
100
AcDbEntity
  8
16
  6
Continuous
 62
     3
370
    25
100
AcDbLine
 10
4.030002773255109
 20
27.05000231415033
 30
0.0
 11
4.100002773106098
 21
27.05000231415033
 31
0.0
  0
LINE
  5
4A4
330
1F
100
AcDbEntity
  8
16
  6
Continuous
 62
     3
370
    25
100
AcDbLine
 10
4.100002773106098
 20
4.550001978874207
 30
0.0
 11
6.000002801418304
 21
4.550001978874207
 31
0.0
  0
LINE
  5
4A5
330
1F
100
AcDbEntity
  8
16
  6
Continuous
 62
     3
370
    25
100
AcDbLine
 10
6.000002801418304
 20
4.550001978874207
 30
0.0
 11
6.000002801418304
 21
27.05000231415033
 31
0.0
  0
LINE
  5
4A6
330
1F
100
AcDbEntity
  8
16
  6
Continuous
 62
     3
370
    25
100
AcDbLine
 10
6.000002801418304
 20
27.05000231415033
 30
0.0
 11
4.100002773106098
 21
27.05000231415033
 31
0.0
  0
LINE
  5
4A7
330
1F
100
AcDbEntity
  8
16
  6
Continuous
 62
     3
370
    25
100
AcDbLine
 10
4.850002784281969
 20
23.30000225827098
 30
0.0
 11
4.66037330602645
 21
23.62598196897006
 31
0.0
  0
LINE
  5
4A8
330
1F
100
AcDbEntity
  8
16
  6
Continuous
 62
     3
370
    25
100
AcDbLine
 10
4.66037330602645
 20
23.62598196897006
 30
0.0
 11
4.285381402260853
 21
23.62352774071485
 31
0.0
  0
LINE
  5
4A9
330
1F
100
AcDbEntity
  8
16
  6
Continuous
 62
     3
370
    25
100
AcDbLine
 10
4.285381402260853
 20
23.62352774071485
 30
0.0
 11
4.100010803374769
 21
23.29754815209818
 31
0.0
  0
LINE
  5
4AA
330
1F
100
AcDbEntity
  8
16
  6
Continuous
 62
     3
370
    25
100
AcDbLine
 10
4.100010803374769
 20
23.29754815209818
 30
0.0
 11
4.289632038304646
 21
22.97402266872826
 31
0.0
  0
LINE
  5
4AB
330
1F
100
AcDbEntity
  8
16
  6
Continuous
 62
     3
370
    25
100
AcDbLine
 10
4.289632038304646
 20
22.97402266872826
 30
0.0
 11
4.664623943674222
 21
22.97647665189258
 31
0.0
  0
LINE
  5
4AC
330
1F
100
AcDbEntity
  8
16
  6
Continuous
 62
     3
370
    25
100
AcDbLine
 10
4.664623943674222
 20
22.97647665189258
 30
0.0
 11
4.849994755617196
 21
23.30245611935285
 31
0.0
  0
LINE
  5
4AD
330
1F
100
AcDbEntity
  8
16
  6
Continuous
 62
     3
370
    25
100
AcDbLine
 10
4.850002784281969
 20
18.30000218376517
 30
0.0
 11
4.66037330602645
 21
18.62598189446425
 31
0.0
  0
LINE
  5
4AE
330
1F
100
AcDbEntity
  8
16
  6
Continuous
 62
     3
370
    25
100
AcDbLine
 10
4.66037330602645
 20
18.62598189446425
 30
0.0
 11
4.285381402260853
 21
18.62352766620904
 31
0.0
  0
LINE
  5
4AF
330
1F
100
AcDbEntity
  8
16
  6
Continuous
 62
     3
370
    25
100
AcDbLine
 10
4.285381402260853
 20
18.62352766620904
 30
0.0
 11
4.100010803374769
 21
18.29754807759238
 31
0.0
  0
LINE
  5
4B0
330
1F
100
AcDbEntity
  8
16
  6
Continuous
 62
     3
370
    25
100
AcDbLine
 10
4.100010803374769
 20
18.29754807759238
 30
0.0
 11
4.289632038304646
 21
17.97402259422245
 31
0.0
  0
LINE
  5
4B1
330
1F
100
AcDbEntity
  8
16
  6
Continuous
 62
     3
370
    25
100
AcDbLine
 10
4.289632038304646
 20
17.97402259422245
 30
0.0
 11
4.664623943674222
 21
17.97647657738678
 31
0.0
  0
LINE
  5
4B2
330
1F
100
AcDbEntity
  8
16
  6
Continuous
 62
     3
370
    25
100
AcDbLine
 10
4.664623943674222
 20
17.97647657738678
 30
0.0
 11
4.849994755617196
 21
18.30245604484704
 31
0.0
  0
LINE
  5
4B3
330
1F
100
AcDbEntity
  8
16
  6
Continuous
 62
     3
370
    25
100
AcDbLine
 10
4.850002784281969
 20
13.30000210925937
 30
0.0
 11
4.66037330602645
 21
13.62598181995844
 31
0.0
  0
LINE
  5
4B4
330
1F
100
AcDbEntity
  8
16
  6
Continuous
 62
     3
370
    25
100
AcDbLine
 10
4.66037330602645
 20
13.62598181995844
 30
0.0
 11
4.285381402260853
 21
13.62352759170324
 31
0.0
  0
LINE
  5
4B5
330
1F
100
AcDbEntity
  8
16
  6
Continuous
 62
     3
370
    25
100
AcDbLine
 10
4.285381402260853
 20
13.62352759170324
 30
0.0
 11
4.100010803374769
 21
13.29754800308657
 31
0.0
  0
LINE
  5
4B6
330
1F
100
AcDbEntity
  8
16
  6
Continuous
 62
     3
370
    25
100
AcDbLine
 10
4.100010803374769
 20
13.29754800308657
 30
0.0
 11
4.289632038304646
 21
12.97402251971664
 31
0.0
  0
LINE
  5
4B7
330
1F
100
AcDbEntity
  8
16
  6
Continuous
 62
     3
370
    25
100
AcDbLine
 10
4.289632038304646
 20
12.97402251971664
 30
0.0
 11
4.664623943674222
 21
12.97647650288097
 31
0.0
  0
LINE
  5
4B8
330
1F
100
AcDbEntity
  8
16
  6
Continuous
 62
     3
370
    25
100
AcDbLine
 10
4.664623943674222
 20
12.97647650288097
 30
0.0
 11
4.849994755617196
 21
13.30245597034123
 31
0.0
  0
LINE
  5
4B9
330
1F
100
AcDbEntity
  8
16
  6
Continuous
 62
     3
370
    25
100
AcDbLine
 10
4.850002784281969
 20
8.300002034753561
 30
0.0
 11
4.66037330602645
 21
8.625981745452638
 31
0.0
  0
LINE
  5
4BA
330
1F
100
AcDbEntity
  8
16
  6
Continuous
 62
     3
370
    25
100
AcDbLine
 10
4.66037330602645
 20
8.625981745452638
 30
0.0
 11
4.285381402260853
 21
8.62352751719743
 31
0.0
  0
LINE
  5
4BB
330
1F
100
AcDbEntity
  8
16
  6
Continuous
 62
     3
370
    25
100
AcDbLine
 10
4.285381402260853
 20
8.62352751719743
 30
0.0
 11
4.100010803374769
 21
8.297547928580766
 31
0.0
  0
LINE
  5
4BC
330
1F
100
AcDbEntity
  8
16
  6
Continuous
 62
     3
370
    25
100
AcDbLine
 10
4.100010803374769
 20
8.297547928580766
 30
0.0
 11
4.289632038304646
 21
7.974022445210839
 31
0.0
  0
LINE
  5
4BD
330
1F
100
AcDbEntity
  8
16
  6
Continuous
 62
     3
370
    25
100
AcDbLine
 10
4.289632038304646
 20
7.974022445210839
 30
0.0
 11
4.664623943674222
 21
7.976476428375165
 31
0.0
  0
LINE
  5
4BE
330
1F
100
AcDbEntity
  8
16
  6
Continuous
 62
     3
370
    25
100
AcDbLine
 10
4.664623943674222
 20
7.976476428375165
 30
0.0
 11
4.849994755617196
 21
8.302455895835429
 31
0.0
  0
LINE
  5
4BF
330
1F
100
AcDbEntity
  8
16
  6
DASHED2
 62
     3
370
    25
100
AcDbLine
 10
-141.8999994024634
 20
27.35000231862068
 30
0.0
 11
-42.3999979197979
 21
27.35000231862068
 31
0.0
  0
LINE
  5
4C0
330
1F
100
AcDbEntity
  8
16
  6
DASHED2
 62
     3
370
    25
100
AcDbLine
 10
-141.8999994024634
 20
4.250001974403858
 30
0.0
 11
-42.3999979197979
 21
4.250001974403858
 31
0.0
  0
LINE
  5
4C1
330
1F
100
AcDbEntity
  8
22
  6
Continuous
 62
     4
370
    25
100
AcDbLine
 10
-135.5999993085861
 20
21.0750022251159
 30
0.0
 11
-135.2999993041158
 21
22.53500228501856
 31
0.0
  0
LINE
  5
4C2
330
1F
100
AcDbEntity
  8
22
  6
Continuous
 62
     4
370
    25
100
AcDbLine
 10
-135.5999993085861
 20
21.0750022251159
 30
0.0
 11
-134.599999293685
 21
22.17500224150717
 31
0.0
  0
LINE
  5
4C3
330
1F
100
AcDbEntity
  8
22
  6
Continuous
 62
     4
370
    25
100
AcDbLine
 10
-135.5999993085861
 20
21.0750022251159
 30
0.0
 11
-117.7499990426004
 21
56.77500275708735
 31
0.0
  0
LINE
  5
4C4
330
1F
100
AcDbEntity
  8
22
  6
Continuous
 62
     4
370
    25
100
AcDbLine
 10
-117.7499990426004
 20
56.77500275708735
 30
0.0
 11
-78.7499984614551
 21
56.77500275708735
 31
0.0
  0
LINE
  5
4C5
330
1F
100
AcDbEntity
  8
22
  6
Continuous
 62
     4
370
    25
100
AcDbLine
 10
-128.2499991990626
 20
23.5750022623688
 30
0.0
 11
-127.9499991945922
 21
25.03500232227147
 31
0.0
  0
LINE
  5
4C6
330
1F
100
AcDbEntity
  8
22
  6
Continuous
 62
     4
370
    25
100
AcDbLine
 10
-128.2499991990626
 20
23.5750022623688
 30
0.0
 11
-127.2499991841614
 21
24.67500227876008
 31
0.0
  0
LINE
  5
4C7
330
1F
100
AcDbEntity
  8
22
  6
Continuous
 62
     4
370
    25
100
AcDbLine
 10
-128.2499991990626
 20
23.5750022623688
 30
0.0
 11
-114.0124989869073
 21
52.05000268667936
 31
0.0
  0
LINE
  5
4C8
330
1F
100
AcDbEntity
  8
22
  6
Continuous
 62
     4
370
    25
100
AcDbLine
 10
-114.0124989869073
 20
52.05000268667936
 30
0.0
 11
-84.51249854732305
 21
52.05000268667936
 31
0.0
  0
LINE
  5
4C9
330
1F
100
AcDbEntity
  8
22
  6
Continuous
 62
     4
370
    25
100
AcDbLine
 10
-93.01249867398292
 20
53.95000271499157
 30
0.0
 11
-93.51244366214588
 21
54.82649980484291
 31
0.0
  0
LINE
  5
4CA
330
1F
100
AcDbEntity
  8
22
  6
Continuous
 62
     4
370
    25
100
AcDbLine
 10
-93.51244366214588
 20
54.82649980484291
 30
0.0
 11
-94.51244348837187
 21
54.82650013163775
 31
0.0
  0
LINE
  5
4CB
330
1F
100
AcDbEntity
  8
22
  6
Continuous
 62
     4
370
    25
100
AcDbLine
 10
-94.51244348837187
 20
54.82650013163775
 30
0.0
 11
-95.01244387317254
 21
53.96047515067515
 31
0.0
  0
LINE
  5
4CC
330
1F
100
AcDbEntity
  8
22
  6
Continuous
 62
     4
370
    25
100
AcDbLine
 10
-95.01244387317254
 20
53.96047515067515
 30
0.0
 11
-94.51244462042249
 21
53.09444951612298
 31
0.0
  0
LINE
  5
4CD
330
1F
100
AcDbEntity
  8
22
  6
Continuous
 62
     4
370
    25
100
AcDbLine
 10
-94.51244462042249
 20
53.09444951612298
 30
0.0
 11
-93.51244479419692
 21
53.09444853573846
 31
0.0
  0
LINE
  5
4CE
330
1F
100
AcDbEntity
  8
22
  6
Continuous
 62
     4
370
    25
100
AcDbLine
 10
-93.51244479419692
 20
53.09444853573846
 30
0.0
 11
-93.01244384337129
 21
53.96047318990574
 31
0.0
  0
LINE
  5
4CF
330
1F
100
AcDbEntity
  8
22
  6
Continuous
 62
     4
370
    25
100
AcDbLine
 10
-119.2499990649521
 20
30.05000235885382
 30
0.0
 11
-118.9499990604818
 21
31.51000241875648
 31
0.0
  0
LINE
  5
4D0
330
1F
100
AcDbEntity
  8
22
  6
Continuous
 62
     4
370
    25
100
AcDbLine
 10
-119.2499990649521
 20
30.05000235885382
 30
0.0
 11
-118.249999050051
 21
31.15000237524509
 31
0.0
  0
LINE
  5
4D1
330
1F
100
AcDbEntity
  8
22
  6
Continuous
 62
     4
370
    25
100
AcDbLine
 10
-119.2499990649521
 20
30.05000235885382
 30
0.0
 11
-110.7499989382923
 21
47.05000261217356
 31
0.0
  0
LINE
  5
4D2
330
1F
100
AcDbEntity
  8
22
  6
Continuous
 62
     4
370
    25
100
AcDbLine
 10
-110.7499989382923
 20
47.05000261217356
 30
0.0
 11
-66.74999828264117
 21
47.05000261217356
 31
0.0
  0
LINE
  5
4D3
330
1F
100
AcDbEntity
  8
22
  6
Continuous
 62
     4
370
    25
100
AcDbLine
 10
-108.7499989084899
 20
-39.94999868422747
 30
0.0
 11
-108.7499989084899
 21
-34.94999860972166
 31
0.0
  0
LINE
  5
4D4
330
1F
100
AcDbEntity
  8
22
  6
Continuous
 62
     4
370
    25
100
AcDbLine
 10
-108.7499989084899
 20
-35.94999862462282
 30
0.0
 11
-110.2499989308417
 21
-35.54999861866236
 31
0.0
  0
LINE
  5
4D5
330
1F
100
AcDbEntity
  8
22
  6
Continuous
 62
     4
370
    25
100
AcDbLine
 10
-110.2499989308417
 20
-36.34999863058329
 30
0.0
 11
-108.7499989084899
 21
-35.94999862462282
 31
0.0
  0
LINE
  5
4D6
330
1F
100
AcDbEntity
  8
22
  6
Continuous
 62
     4
370
    25
100
AcDbLine
 10
-108.7499989084899
 20
-35.94999862462282
 30
0.0
 11
-111.7499989531934
 21
-35.94999862462282
 31
0.0
  0
LINE
  5
4D7
330
1F
100
AcDbEntity
  8
22
  6
Continuous
 62
     4
370
    25
100
AcDbLine
 10
-108.7499989084899
 20
-35.94999862462282
 30
0.0
 11
-105.7499988637865
 21
-35.94999862462282
 31
0.0
  0
LINE
  5
4D8
330
1F
100
AcDbEntity
  8
22
  6
Continuous
 62
     4
370
    25
100
AcDbLine
 10
-105.7499988637865
 20
-35.94999862462282
 30
0.0
 11
-104.2499988414347
 21
-35.54999861866236
 31
0.0
  0
LINE
  5
4D9
330
1F
100
AcDbEntity
  8
22
  6
Continuous
 62
     4
370
    25
100
AcDbLine
 10
-104.2499988414347
 20
-36.34999863058329
 30
0.0
 11
-105.7499988637865
 21
-35.94999862462282
 31
0.0
  0
LINE
  5
4DA
330
1F
100
AcDbEntity
  8
22
  6
Continuous
 62
     4
370
    25
100
AcDbLine
 10
-105.7499988637865
 20
-35.94999862462282
 30
0.0
 11
-98.74999875947833
 21
-35.94999862462282
 31
0.0
  0
LINE
  5
4DB
330
1F
100
AcDbEntity
  8
22
  6
Continuous
 62
     4
370
    25
100
AcDbLine
 10
-105.7499988637865
 20
-34.94999860972166
 30
0.0
 11
-105.7499988637865
 21
-39.94999868422747
 31
0.0
  0
LINE
  5
4DC
330
1F
100
AcDbEntity
  8
22
  6
Continuous
 62
     4
370
    25
100
AcDbLine
 10
-141.8999994024634
 20
-39.94999868422747
 30
0.0
 11
-141.8999994024634
 21
-27.94999850541353
 31
0.0
  0
LINE
  5
4DD
330
1F
100
AcDbEntity
  8
22
  6
Continuous
 62
     4
370
    25
100
AcDbLine
 10
-141.8999994024634
 20
-28.94999852031469
 30
0.0
 11
-140.3999993801117
 21
-28.54999851435423
 31
0.0
  0
LINE
  5
4DE
330
1F
100
AcDbEntity
  8
22
  6
Continuous
 62
     4
370
    25
100
AcDbLine
 10
-140.3999993801117
 20
-29.34999852627516
 30
0.0
 11
-141.8999994024634
 21
-28.94999852031469
 31
0.0
  0
LINE
  5
4DF
330
1F
100
AcDbEntity
  8
22
  6
Continuous
 62
     4
370
    25
100
AcDbLine
 10
-141.8999994024634
 20
-28.94999852031469
 30
0.0
 11
-42.3999979197979
 21
-28.94999852031469
 31
0.0
  0
LINE
  5
4E0
330
1F
100
AcDbEntity
  8
22
  6
Continuous
 62
     4
370
    25
100
AcDbLine
 10
-42.3999979197979
 20
-28.94999852031469
 30
0.0
 11
-43.89999794214964
 21
-28.54999851435423
 31
0.0
  0
LINE
  5
4E1
330
1F
100
AcDbEntity
  8
22
  6
Continuous
 62
     4
370
    25
100
AcDbLine
 10
-43.89999794214964
 20
-29.34999852627516
 30
0.0
 11
-42.3999979197979
 21
-28.94999852031469
 31
0.0
  0
LINE
  5
4E2
330
1F
100
AcDbEntity
  8
22
  6
Continuous
 62
     4
370
    25
100
AcDbLine
 10
-42.3999979197979
 20
-39.94999868422747
 30
0.0
 11
-42.3999979197979
 21
-27.94999850541353
 31
0.0
  0
LINE
  5
4E3
330
1F
100
AcDbEntity
  8
22
  6
Continuous
 62
     4
370
    25
100
AcDbLine
 10
3.300002761185169
 20
23.30000225827098
 30
0.0
 11
-1.699997313320637
 21
23.30000225827098
 31
0.0
  0
LINE
  5
4E4
330
1F
100
AcDbEntity
  8
22
  6
Continuous
 62
     4
370
    25
100
AcDbLine
 10
-0.6999972984194756
 20
23.30000225827098
 30
0.0
 11
-1.09999730437994
 21
24.80000228062272
 31
0.0
  0
LINE
  5
4E5
330
1F
100
AcDbEntity
  8
22
  6
Continuous
 62
     4
370
    25
100
AcDbLine
 10
-0.2999972924590111
 20
24.80000228062272
 30
0.0
 11
-0.6999972984194756
 21
23.30000225827098
 31
0.0
  0
LINE
  5
4E6
330
1F
100
AcDbEntity
  8
22
  6
Continuous
 62
     4
370
    25
100
AcDbLine
 10
-0.6999972984194756
 20
23.30000225827098
 30
0.0
 11
-0.6999972984194756
 21
30.30000236257911
 31
0.0
  0
LINE
  5
4E7
330
1F
100
AcDbEntity
  8
22
  6
Continuous
 62
     4
370
    25
100
AcDbLine
 10
-0.6999972984194756
 20
23.30000225827098
 30
0.0
 11
-0.6999972984194756
 21
18.30000218376517
 31
0.0
  0
LINE
  5
4E8
330
1F
100
AcDbEntity
  8
22
  6
Continuous
 62
     4
370
    25
100
AcDbLine
 10
-0.6999972984194756
 20
18.30000218376517
 30
0.0
 11
-1.09999730437994
 21
16.80000216141343
 31
0.0
  0
LINE
  5
4E9
330
1F
100
AcDbEntity
  8
22
  6
Continuous
 62
     4
370
    25
100
AcDbLine
 10
-0.2999972924590111
 20
16.80000216141343
 30
0.0
 11
-0.6999972984194756
 21
18.30000218376517
 31
0.0
  0
LINE
  5
4EA
330
1F
100
AcDbEntity
  8
22
  6
Continuous
 62
     4
370
    25
100
AcDbLine
 10
-0.6999972984194756
 20
18.30000218376517
 30
0.0
 11
-0.6999972984194756
 21
15.30000213906169
 31
0.0
  0
LINE
  5
4EB
330
1F
100
AcDbEntity
  8
22
  6
Continuous
 62
     4
370
    25
100
AcDbLine
 10
-1.699997313320637
 20
18.30000218376517
 30
0.0
 11
3.300002761185169
 21
18.30000218376517
 31
0.0
  0
LINE
  5
4EC
330
1F
100
AcDbEntity
  8
22
  6
Continuous
 62
     4
370
    25
100
AcDbLine
 10
-8.699997417628765
 20
30.05000235885382
 30
0.0
 11
-5.199997365474701
 21
30.05000235885382
 31
0.0
  0
LINE
  5
4ED
330
1F
100
AcDbEntity
  8
22
  6
Continuous
 62
     4
370
    25
100
AcDbLine
 10
0.3000027164816856
 20
30.05000235885382
 30
0.0
 11
3.300002761185169
 21
30.05000235885382
 31
0.0
  0
LINE
  5
4EE
330
1F
100
AcDbEntity
  8
22
  6
Continuous
 62
     4
370
    25
100
AcDbLine
 10
-7.699997402727604
 20
30.05000235885382
 30
0.0
 11
-8.099997408688068
 21
31.55000238120556
 31
0.0
  0
LINE
  5
4EF
330
1F
100
AcDbEntity
  8
22
  6
Continuous
 62
     4
370
    25
100
AcDbLine
 10
-7.699997402727604
 20
30.05000235885382
 30
0.0
 11
-7.299997396767139
 21
31.55000238120556
 31
0.0
  0
LINE
  5
4F0
330
1F
100
AcDbEntity
  8
22
  6
Continuous
 62
     4
370
    25
100
AcDbLine
 10
-7.699997402727604
 20
30.05000235885382
 30
0.0
 11
-7.699997402727604
 21
37.05000246316195
 31
0.0
  0
LINE
  5
4F1
330
1F
100
AcDbEntity
  8
22
  6
Continuous
 62
     4
370
    25
100
AcDbLine
 10
-7.699997402727604
 20
27.05000231415033
 30
0.0
 11
-7.699997402727604
 21
30.05000235885382
 31
0.0
  0
LINE
  5
4F2
330
1F
100
AcDbEntity
  8
22
  6
Continuous
 62
     4
370
    25
100
AcDbLine
 10
-8.699997417628765
 20
27.05000231415033
 30
0.0
 11
-5.199997365474701
 21
27.05000231415033
 31
0.0
  0
LINE
  5
4F3
330
1F
100
AcDbEntity
  8
22
  6
Continuous
 62
     4
370
    25
100
AcDbLine
 10
0.3000027164816856
 20
27.05000231415033
 30
0.0
 11
3.300002761185169
 21
27.05000231415033
 31
0.0
  0
LINE
  5
4F4
330
1F
100
AcDbEntity
  8
22
  6
Continuous
 62
     4
370
    25
100
AcDbLine
 10
-8.099997408688068
 20
25.55000229179859
 30
0.0
 11
-7.699997402727604
 21
27.05000231415033
 31
0.0
  0
LINE
  5
4F5
330
1F
100
AcDbEntity
  8
22
  6
Continuous
 62
     4
370
    25
100
AcDbLine
 10
-7.299997396767139
 20
25.55000229179859
 30
0.0
 11
-7.699997402727604
 21
27.05000231415033
 31
0.0
  0
LINE
  5
4F6
330
1F
100
AcDbEntity
  8
22
  6
Continuous
 62
     4
370
    25
100
AcDbLine
 10
-7.699997402727604
 20
4.550001978874207
 30
0.0
 11
-7.699997402727604
 21
27.05000231415033
 31
0.0
  0
LINE
  5
4F7
330
1F
100
AcDbEntity
  8
22
  6
Continuous
 62
     4
370
    25
100
AcDbLine
 10
-7.699997402727604
 20
4.550001978874207
 30
0.0
 11
-8.099997408688068
 21
6.050002001225948
 31
0.0
  0
LINE
  5
4F8
330
1F
100
AcDbEntity
  8
22
  6
Continuous
 62
     4
370
    25
100
AcDbLine
 10
-7.699997402727604
 20
4.550001978874207
 30
0.0
 11
-7.299997396767139
 21
6.050002001225948
 31
0.0
  0
LINE
  5
4F9
330
1F
100
AcDbEntity
  8
22
  6
Continuous
 62
     4
370
    25
100
AcDbLine
 10
-8.699997417628765
 20
4.550001978874207
 30
0.0
 11
3.300002761185169
 21
4.550001978874207
 31
0.0
  0
LINE
  5
4FA
330
1F
100
AcDbEntity
  8
22
  6
Continuous
 62
     4
370
    25
100
AcDbLine
 10
-7.699997402727604
 20
1.550001934170723
 30
0.0
 11
-7.699997402727604
 21
4.550001978874207
 31
0.0
  0
LINE
  5
4FB
330
1F
100
AcDbEntity
  8
22
  6
Continuous
 62
     4
370
    25
100
AcDbLine
 10
-8.099997408688068
 20
0.0500019118189812
 30
0.0
 11
-7.699997402727604
 21
1.550001934170723
 31
0.0
  0
LINE
  5
4FC
330
1F
100
AcDbEntity
  8
22
  6
Continuous
 62
     4
370
    25
100
AcDbLine
 10
-7.299997396767139
 20
0.0500019118189812
 30
0.0
 11
-7.699997402727604
 21
1.550001934170723
 31
0.0
  0
LINE
  5
4FD
330
1F
100
AcDbEntity
  8
22
  6
Continuous
 62
     4
370
    25
100
AcDbLine
 10
-7.699997402727604
 20
-5.449998170137405
 30
0.0
 11
-7.699997402727604
 21
1.550001934170723
 31
0.0
  0
LINE
  5
4FE
330
1F
100
AcDbEntity
  8
22
  6
Continuous
 62
     4
370
    25
100
AcDbLine
 10
-8.699997417628765
 20
1.550001934170723
 30
0.0
 11
3.300002761185169
 21
1.550001934170723
 31
0.0
  0
LINE
  5
4FF
330
1F
100
AcDbEntity
  8
22
  6
Continuous
 62
     4
370
    25
100
AcDbLine
 10
-15.69999752193689
 20
30.05000235885382
 30
0.0
 11
-5.199997365474701
 21
30.05000235885382
 31
0.0
  0
LINE
  5
500
330
1F
100
AcDbEntity
  8
22
  6
Continuous
 62
     4
370
    25
100
AcDbLine
 10
0.3000027164816856
 20
30.05000235885382
 30
0.0
 11
3.300002761185169
 21
30.05000235885382
 31
0.0
  0
LINE
  5
501
330
1F
100
AcDbEntity
  8
22
  6
Continuous
 62
     4
370
    25
100
AcDbLine
 10
-15.0999975129962
 20
28.55000233650207
 30
0.0
 11
-14.69999750703573
 21
30.05000235885382
 31
0.0
  0
LINE
  5
502
330
1F
100
AcDbEntity
  8
22
  6
Continuous
 62
     4
370
    25
100
AcDbLine
 10
-14.29999750107527
 20
28.55000233650207
 30
0.0
 11
-14.69999750703573
 21
30.05000235885382
 31
0.0
  0
LINE
  5
503
330
1F
100
AcDbEntity
  8
22
  6
Continuous
 62
     4
370
    25
100
AcDbLine
 10
-14.69999750703573
 20
1.550001934170723
 30
0.0
 11
-14.69999750703573
 21
30.05000235885382
 31
0.0
  0
LINE
  5
504
330
1F
100
AcDbEntity
  8
22
  6
Continuous
 62
     4
370
    25
100
AcDbLine
 10
-14.69999750703573
 20
1.550001934170723
 30
0.0
 11
-15.0999975129962
 21
3.050001956522465
 31
0.0
  0
LINE
  5
505
330
1F
100
AcDbEntity
  8
22
  6
Continuous
 62
     4
370
    25
100
AcDbLine
 10
-14.69999750703573
 20
1.550001934170723
 30
0.0
 11
-14.29999750107527
 21
3.050001956522465
 31
0.0
  0
LINE
  5
506
330
1F
100
AcDbEntity
  8
22
  6
Continuous
 62
     4
370
    25
100
AcDbLine
 10
-15.69999752193689
 20
1.550001934170723
 30
0.0
 11
3.300002761185169
 21
1.550001934170723
 31
0.0
  0
LINE
  5
507
330
1F
100
AcDbEntity
  8
22
  6
Continuous
 62
     4
370
    25
100
AcDbLine
 10
7.600002825260162
 20
27.35000231862068
 30
0.0
 11
15.60000294446945
 21
27.35000231862068
 31
0.0
  0
LINE
  5
508
330
1F
100
AcDbEntity
  8
22
  6
Continuous
 62
     4
370
    25
100
AcDbLine
 10
14.20000292360783
 20
25.85000229626894
 30
0.0
 11
14.60000292956829
 21
27.35000231862068
 31
0.0
  0
LINE
  5
509
330
1F
100
AcDbEntity
  8
22
  6
Continuous
 62
     4
370
    25
100
AcDbLine
 10
15.00000293552875
 20
25.85000229626894
 30
0.0
 11
14.60000292956829
 21
27.35000231862068
 31
0.0
  0
LINE
  5
50A
330
1F
100
AcDbEntity
  8
22
  6
Continuous
 62
     4
370
    25
100
AcDbLine
 10
14.60000292956829
 20
4.250001974403858
 30
0.0
 11
14.60000292956829
 21
27.35000231862068
 31
0.0
  0
LINE
  5
50B
330
1F
100
AcDbEntity
  8
22
  6
Continuous
 62
     4
370
    25
100
AcDbLine
 10
14.60000292956829
 20
4.250001974403858
 30
0.0
 11
14.20000292360783
 21
5.7500019967556
 31
0.0
  0
LINE
  5
50C
330
1F
100
AcDbEntity
  8
22
  6
Continuous
 62
     4
370
    25
100
AcDbLine
 10
14.60000292956829
 20
4.250001974403858
 30
0.0
 11
15.00000293552875
 21
5.7500019967556
 31
0.0
  0
LINE
  5
50D
330
1F
100
AcDbEntity
  8
22
  6
Continuous
 62
     4
370
    25
100
AcDbLine
 10
7.600002825260162
 20
4.250001974403858
 30
0.0
 11
15.60000294446945
 21
4.250001974403858
 31
0.0
  0
LINE
  5
50E
330
1F
100
AcDbEntity
  8
22
  6
Continuous
 62
     4
370
    25
100
AcDbLine
 10
4.400002777576447
 20
27.8000023253262
 30
0.0
 11
4.400002777576447
 21
38.05000247806311
 31
0.0
  0
LINE
  5
50F
330
1F
100
AcDbEntity
  8
22
  6
Continuous
 62
     4
370
    25
100
AcDbLine
 10
4.400002777576447
 20
27.8000023253262
 30
0.0
 11
22.60000304877758
 21
27.8000023253262
 31
0.0
  0
LINE
  5
510
330
1F
100
AcDbEntity
  8
22
  6
Continuous
 62
     4
370
    25
100
AcDbLine
 10
4.400002777576447
 20
31.05000237375498
 30
0.0
 11
6.400002807378769
 21
33.0500024035573
 31
0.0
  0
LINE
  5
511
330
1F
100
AcDbEntity
  8
22
  6
Continuous
 62
     4
370
    25
100
AcDbLine
 10
4.400002777576447
 20
30.05000235885382
 30
0.0
 11
6.400002807378769
 21
32.05000238865614
 31
0.0
  0
LINE
  5
512
330
1F
100
AcDbEntity
  8
22
  6
Continuous
 62
     4
370
    25
100
AcDbLine
 10
11.10000287741423
 20
27.8000023253262
 30
0.0
 11
13.10000290721655
 21
29.80000235512853
 31
0.0
  0
LINE
  5
513
330
1F
100
AcDbEntity
  8
22
  6
Continuous
 62
     4
370
    25
100
AcDbLine
 10
10.10000286251307
 20
27.8000023253262
 30
0.0
 11
12.10000289231539
 21
29.80000235512853
 31
0.0
  0
LINE
  5
514
330
1F
100
AcDbEntity
  8
22
  6
Continuous
 62
     4
370
    25
100
AcDbLine
 10
21.20000302791595
 20
26.30000230297446
 30
0.0
 11
21.60000303387642
 21
27.8000023253262
 31
0.0
  0
LINE
  5
515
330
1F
100
AcDbEntity
  8
22
  6
Continuous
 62
     4
370
    25
100
AcDbLine
 10
22.00000303983688
 20
26.30000230297446
 30
0.0
 11
21.60000303387642
 21
27.8000023253262
 31
0.0
  0
LINE
  5
516
330
1F
100
AcDbEntity
  8
22
  6
Continuous
 62
     4
370
    25
100
AcDbLine
 10
21.60000303387642
 20
3.800001967698336
 30
0.0
 11
21.60000303387642
 21
27.8000023253262
 31
0.0
  0
LINE
  5
517
330
1F
100
AcDbEntity
  8
22
  6
Continuous
 62
     4
370
    25
100
AcDbLine
 10
21.60000303387642
 20
3.800001967698336
 30
0.0
 11
21.20000302791595
 21
5.300001990050077
 31
0.0
  0
LINE
  5
518
330
1F
100
AcDbEntity
  8
22
  6
Continuous
 62
     4
370
    25
100
AcDbLine
 10
21.60000303387642
 20
3.800001967698336
 30
0.0
 11
22.00000303983688
 21
5.300001990050077
 31
0.0
  0
LINE
  5
519
330
1F
100
AcDbEntity
  8
22
  6
Continuous
 62
     4
370
    25
100
AcDbLine
 10
4.400002777576447
 20
3.800001967698336
 30
0.0
 11
22.60000304877758
 21
3.800001967698336
 31
0.0
  0
LINE
  5
51A
330
1F
100
AcDbEntity
  8
22
  6
Continuous
 62
     4
370
    25
100
AcDbLine
 10
4.400002777576447
 20
-6.449998185038566
 30
0.0
 11
4.400002777576447
 21
3.800001967698336
 31
0.0
  0
LINE
  5
51B
330
1F
100
AcDbEntity
  8
22
  6
Continuous
 62
     4
370
    25
100
AcDbLine
 10
6.400002807378769
 20
0.5500019192695618
 30
0.0
 11
4.400002777576447
 21
2.550001949071884
 31
0.0
  0
LINE
  5
51C
330
1F
100
AcDbEntity
  8
22
  6
Continuous
 62
     4
370
    25
100
AcDbLine
 10
6.400002807378769
 20
1.550001934170723
 30
0.0
 11
4.400002777576447
 21
3.550001963973045
 31
0.0
  0
LINE
  5
51D
330
1F
100
AcDbEntity
  8
22
  6
Continuous
 62
     4
370
    25
100
AcDbLine
 10
14.60000292956829
 20
1.800001937896013
 30
0.0
 11
12.60000289976597
 21
3.800001967698336
 31
0.0
  0
LINE
  5
51E
330
1F
100
AcDbEntity
  8
22
  6
Continuous
 62
     4
370
    25
100
AcDbLine
 10
13.60000291466713
 20
1.800001937896013
 30
0.0
 11
11.60000288486481
 21
3.800001967698336
 31
0.0
  0
LINE
  5
51F
330
1F
100
AcDbEntity
  8
22
  6
Continuous
 62
     4
370
    25
100
AcDbLine
 10
4.100002773106098
 20
-15.54999832063913
 30
0.0
 11
4.100002773106098
 21
1.050001926720142
 31
0.0
  0
LINE
  5
520
330
1F
100
AcDbEntity
  8
22
  6
Continuous
 62
     4
370
    25
100
AcDbLine
 10
4.100002773106098
 20
-14.54999830573797
 30
0.0
 11
2.600002750754356
 21
-14.14999829977751
 31
0.0
  0
LINE
  5
521
330
1F
100
AcDbEntity
  8
22
  6
Continuous
 62
     4
370
    25
100
AcDbLine
 10
2.600002750754356
 20
-14.94999831169844
 30
0.0
 11
4.100002773106098
 21
-14.54999830573797
 31
0.0
  0
LINE
  5
522
330
1F
100
AcDbEntity
  8
22
  6
Continuous
 62
     4
370
    25
100
AcDbLine
 10
-2.89999733120203
 20
-14.54999830573797
 30
0.0
 11
4.100002773106098
 21
-14.54999830573797
 31
0.0
  0
LINE
  5
523
330
1F
100
AcDbEntity
  8
22
  6
Continuous
 62
     4
370
    25
100
AcDbLine
 10
4.100002773106098
 20
-14.54999830573797
 30
0.0
 11
6.000002801418304
 21
-14.54999830573797
 31
0.0
  0
LINE
  5
524
330
1F
100
AcDbEntity
  8
22
  6
Continuous
 62
     4
370
    25
100
AcDbLine
 10
6.000002801418304
 20
-14.54999830573797
 30
0.0
 11
7.500002823770046
 21
-14.14999829977751
 31
0.0
  0
LINE
  5
525
330
1F
100
AcDbEntity
  8
22
  6
Continuous
 62
     4
370
    25
100
AcDbLine
 10
7.500002823770046
 20
-14.94999831169844
 30
0.0
 11
6.000002801418304
 21
-14.54999830573797
 31
0.0
  0
LINE
  5
526
330
1F
100
AcDbEntity
  8
22
  6
Continuous
 62
     4
370
    25
100
AcDbLine
 10
6.000002801418304
 20
-14.54999830573797
 30
0.0
 11
9.000002846121788
 21
-14.54999830573797
 31
0.0
  0
LINE
  5
527
330
1F
100
AcDbEntity
  8
22
  6
Continuous
 62
     4
370
    25
100
AcDbLine
 10
6.000002801418304
 20
-15.54999832063913
 30
0.0
 11
6.000002801418304
 21
3.450001962482929
 31
0.0
  0
TEXT
  5
528
330
1F
100
AcDbEntity
  8
24
 62
     2
100
AcDbText
 10
93.90000411
 20
93.3500033
 30
0.0
 40
4.0
  1
◇　荷　重　計　算　◇
 41
0.833333335542929
  7
dcStyle0
 72
     5
 11
137.90000481
 21
93.3500033
 31
0.0
100
AcDbText
  0
TEXT
  5
529
330
1F
100
AcDbEntity
  8
24
 62
     2
100
AcDbText
 10
64.55000367
 20
83.35000314999999
 30
0.0
 40
3.3
  1
設計条件
 41
0.8583691004600379
  7
dcStyle0
 72
     5
 11
80.5500039
 21
83.35000314999999
 31
0.0
100
AcDbText
  0
TEXT
  5
52A
330
1F
100
AcDbEntity
  8
24
 62
     2
100
AcDbText
 10
69.80000374999999
 20
77.35000305999999
 30
0.0
 40
3.3
  1
荷重基準：　
 41
0.841346155753051
  7
dcStyle0
 72
     5
 11
90.80000404999998
 21
77.35000305999999
 31
0.0
100
AcDbText
  0
TEXT
  5
52B
330
1F
100
AcDbEntity
  8
24
 62
     2
100
AcDbText
 10
90.70000406
 20
77.35000305999999
 30
0.0
 40
3.3
  1
鋼道路橋等設計示方書による
 41
0.8413461557237142
  7
dcStyle0
 72
     5
 11
136.2000047
 21
77.35000305999999
 31
0.0
100
AcDbText
  0
TEXT
  5
52C
330
1F
100
AcDbEntity
  8
24
 62
     2
100
AcDbText
 10
69.80000374999999
 20
72.35000299
 30
0.0
 40
3.3
  1
荷　　重：　
 41
0.841346155753051
  7
dcStyle0
 72
     5
 11
90.80000404999998
 21
72.35000299
 31
0.0
100
AcDbText
  0
TEXT
  5
52D
330
1F
100
AcDbEntity
  8
24
 62
     2
100
AcDbText
 10
90.80000407
 20
72.35000299
 30
0.0
 40
3.0
  1
500
 41
0.8333333355555551
  7
dcStyle0
 72
     5
 11
98.30000419
 21
72.35000299
 31
0.0
100
AcDbText
  0
TEXT
  5
52E
330
1F
100
AcDbEntity
  8
24
 62
     2
100
AcDbText
 10
98.30000418
 20
72.35000299
 30
0.0
 40
3.0
  1
Kg
 41
0.5000000033333338
  7
dcStyle0
 72
     5
 11
101.30000422
 21
72.35000299
 31
0.0
100
AcDbText
  0
TEXT
  5
52F
330
1F
100
AcDbEntity
  8
24
 62
     2
100
AcDbText
 10
101.30000422
 20
72.35000299
 30
0.0
 40
3.0
  1
/
  7
dcStyle0
 72
     5
 11
104.30000422
 21
72.35000299
 31
0.0
100
AcDbText
  0
TEXT
  5
530
330
1F
100
AcDbEntity
  8
24
 62
     2
100
AcDbText
 10
104.30000427
 20
72.35000299
 30
0.0
 40
3.0
  1
m
  7
dcStyle0
 72
     5
 11
107.30000427
 21
72.35000299
 31
0.0
100
AcDbText
  0
TEXT
  5
531
330
1F
100
AcDbEntity
  8
24
 62
     2
100
AcDbText
 10
107.80000432
 20
73.85000301
 30
0.0
 40
1.5
  1
2
  7
dcStyle0
 72
     5
 11
109.30000432
 21
73.85000301
 31
0.0
100
AcDbText
  0
TEXT
  5
532
330
1F
100
AcDbEntity
  8
24
 62
     2
100
AcDbText
 10
109.30000434
 20
72.35000299
 30
0.0
 40
3.3
  1
（等分布荷重）
 41
0.833333335497836
  7
dcStyle0
 72
     5
 11
132.4000047
 21
72.35000299
 31
0.0
100
AcDbText
  0
TEXT
  5
533
330
1F
100
AcDbEntity
  8
24
 62
     2
100
AcDbText
 10
69.80000374999999
 20
67.35000291
 30
0.0
 40
3.3
  1
載荷寸法：　
 41
0.841346155753051
  7
dcStyle0
 72
     5
 11
90.80000404999998
 21
67.35000291
 31
0.0
100
AcDbText
  0
TEXT
  5
534
330
1F
100
AcDbEntity
  8
24
 62
     2
100
AcDbText
 10
90.70000406
 20
67.35000291
 30
0.0
 40
3.3
  1
全面等分布負載
 41
0.8413461556985683
  7
dcStyle0
 72
     5
 11
115.2000044
 21
67.35000291
 31
0.0
100
AcDbText
  0
TEXT
  5
535
330
1F
100
AcDbEntity
  8
24
 62
     2
100
AcDbText
 10
69.80000374999999
 20
62.35000284000001
 30
0.0
 40
3.3
  1
許容応力：　
 41
0.841346155753051
  7
dcStyle0
 72
     5
 11
90.80000404999998
 21
62.35000284000001
 31
0.0
100
AcDbText
  0
TEXT
  5
536
330
1F
100
AcDbEntity
  8
24
 62
     2
100
AcDbText
 10
90.80000407
 20
62.35000284000001
 30
0.0
 40
3.3
  1
σｂ＝
 41
0.6313131350372408
  7
dcStyle0
 72
     5
 11
98.30000419
 21
62.35000284000001
 31
0.0
100
AcDbText
  0
TEXT
  5
537
330
1F
100
AcDbEntity
  8
24
 62
     2
100
AcDbText
 10
98.30000418
 20
62.35000284
 30
0.0
 40
3.0
  1
 18.0
 41
0.8333333355555557
  7
dcStyle0
 72
     5
 11
110.80000438
 21
62.35000284
 31
0.0
100
AcDbText
  0
TEXT
  5
538
330
1F
100
AcDbEntity
  8
24
 62
     2
100
AcDbText
 10
111.40000437
 20
62.35000284
 30
0.0
 40
3.0
  1
Kg
 41
0.5000000033333338
  7
dcStyle0
 72
     5
 11
114.40000441
 21
62.35000284
 31
0.0
100
AcDbText
  0
TEXT
  5
539
330
1F
100
AcDbEntity
  8
24
 62
     2
100
AcDbText
 10
114.15000441
 20
62.35000284
 30
0.0
 40
3.0
  1
／
 41
0.8333333333333334
  7
dcStyle0
 72
     5
 11
117.15000441
 21
62.35000284
 31
0.0
100
AcDbText
  0
TEXT
  5
53A
330
1F
100
AcDbEntity
  8
24
 62
     2
100
AcDbText
 10
117.65000447
 20
62.35000284
 30
0.0
 40
3.0
  1
mm
 41
0.6666666700000008
  7
dcStyle0
 72
     5
 11
121.65000453
 21
62.35000284
 31
0.0
100
AcDbText
  0
TEXT
  5
53B
330
1F
100
AcDbEntity
  8
24
 62
     2
100
AcDbText
 10
121.65000452
 20
64.35000287
 30
0.0
 40
1.8
  1
2
 41
0.8333333333333333
  7
dcStyle0
 72
     5
 11
123.15000452
 21
64.35000287
 31
0.0
100
AcDbText
  0
TEXT
  5
53C
330
1F
100
AcDbEntity
  8
24
 62
     2
100
AcDbText
 10
124.15000456
 20
62.35000284000001
 30
0.0
 40
3.3
  1
（ＳＳ４００使用）
 41
0.7575757602965681
  7
dcStyle0
 72
     5
 11
151.15000496
 21
62.35000284000001
 31
0.0
100
AcDbText
  0
TEXT
  5
53D
330
1F
100
AcDbEntity
  8
24
 62
     2
100
AcDbText
 10
69.80000374999999
 20
52.35000269
 30
0.0
 40
3.3
  1
スパン　：　
 41
0.841346155753051
  7
dcStyle0
 72
     5
 11
90.80000404999998
 21
52.35000269
 31
0.0
100
AcDbText
  0
TEXT
  5
53E
330
1F
100
AcDbEntity
  8
24
 62
     2
100
AcDbText
 10
90.80000407
 20
52.35000269
 30
0.0
 40
3.0
  1
L =
 41
0.8333333355555551
  7
dcStyle0
 72
     5
 11
98.30000419
 21
52.35000269
 31
0.0
100
AcDbText
  0
TEXT
  5
53F
330
1F
100
AcDbEntity
  8
24
 62
     2
100
AcDbText
 10
98.30000418
 20
52.35000269
 30
0.0
 40
3.0
  1
 260 
 41
0.8333333355555557
  7
dcStyle0
 72
     5
 11
110.80000438
 21
52.35000269
 31
0.0
100
AcDbText
  0
TEXT
  5
540
330
1F
100
AcDbEntity
  8
24
 62
     2
100
AcDbText
 10
110.80000436
 20
52.35000269
 30
0.0
 40
3.0
  1
mm
 41
0.6666666700000008
  7
dcStyle0
 72
     5
 11
114.80000442
 21
52.35000269
 31
0.0
100
AcDbText
  0
TEXT
  5
541
330
1F
100
AcDbEntity
  8
24
 62
     2
100
AcDbText
 10
79.8000039
 20
44.35000257
 30
0.0
 40
3.3
  1
　Ｗ　：主部材が支える最大全面荷重
 41
0.8413461559998258
  7
dcStyle0
 72
     5
 11
139.30000486
 21
44.35000257
 31
0.0
100
AcDbText
  0
TEXT
  5
542
330
1F
100
AcDbEntity
  8
24
 62
     2
100
AcDbText
 10
139.30000479
 20
44.35000257
 30
0.0
 40
3.0
  1
（Kg）
 41
1.000000000000001
  7
dcStyle0
 72
     5
 11
147.30000491
 21
44.35000257
 31
0.0
100
AcDbText
  0
TEXT
  5
543
330
1F
100
AcDbEntity
  8
24
 62
     2
100
AcDbText
 10
79.8000039
 20
40.35000251
 30
0.0
 40
3.3
  1
　Ｎ　：荷重を受ける主部材本数
 41
0.841346155829327
  7
dcStyle0
 72
     5
 11
132.30000468
 21
40.35000251
 31
0.0
100
AcDbText
  0
TEXT
  5
544
330
1F
100
AcDbEntity
  8
24
 62
     2
100
AcDbText
 10
79.8000039
 20
36.35000245
 30
0.0
 40
3.3
  1
〔Ｚ〕：主部材断面係数（㎜
 41
0.8413461557237142
  7
dcStyle0
 72
     5
 11
125.30000454
 21
36.35000245
 31
0.0
100
AcDbText
  0
TEXT
  5
545
330
1F
100
AcDbEntity
  8
24
 62
     2
100
AcDbText
 10
125.30000458
 20
37.85000248
 30
0.0
 40
1.5
  1
3
  7
dcStyle0
 72
     5
 11
126.80000458
 21
37.85000248
 31
0.0
100
AcDbText
  0
TEXT
  5
546
330
1F
100
AcDbEntity
  8
24
 62
     2
100
AcDbText
 10
126.8000046
 20
36.35000245
 30
0.0
 40
3.3
  1
）
 41
0.8333333333333363
  7
dcStyle0
 72
     5
 11
130.1000046
 21
36.35000245
 31
0.0
100
AcDbText
  0
TEXT
  5
547
330
1F
100
AcDbEntity
  8
24
 62
     2
100
AcDbText
 10
79.8000039
 20
32.35000239
 30
0.0
 40
3.3
  1
　Ａ　：実効負載面積（ｍ
 41
0.8413461560073039
  7
dcStyle0
 72
     5
 11
121.80000458
 21
32.35000239
 31
0.0
100
AcDbText
  0
TEXT
  5
548
330
1F
100
AcDbEntity
  8
24
 62
     2
100
AcDbText
 10
121.80000453
 20
33.85000242
 30
0.0
 40
1.5
  1
2
  7
dcStyle0
 72
     5
 11
123.30000453
 21
33.85000242
 31
0.0
100
AcDbText
  0
TEXT
  5
549
330
1F
100
AcDbEntity
  8
24
 62
     2
100
AcDbText
 10
123.30000455
 20
32.35000239
 30
0.0
 40
3.3
  1
）
 41
0.8333333333333327
  7
dcStyle0
 72
     5
 11
126.60000455
 21
32.35000239
 31
0.0
100
AcDbText
  0
TEXT
  5
54A
330
1F
100
AcDbEntity
  8
24
 62
     2
100
AcDbText
 10
64.55000367
 20
27.35000232
 30
0.0
 40
3.3
  1
荷重計算
 41
0.8583691004600379
  7
dcStyle0
 72
     5
 11
80.5500039
 21
27.35000232
 31
0.0
100
AcDbText
  0
TEXT
  5
54B
330
1F
100
AcDbEntity
  8
24
 62
     2
100
AcDbText
 10
69.80000374999999
 20
20.35000221
 30
0.0
 40
3.3
  1
群集荷重
 41
0.8413461559437411
  7
dcStyle0
 72
     5
 11
83.80000396999999
 21
20.35000221
 31
0.0
100
AcDbText
  0
TEXT
  5
54C
330
1F
100
AcDbEntity
  8
24
 62
     2
100
AcDbText
 10
69.90000375
 20
10.35000207
 30
0.0
 40
3.3
  1
Ｗ　＝
 41
0.6313131350372408
  7
dcStyle0
 72
     5
 11
77.40000386999999
 21
10.35000207
 31
0.0
100
AcDbText
  0
TEXT
  5
54D
330
1F
100
AcDbEntity
  8
24
 62
     2
100
AcDbText
 10
81.90000393
 20
12.8500021
 30
0.0
 40
3.3
  1
８
 41
0.8333333333333327
  7
dcStyle0
 72
     5
 11
85.20000393
 21
12.8500021
 31
0.0
100
AcDbText
  0
TEXT
  5
54E
330
1F
100
AcDbEntity
  8
24
 62
     2
100
AcDbText
 10
85.20000398
 20
12.8500021
 30
0.0
 40
3.3
  1
σｂ
 41
0.6313131345717273
  7
dcStyle0
 72
     5
 11
90.20000405
 21
12.8500021
 31
0.0
100
AcDbText
  0
TEXT
  5
54F
330
1F
100
AcDbEntity
  8
24
 62
     2
100
AcDbText
 10
90.20000406
 20
12.8500021
 30
0.0
 40
3.3
  1
Ｚ
 41
0.8333333333333327
  7
dcStyle0
 72
     5
 11
93.50000406
 21
12.8500021
 31
0.0
100
AcDbText
  0
TEXT
  5
550
330
1F
100
AcDbEntity
  8
24
 62
     2
100
AcDbText
 10
80.40000391
 20
7.850002030000001
 30
0.0
 40
3.0
  1
 L 
  7
dcStyle0
 72
     5
 11
92.40000409
 21
7.850002030000001
 31
0.0
100
AcDbText
  0
TEXT
  5
551
330
1F
100
AcDbEntity
  8
24
 62
     2
100
AcDbText
 10
92.9000041
 20
10.35000207
 30
0.0
 40
3.3
  1
＝
 41
0.7575757575757577
  7
dcStyle0
 72
     5
 11
95.9000041
 21
10.35000207
 31
0.0
100
AcDbText
  0
TEXT
  5
552
330
1F
100
AcDbEntity
  8
24
 62
     2
100
AcDbText
 10
97.40000416
 20
12.8500021
 30
0.0
 40
3.0
  1
8
 41
0.8333333333333334
  7
dcStyle0
 72
     5
 11
99.90000416
 21
12.8500021
 31
0.0
100
AcDbText
  0
TEXT
  5
553
330
1F
100
AcDbEntity
  8
24
 62
     2
100
AcDbText
 10
99.9000042
 20
12.8500021
 30
0.0
 40
3.3
  1
×
 41
0.7575757575757577
  7
dcStyle0
 72
     5
 11
102.9000042
 21
12.8500021
 31
0.0
100
AcDbText
  0
TEXT
  5
554
330
1F
100
AcDbEntity
  8
24
 62
     2
100
AcDbText
 10
100.90000422
 20
12.8500021
 30
0.0
 40
3.0
  1
 18 
 41
0.8333333354166671
  7
dcStyle0
 72
     5
 11
110.90000437
 21
12.8500021
 31
0.0
100
AcDbText
  0
TEXT
  5
555
330
1F
100
AcDbEntity
  8
24
 62
     2
100
AcDbText
 10
108.90000433
 20
12.8500021
 30
0.0
 40
3.3
  1
×
 41
0.7575757575757577
  7
dcStyle0
 72
     5
 11
111.90000433
 21
12.8500021
 31
0.0
100
AcDbText
  0
TEXT
  5
556
330
1F
100
AcDbEntity
  8
24
 62
     2
100
AcDbText
 10
111.90000438
 20
12.8500021
 30
0.0
 40
3.0
  1
Z
 41
0.8333333333333334
  7
dcStyle0
 72
     5
 11
114.40000438
 21
12.8500021
 31
0.0
100
AcDbText
  0
TEXT
  5
557
330
1F
100
AcDbEntity
  8
24
 62
     2
100
AcDbText
 10
99.9000042
 20
7.850002030000001
 30
0.0
 40
3.0
  1
 260 
 41
0.8333333355555557
  7
dcStyle0
 72
     5
 11
112.4000044
 21
7.850002030000001
 31
0.0
100
AcDbText
  0
TEXT
  5
558
330
1F
100
AcDbEntity
  8
24
 62
     2
100
AcDbText
 10
118.90000448
 20
10.35000207
 30
0.0
 40
3.3
  1
＝
 41
0.7575757575757577
  7
dcStyle0
 72
     5
 11
121.90000448
 21
10.35000207
 31
0.0
100
AcDbText
  0
TEXT
  5
559
330
1F
100
AcDbEntity
  8
24
 62
     2
100
AcDbText
 10
121.90000453
 20
10.35000207
 30
0.0
 40
3.0
  1
0.554
 41
0.8333333355555557
  7
dcStyle0
 72
     5
 11
134.40000473
 21
10.35000207
 31
0.0
100
AcDbText
  0
TEXT
  5
55A
330
1F
100
AcDbEntity
  8
24
 62
     2
100
AcDbText
 10
134.40000471
 20
10.35000207
 30
0.0
 40
3.3
  1
×
 41
0.7575757575757577
  7
dcStyle0
 72
     5
 11
137.40000471
 21
10.35000207
 31
0.0
100
AcDbText
  0
TEXT
  5
55B
330
1F
100
AcDbEntity
  8
24
 62
     2
100
AcDbText
 10
137.40000476
 20
10.35000207
 30
0.0
 40
3.0
  1
Z
 41
0.8333333333333334
  7
dcStyle0
 72
     5
 11
139.90000476
 21
10.35000207
 31
0.0
100
AcDbText
  0
TEXT
  5
55C
330
1F
100
AcDbEntity
  8
24
 62
     2
100
AcDbText
 10
69.90000375
 20
1.35000193
 30
0.0
 40
3.3
  1
Ｚ　＝　Ｎ〔Ｚ〕＝
 41
0.6313131346234511
  7
dcStyle0
 72
     5
 11
92.40000407
 21
1.35000193
 31
0.0
100
AcDbText
  0
TEXT
  5
55D
330
1F
100
AcDbEntity
  8
24
 62
     2
100
AcDbText
 10
90.40000406
 20
1.35000193
 30
0.0
 40
3.0
  1
 34 
 41
0.8333333354166671
  7
dcStyle0
 72
     5
 11
100.40000421
 21
1.35000193
 31
0.0
100
AcDbText
  0
TEXT
  5
55E
330
1F
100
AcDbEntity
  8
24
 62
     2
100
AcDbText
 10
98.40000418
 20
1.35000193
 30
0.0
 40
3.3
  1
×
 41
0.7575757575757577
  7
dcStyle0
 72
     5
 11
101.40000418
 21
1.35000193
 31
0.0
100
AcDbText
  0
TEXT
  5
55F
330
1F
100
AcDbEntity
  8
24
 62
     2
100
AcDbText
 10
101.40000422
 20
1.35000193
 30
0.0
 40
3.0
  1
0.180
 41
0.8333333355555557
  7
dcStyle0
 72
     5
 11
113.90000442
 21
1.35000193
 31
0.0
100
AcDbText
  0
TEXT
  5
560
330
1F
100
AcDbEntity
  8
24
 62
     2
100
AcDbText
 10
113.80000441
 20
1.35000193
 30
0.0
 40
3.3
  1
×
 41
0.8333333333333327
  7
dcStyle0
 72
     5
 11
117.10000441
 21
1.35000193
 31
0.0
100
AcDbText
  0
TEXT
  5
561
330
1F
100
AcDbEntity
  8
24
 62
     2
100
AcDbText
 10
117.30000446
 20
1.35000193
 30
0.0
 40
3.0
  1
10
 41
0.8333333352777776
  7
dcStyle0
 72
     5
 11
122.30000453
 21
1.35000193
 31
0.0
100
AcDbText
  0
TEXT
  5
562
330
1F
100
AcDbEntity
  8
24
 62
     2
100
AcDbText
 10
122.30000453
 20
3.35000196
 30
0.0
 40
1.8
  1
3
 41
0.8333333333333333
  7
dcStyle0
 72
     5
 11
123.80000453
 21
3.35000196
 31
0.0
100
AcDbText
  0
TEXT
  5
563
330
1F
100
AcDbEntity
  8
24
 62
     2
100
AcDbText
 10
124.80000457
 20
1.35000193
 30
0.0
 40
3.0
  1
=
  7
dcStyle0
 72
     5
 11
127.80000457
 21
1.35000193
 31
0.0
100
AcDbText
  0
TEXT
  5
564
330
1F
100
AcDbEntity
  8
24
 62
     2
100
AcDbText
 10
127.80000462
 20
1.35000193
 30
0.0
 40
3.0
  1
6.12
 41
0.8333333354166671
  7
dcStyle0
 72
     5
 11
137.80000477
 21
1.35000193
 31
0.0
100
AcDbText
  0
TEXT
  5
565
330
1F
100
AcDbEntity
  8
24
 62
     2
100
AcDbText
 10
137.70000476
 20
1.35000193
 30
0.0
 40
3.3
  1
×
 41
0.8333333333333363
  7
dcStyle0
 72
     5
 11
141.00000476
 21
1.35000193
 31
0.0
100
AcDbText
  0
TEXT
  5
566
330
1F
100
AcDbEntity
  8
24
 62
     2
100
AcDbText
 10
141.20000482
 20
1.35000193
 30
0.0
 40
3.0
  1
10
 41
0.8333333352777776
  7
dcStyle0
 72
     5
 11
146.20000489
 21
1.35000193
 31
0.0
100
AcDbText
  0
TEXT
  5
567
330
1F
100
AcDbEntity
  8
24
 62
     2
100
AcDbText
 10
146.20000489
 20
3.35000196
 30
0.0
 40
1.8
  1
3
 41
0.8333333333333333
  7
dcStyle0
 72
     5
 11
147.70000489
 21
3.35000196
 31
0.0
100
AcDbText
  0
TEXT
  5
568
330
1F
100
AcDbEntity
  8
24
 62
     2
100
AcDbText
 10
64.90000368
 20
-5.64999817
 30
0.0
 40
3.3
  1
∴　Ｗ　＝
 41
0.6313131350372412
  7
dcStyle0
 72
     5
 11
77.40000388
 21
-5.64999817
 31
0.0
100
AcDbText
  0
TEXT
  5
569
330
1F
100
AcDbEntity
  8
24
 62
     2
100
AcDbText
 10
77.40000387
 20
-5.64999817
 30
0.0
 40
3.0
  1
 0.554
 41
0.8333333351851854
  7
dcStyle0
 72
     5
 11
92.40000407000001
 21
-5.64999817
 31
0.0
100
AcDbText
  0
TEXT
  5
56A
330
1F
100
AcDbEntity
  8
24
 62
     2
100
AcDbText
 10
92.30000408999999
 20
-5.64999817
 30
0.0
 40
3.3
  1
×
 41
0.8333333333333327
  7
dcStyle0
 72
     5
 11
95.60000408999998
 21
-5.64999817
 31
0.0
100
AcDbText
  0
TEXT
  5
56B
330
1F
100
AcDbEntity
  8
24
 62
     2
100
AcDbText
 10
95.80000414
 20
-5.64999817
 30
0.0
 40
3.0
  1
6.12
 41
0.8333333354166671
  7
dcStyle0
 72
     5
 11
105.80000429
 21
-5.64999817
 31
0.0
100
AcDbText
  0
TEXT
  5
56C
330
1F
100
AcDbEntity
  8
24
 62
     2
100
AcDbText
 10
105.70000429
 20
-5.64999817
 30
0.0
 40
3.3
  1
×
 41
0.8333333333333327
  7
dcStyle0
 72
     5
 11
109.00000429
 21
-5.64999817
 31
0.0
100
AcDbText
  0
TEXT
  5
56D
330
1F
100
AcDbEntity
  8
24
 62
     2
100
AcDbText
 10
109.20000434
 20
-5.64999817
 30
0.0
 40
3.0
  1
10
 41
0.8333333352777776
  7
dcStyle0
 72
     5
 11
114.20000441
 21
-5.64999817
 31
0.0
100
AcDbText
  0
TEXT
  5
56E
330
1F
100
AcDbEntity
  8
24
 62
     2
100
AcDbText
 10
114.20000441
 20
-3.64999814
 30
0.0
 40
1.8
  1
3
 41
0.8333333333333333
  7
dcStyle0
 72
     5
 11
115.70000441
 21
-3.64999814
 31
0.0
100
AcDbText
  0
TEXT
  5
56F
330
1F
100
AcDbEntity
  8
24
 62
     2
100
AcDbText
 10
116.70000445
 20
-5.64999817
 30
0.0
 40
3.0
  1
=
  7
dcStyle0
 72
     5
 11
119.70000445
 21
-5.64999817
 31
0.0
100
AcDbText
  0
TEXT
  5
570
330
1F
100
AcDbEntity
  8
24
 62
     2
100
AcDbText
 10
119.7000045
 20
-5.64999817
 30
0.0
 40
3.0
  1
3.39
 41
0.8333333354166671
  7
dcStyle0
 72
     5
 11
129.70000465
 21
-5.64999817
 31
0.0
100
AcDbText
  0
TEXT
  5
571
330
1F
100
AcDbEntity
  8
24
 62
     2
100
AcDbText
 10
129.60000464
 20
-5.64999817
 30
0.0
 40
3.3
  1
×
 41
0.8333333333333363
  7
dcStyle0
 72
     5
 11
132.90000464
 21
-5.64999817
 31
0.0
100
AcDbText
  0
TEXT
  5
572
330
1F
100
AcDbEntity
  8
24
 62
     2
100
AcDbText
 10
133.1000047
 20
-5.64999817
 30
0.0
 40
3.0
  1
10
 41
0.8333333352777776
  7
dcStyle0
 72
     5
 11
138.10000477
 21
-5.64999817
 31
0.0
100
AcDbText
  0
TEXT
  5
573
330
1F
100
AcDbEntity
  8
24
 62
     2
100
AcDbText
 10
138.10000477
 20
-3.64999814
 30
0.0
 40
1.8
  1
3
 41
0.8333333333333333
  7
dcStyle0
 72
     5
 11
139.60000477
 21
-3.64999814
 31
0.0
100
AcDbText
  0
TEXT
  5
574
330
1F
100
AcDbEntity
  8
24
 62
     2
100
AcDbText
 10
140.60000481
 20
-5.64999817
 30
0.0
 40
3.0
  1
(Kg)
 41
0.8333333354166671
  7
dcStyle0
 72
     5
 11
150.60000496
 21
-5.64999817
 31
0.0
100
AcDbText
  0
TEXT
  5
575
330
1F
100
AcDbEntity
  8
24
 62
     2
100
AcDbText
 10
69.90000375
 20
-12.64999828
 30
0.0
 40
3.0
  1
A = 
 41
0.8333333354166671
  7
dcStyle0
 72
     5
 11
79.9000039
 21
-12.64999828
 31
0.0
100
AcDbText
  0
TEXT
  5
576
330
1F
100
AcDbEntity
  8
24
 62
     2
100
AcDbText
 10
79.9000039
 20
-12.64999828
 30
0.0
 40
3.0
  1
0.26
 41
0.8333333354166671
  7
dcStyle0
 72
     5
 11
89.90000405
 21
-12.64999828
 31
0.0
100
AcDbText
  0
TEXT
  5
577
330
1F
100
AcDbEntity
  8
24
 62
     2
100
AcDbText
 10
90.65000406
 20
-12.64999828
 30
0.0
 40
3.0
  1
×
 41
0.8333333333333334
  7
dcStyle0
 72
     5
 11
93.65000406
 21
-12.64999828
 31
0.0
100
AcDbText
  0
TEXT
  5
578
330
1F
100
AcDbEntity
  8
24
 62
     2
100
AcDbText
 10
94.15000411
 20
-12.64999828
 30
0.0
 40
3.0
  1
1.00
 41
0.8333333354166671
  7
dcStyle0
 72
     5
 11
104.15000426
 21
-12.64999828
 31
0.0
100
AcDbText
  0
TEXT
  5
579
330
1F
100
AcDbEntity
  8
24
 62
     2
100
AcDbText
 10
105.90000429
 20
-12.64999828
 30
0.0
 40
3.0
  1
=
  7
dcStyle0
 72
     5
 11
108.90000429
 21
-12.64999828
 31
0.0
100
AcDbText
  0
TEXT
  5
57A
330
1F
100
AcDbEntity
  8
24
 62
     2
100
AcDbText
 10
109.40000434
 20
-12.64999828
 30
0.0
 40
3.0
  1
0.26
 41
0.8333333354166671
  7
dcStyle0
 72
     5
 11
119.40000449
 21
-12.64999828
 31
0.0
100
AcDbText
  0
TEXT
  5
57B
330
1F
100
AcDbEntity
  8
24
 62
     2
100
AcDbText
 10
120.40000451
 20
-12.64999828
 30
0.0
 40
3.0
  1
(m
 41
0.8333333352777776
  7
dcStyle0
 72
     5
 11
125.40000458
 21
-12.64999828
 31
0.0
100
AcDbText
  0
TEXT
  5
57C
330
1F
100
AcDbEntity
  8
24
 62
     2
100
AcDbText
 10
125.40000458
 20
-10.64999825
 30
0.0
 40
1.8
  1
2
 41
0.8333333333333333
  7
dcStyle0
 72
     5
 11
126.90000458
 21
-10.64999825
 31
0.0
100
AcDbText
  0
TEXT
  5
57D
330
1F
100
AcDbEntity
  8
24
 62
     2
100
AcDbText
 10
126.6500046
 20
-12.64999828
 30
0.0
 40
3.0
  1
)
  7
dcStyle0
 72
     5
 11
129.6500046
 21
-12.64999828
 31
0.0
100
AcDbText
  0
TEXT
  5
57E
330
1F
100
AcDbEntity
  8
24
 62
     2
100
AcDbText
 10
64.90000368
 20
-22.64999843
 30
0.0
 40
3.3
  1
∴　Ｗ／Ａ＝
 41
0.6313131344165563
  7
dcStyle0
 72
     5
 11
79.90000388
 21
-22.64999843
 31
0.0
100
AcDbText
  0
TEXT
  5
57F
330
1F
100
AcDbEntity
  8
24
 62
     2
100
AcDbText
 10
81.90000393
 20
-20.14999839
 30
0.0
 40
3.0
  1
 3.39
 41
0.8333333355555557
  7
dcStyle0
 72
     5
 11
94.40000413
 21
-20.14999839
 31
0.0
100
AcDbText
  0
TEXT
  5
580
330
1F
100
AcDbEntity
  8
24
 62
     2
100
AcDbText
 10
94.30000412
 20
-20.14999839
 30
0.0
 40
3.3
  1
×
 41
0.8333333333333327
  7
dcStyle0
 72
     5
 11
97.60000412
 21
-20.14999839
 31
0.0
100
AcDbText
  0
TEXT
  5
581
330
1F
100
AcDbEntity
  8
24
 62
     2
100
AcDbText
 10
97.80000417
 20
-20.14999839
 30
0.0
 40
3.0
  1
10
 41
0.8333333352777776
  7
dcStyle0
 72
     5
 11
102.80000424
 21
-20.14999839
 31
0.0
100
AcDbText
  0
TEXT
  5
582
330
1F
100
AcDbEntity
  8
24
 62
     2
100
AcDbText
 10
102.80000424
 20
-18.14999836
 30
0.0
 40
1.8
  1
3
 41
0.8333333333333333
  7
dcStyle0
 72
     5
 11
104.30000424
 21
-18.14999836
 31
0.0
100
AcDbText
  0
TEXT
  5
583
330
1F
100
AcDbEntity
  8
24
 62
     2
100
AcDbText
 10
89.90000405
 20
-25.14999846
 30
0.0
 40
3.0
  1
0.26
 41
0.8333333354166671
  7
dcStyle0
 72
     5
 11
99.90000420000001
 21
-25.14999846
 31
0.0
100
AcDbText
  0
TEXT
  5
584
330
1F
100
AcDbEntity
  8
24
 62
     2
100
AcDbText
 10
111.65000438
 20
-22.64999843
 30
0.0
 40
3.0
  1
=
  7
dcStyle0
 72
     5
 11
114.65000438
 21
-22.64999843
 31
0.0
100
AcDbText
  0
TEXT
  5
585
330
1F
100
AcDbEntity
  8
24
 62
     2
100
AcDbText
 10
115.15000443
 20
-22.64999843
 30
0.0
 40
3.0
  1
 13038 
 41
0.8333333352380948
  7
dcStyle0
 72
     5
 11
132.65000467
 21
-22.64999843
 31
0.0
100
AcDbText
  0
TEXT
  5
586
330
1F
100
AcDbEntity
  8
24
 62
     2
100
AcDbText
 10
132.65000469
 20
-22.64999843
 30
0.0
 40
3.0
  1
>
 41
0.7666666666666705
  7
dcStyle0
 72
     5
 11
134.95000469
 21
-22.64999843
 31
0.0
100
AcDbText
  0
TEXT
  5
587
330
1F
100
AcDbEntity
  8
24
 62
     2
100
AcDbText
 10
134.95000472
 20
-22.64999843
 30
0.0
 40
3.0
  1
 500 
 41
0.7666666691555564
  7
dcStyle0
 72
     5
 11
146.45000488
 21
-22.64999843
 31
0.0
100
AcDbText
  0
TEXT
  5
588
330
1F
100
AcDbEntity
  8
24
 62
     2
100
AcDbText
 10
146.45000489
 20
-22.64999843
 30
0.0
 40
3.0
  1
(Kg/m
 41
0.7666666691555564
  7
dcStyle0
 72
     5
 11
157.95000505
 21
-22.64999843
 31
0.0
100
AcDbText
  0
TEXT
  5
589
330
1F
100
AcDbEntity
  8
24
 62
     2
100
AcDbText
 10
157.95000507
 20
-20.6499984
 30
0.0
 40
1.8
  1
2
 41
0.8333333333333333
  7
dcStyle0
 72
     5
 11
159.45000507
 21
-20.6499984
 31
0.0
100
AcDbText
  0
TEXT
  5
58A
330
1F
100
AcDbEntity
  8
24
 62
     2
100
AcDbText
 10
159.20000508
 20
-22.64999843
 30
0.0
 40
3.0
  1
)
  7
dcStyle0
 72
     5
 11
162.20000508
 21
-22.64999843
 31
0.0
100
AcDbText
  0
TEXT
  5
58B
330
1F
100
AcDbEntity
  8
24
 62
     2
100
AcDbText
 10
84.80000398
 20
-38.64999866
 30
0.0
 40
3.3
  1
以上より群集荷重は充分である
 41
0.8413461557802927
  7
dcStyle0
 72
     5
 11
133.80000469
 21
-38.64999866
 31
0.0
100
AcDbText
  0
LINE
  5
58C
330
1F
100
AcDbEntity
  8
24
  6
Continuous
 62
     4
370
    25
100
AcDbLine
 10
91.90000408142805
 20
95.35000333189964
 30
0.0
 11
86.90000400692225
 21
95.35000333189964
 31
0.0
  0
LINE
  5
58D
330
1F
100
AcDbEntity
  8
24
  6
Continuous
 62
     4
370
    25
100
AcDbLine
 10
86.90000400692225
 20
95.35000333189964
 30
0.0
 11
86.90000400692225
 21
91.350003272295
 31
0.0
  0
LINE
  5
58E
330
1F
100
AcDbEntity
  8
24
  6
Continuous
 62
     4
370
    25
100
AcDbLine
 10
86.90000400692225
 20
91.350003272295
 30
0.0
 11
144.9000048711896
 21
91.350003272295
 31
0.0
  0
LINE
  5
58F
330
1F
100
AcDbEntity
  8
24
  6
Continuous
 62
     4
370
    25
100
AcDbLine
 10
144.9000048711896
 20
91.350003272295
 30
0.0
 11
144.9000048711896
 21
95.35000333189964
 31
0.0
  0
LINE
  5
590
330
1F
100
AcDbEntity
  8
24
  6
Continuous
 62
     4
370
    25
100
AcDbLine
 10
144.9000048711896
 20
95.35000333189964
 30
0.0
 11
139.9000047966838
 21
95.35000333189964
 31
0.0
  0
LINE
  5
591
330
1F
100
AcDbEntity
  8
24
  6
Continuous
 62
     4
370
    25
100
AcDbLine
 10
68.90000373870134
 20
21.8500022366643
 30
0.0
 11
67.90000372380018
 21
21.8500022366643
 31
0.0
  0
LINE
  5
592
330
1F
100
AcDbEntity
  8
24
  6
Continuous
 62
     4
370
    25
100
AcDbLine
 10
67.90000372380018
 20
21.8500022366643
 30
0.0
 11
67.90000372380018
 21
19.35000219941139
 31
0.0
  0
LINE
  5
593
330
1F
100
AcDbEntity
  8
24
  6
Continuous
 62
     4
370
    25
100
AcDbLine
 10
67.90000372380018
 20
19.35000219941139
 30
0.0
 11
85.4000039845705
 21
19.35000219941139
 31
0.0
  0
LINE
  5
594
330
1F
100
AcDbEntity
  8
24
  6
Continuous
 62
     4
370
    25
100
AcDbLine
 10
85.4000039845705
 20
19.35000219941139
 30
0.0
 11
85.4000039845705
 21
21.8500022366643
 31
0.0
  0
LINE
  5
595
330
1F
100
AcDbEntity
  8
24
  6
Continuous
 62
     4
370
    25
100
AcDbLine
 10
85.4000039845705
 20
21.8500022366643
 30
0.0
 11
84.40000396966934
 21
21.8500022366643
 31
0.0
  0
LINE
  5
596
330
1F
100
AcDbEntity
  8
24
  6
Continuous
 62
     4
370
    25
100
AcDbLine
 10
79.90000390261412
 20
11.85000208765268
 30
0.0
 11
91.90000408142805
 21
11.85000208765268
 31
0.0
  0
LINE
  5
597
330
1F
100
AcDbEntity
  8
24
  6
Continuous
 62
     4
370
    25
100
AcDbLine
 10
96.40000414848328
 20
11.85000208765268
 30
0.0
 11
117.4000044614077
 21
11.85000208765268
 31
0.0
  0
LINE
  5
598
330
1F
100
AcDbEntity
  8
24
  6
Continuous
 62
     4
370
    25
100
AcDbLine
 10
81.90000393241644
 20
-21.14999840408564
 30
0.0
 11
110.9000043645501
 21
-21.14999840408564
 31
0.0
  0
LINE
  5
599
330
1F
100
AcDbEntity
  8
24
  6
Continuous
 62
     4
370
    25
100
AcDbLine
 10
82.9000039473176
 20
-39.64999867975712
 30
0.0
 11
133.9000047072768
 21
-39.64999867975712
 31
0.0
  0
LINE
  5
59A
330
1F
100
AcDbEntity
  8
24
  6
Continuous
 62
     4
370
    25
100
AcDbLine
 10
-182.0
 20
-128.25
 30
0.0
 11
-178.9999999552965
 21
-128.25
 31
0.0
  0
LINE
  5
59B
330
1F
100
AcDbEntity
  8
24
  6
Continuous
 62
     4
370
    25
100
AcDbLine
 10
-178.9999999552965
 20
-128.25
 30
0.0
 11
-178.9999999552965
 21
-125.2499999552965
 31
0.0
  0
LINE
  5
59C
330
1F
100
AcDbEntity
  8
24
  6
Continuous
 62
     4
370
    25
100
AcDbLine
 10
-178.9999999552965
 20
-125.2499999552965
 30
0.0
 11
-182.0
 21
-125.2499999552965
 31
0.0
  0
LINE
  5
59D
330
1F
100
AcDbEntity
  8
24
  6
Continuous
 62
     4
370
    25
100
AcDbLine
 10
-182.0
 20
-125.2499999552965
 30
0.0
 11
-182.0
 21
-128.25
 31
0.0
  0
LINE
  5
59E
330
1F
100
AcDbEntity
  8
24
  6
Continuous
 62
     4
370
    25
100
AcDbLine
 10
-182.0
 20
-128.25
 30
0.0
 11
-178.9999999552965
 21
-128.25
 31
0.0
  0
LINE
  5
59F
330
1F
100
AcDbEntity
  8
24
  6
Continuous
 62
     4
370
    25
100
AcDbLine
 10
-178.9999999552965
 20
-128.25
 30
0.0
 11
-178.9999999552965
 21
-125.2499999552965
 31
0.0
  0
LINE
  5
5A0
330
1F
100
AcDbEntity
  8
24
  6
Continuous
 62
     4
370
    25
100
AcDbLine
 10
-178.9999999552965
 20
-125.2499999552965
 30
0.0
 11
-182.0
 21
-125.2499999552965
 31
0.0
  0
LINE
  5
5A1
330
1F
100
AcDbEntity
  8
24
  6
Continuous
 62
     4
370
    25
100
AcDbLine
 10
-182.0
 20
-125.2499999552965
 30
0.0
 11
-182.0
 21
-128.25
 31
0.0
  0
LINE
  5
5A2
330
1F
100
AcDbEntity
  8
24
  6
Continuous
 62
     4
370
    25
100
AcDbLine
 10
-182.0
 20
-128.25
 30
0.0
 11
-178.9999999552965
 21
-128.25
 31
0.0
  0
LINE
  5
5A3
330
1F
100
AcDbEntity
  8
24
  6
Continuous
 62
     4
370
    25
100
AcDbLine
 10
-178.9999999552965
 20
-128.25
 30
0.0
 11
-178.9999999552965
 21
-125.2499999552965
 31
0.0
  0
LINE
  5
5A4
330
1F
100
AcDbEntity
  8
24
  6
Continuous
 62
     4
370
    25
100
AcDbLine
 10
-178.9999999552965
 20
-125.2499999552965
 30
0.0
 11
-182.0
 21
-125.2499999552965
 31
0.0
  0
LINE
  5
5A5
330
1F
100
AcDbEntity
  8
24
  6
Continuous
 62
     4
370
    25
100
AcDbLine
 10
-182.0
 20
-125.2499999552965
 30
0.0
 11
-182.0
 21
-128.25
 31
0.0
  0
ARC
  5
5A6
330
1F
100
AcDbEntity
  8
24
  6
Continuous
 62
     4
370
    25
100
AcDbCircle
 10
59.90000360459089
 20
102.3500034362078
 30
0.0
 40
5.000000074505806
100
AcDbArc
 50
270.0000000000006
 51
0.0000000000008142
  0
LINE
  5
5A7
330
1F
100
AcDbEntity
  8
24
  6
Continuous
 62
     4
370
    25
100
AcDbLine
 10
59.9000052385654
 20
97.35000336170224
 30
0.0
 11
59.90000360459089
 21
-57.64999894797802
 31
0.0
  0
ARC
  5
5A8
330
1F
100
AcDbEntity
  8
24
  6
Continuous
 62
     4
370
    25
100
AcDbCircle
 10
59.90000197061639
 20
-62.64999902248356
 30
0.0
 40
5.000000074505806
100
AcDbArc
 50
0.0
 51
90.0000000000002
  0
LINE
  5
5A9
330
1F
100
AcDbEntity
  8
24
  6
Continuous
 62
     4
370
    25
100
AcDbLine
 10
64.90000204512219
 20
-62.64999902248356
 30
0.0
 11
164.9000051692128
 21
-62.64999902248383
 31
0.0
  0
ARC
  5
5AA
330
1F
100
AcDbEntity
  8
24
  6
Continuous
 62
     4
370
    25
100
AcDbCircle
 10
169.9000052437176
 20
-62.65000229043284
 30
0.0
 40
5.000000074505806
100
AcDbArc
 50
90.0000000000002
 51
180.0000000000004
  0
LINE
  5
5AB
330
1F
100
AcDbEntity
  8
24
  6
Continuous
 62
     4
370
    25
100
AcDbLine
 10
169.9000068776921
 20
-57.6500022159273
 30
0.0
 11
169.9000052437186
 21
97.35000336170197
 31
0.0
  0
ARC
  5
5AC
330
1F
100
AcDbEntity
  8
24
  6
Continuous
 62
     4
370
    25
100
AcDbCircle
 10
169.9000101456421
 20
102.3500034362054
 30
0.0
 40
5.000000074505806
100
AcDbArc
 50
180.0000000000004
 51
270.0000000000006
  0
LINE
  5
5AD
330
1F
100
AcDbEntity
  8
24
  6
Continuous
 62
     4
370
    25
100
AcDbLine
 10
164.9000100711374
 20
102.3500067041544
 30
0.0
 11
64.9000036790967
 21
102.3500034362078
 31
0.0
  0
VIEWPORT
  5
78
330
1B
100
AcDbEntity
 67
     1
  8
0
100
AcDbViewport
 10
-4.44999735429883
 20
-11.44999825954434
 30
0.0
 40
1065.300015874207
 41
700.800010442734
 68
     1
 69
     1
 12
-4.44999735429883
 22
-11.44999825954434
 13
0.0
 23
0.0
 14
0.5
 24
0.5
 15
0.0
 25
0.0
 16
0.0
 26
0.0
 36
1.0
 17
0.0
 27
0.0
 37
0.0
 42
50.0
 43
0.0
 44
0.0
 45
700.800010442734
 50
0.0
 51
0.0
 72
   100
 90
   557152
  1

281
     0
 71
     1
 74
     0
110
0.0
120
0.0
130
0.0
111
1.0
121
0.0
131
0.0
112
0.0
122
1.0
132
0.0
 79
     0
146
0.0
  0
ENDSEC
  0
SECTION
  2
OBJECTS
  0
DICTIONARY
  5
C
330
0
100
AcDbDictionary
281
     1
  3
ACAD_GROUP
350
D
  3
ACAD_LAYOUT
350
1A
  3
ACAD_MATERIAL
350
3B
  3
ACAD_MLEADERSTYLE
350
5D2
  3
ACAD_MLINESTYLE
350
17
  3
ACAD_PLOTSETTINGS
350
19
  3
ACAD_PLOTSTYLENAME
350
E
  3
ACAD_SCALELIST
350
5AE
  3
ACAD_VISUALSTYLE
350
2A
  3
AcDbVariableDictionary
350
5D0
  0
DICTIONARY
  5
D
102
{ACAD_REACTORS
330
C
102
}
330
C
100
AcDbDictionary
281
     1
  0
DICTIONARY
  5
1A
102
{ACAD_REACTORS
330
C
102
}
330
C
100
AcDbDictionary
281
     1
  3
Layout1
350
1E
  3
Layout2
350
26
  3
Model
350
22
  0
DICTIONARY
  5
3B
102
{ACAD_REACTORS
330
C
102
}
330
C
100
AcDbDictionary
281
     1
  3
ByBlock
350
3D
  3
ByLayer
350
3C
  3
Global
350
3E
  0
DICTIONARY
  5
5D2
102
{ACAD_REACTORS
330
C
102
}
330
C
100
AcDbDictionary
281
     1
  0
DICTIONARY
  5
17
102
{ACAD_REACTORS
330
C
102
}
330
C
100
AcDbDictionary
281
     1
  3
Standard
350
18
  0
DICTIONARY
  5
19
102
{ACAD_REACTORS
330
C
102
}
330
C
100
AcDbDictionary
281
     1
  0
ACDBDICTIONARYWDFLT
  5
E
102
{ACAD_REACTORS
330
C
102
}
330
C
100
AcDbDictionary
281
     1
  3
Normal
350
F
100
AcDbDictionaryWithDefault
340
F
  0
DICTIONARY
  5
5AE
102
{ACAD_REACTORS
330
C
102
}
330
C
100
AcDbDictionary
281
     1
  3
A0
350
5AF
  3
A1
350
5B0
  3
A2
350
5B1
  3
A3
350
5B2
  3
A4
350
5B3
  3
A5
350
5B4
  3
A6
350
5B5
  3
A7
350
5B6
  3
A8
350
5B7
  3
A9
350
5B8
  3
B0
350
5B9
  3
B1
350
5BA
  3
B2
350
5BB
  3
B3
350
5BC
  3
B4
350
5BD
  3
B5
350
5BE
  3
B6
350
5BF
  3
B7
350
5C0
  3
B8
350
5C1
  3
B9
350
5C2
  3
C0
350
5C3
  3
C1
350
5C4
  3
C2
350
5C5
  3
C3
350
5C6
  3
C4
350
5C7
  3
C5
350
5C8
  3
C6
350
5C9
  3
C7
350
5CA
  3
C8
350
5CB
  3
C9
350
5CC
  3
D0
350
5CD
  3
D1
350
5CE
  3
D2
350
5CF
  0
DICTIONARY
  5
2A
102
{ACAD_REACTORS
330
C
102
}
330
C
100
AcDbDictionary
281
     1
  3
2dWireframe
350
2F
  3
3D Hidden
350
31
  3
3dWireframe
350
30
  3
Basic
350
32
  3
Brighten
350
36
  3
ColorChange
350
3A
  3
Conceptual
350
34
  3
Dim
350
35
  3
Facepattern
350
39
  3
Flat
350
2B
  3
FlatWithEdges
350
2C
  3
Gouraud
350
2D
  3
GouraudWithEdges
350
2E
  3
Linepattern
350
38
  3
Realistic
350
33
  3
Thicken
350
37
  0
DICTIONARY
  5
5D0
102
{ACAD_REACTORS
330
C
102
}
330
C
100
AcDbDictionary
281
     1
  3
CANNOSCALE
350
5D3
  3
DIMASSOC
350
5D4
  3
HIDETEXT
350
5D5
  0
LAYOUT
  5
1E
102
{ACAD_REACTORS
330
1A
102
}
330
1A
100
AcDbPlotSettings
  1

  2
none_device
  4

  6

 40
0.0
 41
0.0
 42
0.0
 43
0.0
 44
0.0
 45
0.0
 46
0.0
 47
0.0
 48
0.0
 49
0.0
140
0.0
141
0.0
142
1.0
143
1.0
 70
   688
 72
     0
 73
     0
 74
     5
  7

 75
    16
147
1.0
148
0.0
149
0.0
100
AcDbLayout
  1
Layout1
 70
     0
 71
     1
 10
0.0
 20
0.0
 11
12.0
 21
9.0
 12
0.0
 22
0.0
 32
0.0
 14
1.000000000000000E+20
 24
1.000000000000000E+20
 34
1.000000000000000E+20
 15
-1.000000000000000E+20
 25
-1.000000000000000E+20
 35
-1.000000000000000E+20
146
0.0
 13
0.0
 23
0.0
 33
0.0
 16
1.0
 26
0.0
 36
0.0
 17
0.0
 27
1.0
 37
0.0
 76
     0
330
1B
331
78
  0
LAYOUT
  5
26
102
{ACAD_REACTORS
330
1A
102
}
330
1A
100
AcDbPlotSettings
  1

  2
none_device
  4

  6

 40
0.0
 41
0.0
 42
0.0
 43
0.0
 44
0.0
 45
0.0
 46
0.0
 47
0.0
 48
0.0
 49
0.0
140
0.0
141
0.0
142
1.0
143
1.0
 70
   688
 72
     0
 73
     0
 74
     5
  7

 75
    16
147
1.0
148
0.0
149
0.0
100
AcDbLayout
  1
Layout2
 70
     1
 71
     2
 10
0.0
 20
0.0
 11
0.0
 21
0.0
 12
0.0
 22
0.0
 32
0.0
 14
0.0
 24
0.0
 34
0.0
 15
0.0
 25
0.0
 35
0.0
146
0.0
 13
0.0
 23
0.0
 33
0.0
 16
1.0
 26
0.0
 36
0.0
 17
0.0
 27
1.0
 37
0.0
 76
     0
330
23
  0
LAYOUT
  5
22
102
{ACAD_REACTORS
330
1A
102
}
330
1A
100
AcDbPlotSettings
  1

  2
none_device
  4

  6

 40
0.0
 41
0.0
 42
0.0
 43
0.0
 44
0.0
 45
0.0
 46
0.0
 47
0.0
 48
0.0
 49
0.0
140
0.0
141
0.0
142
1.0
143
1.0
 70
  1712
 72
     0
 73
     0
 74
     0
  7

 75
     0
147
1.0
148
0.0
149
0.0
100
AcDbLayout
  1
Model
 70
     1
 71
     0
 10
-182.0
 20
-128.5
 11
182.0
 21
128.5
 12
0.0
 22
0.0
 32
0.0
 14
-537.1000052914023
 24
-361.8500034809113
 34
0.0
 15
528.2000105828047
 25
338.9500069618226
 35
0.0
146
0.0
 13
0.0
 23
0.0
 33
0.0
 16
1.0
 26
0.0
 36
0.0
 17
0.0
 27
1.0
 37
0.0
 76
     0
330
1F
331
29
  0
MATERIAL
  5
3D
102
{ACAD_REACTORS
330
3B
102
}
102
{ACAD_XDICTIONARY
360
5F8
102
}
330
3B
100
AcDbMaterial
  1
ByBlock
  0
MATERIAL
  5
3C
102
{ACAD_REACTORS
330
3B
102
}
102
{ACAD_XDICTIONARY
360
5F6
102
}
330
3B
100
AcDbMaterial
  1
ByLayer
  0
MATERIAL
  5
3E
102
{ACAD_REACTORS
330
3B
102
}
102
{ACAD_XDICTIONARY
360
5FA
102
}
330
3B
100
AcDbMaterial
  1
Global
  0
MLINESTYLE
  5
18
102
{ACAD_REACTORS
330
17
102
}
330
17
100
AcDbMlineStyle
  2
Standard
 70
     0
  3

 62
   256
 51
90.0
 52
90.0
 71
     2
 49
0.5
 62
   256
  6
BYLAYER
 49
-0.5
 62
   256
  6
BYLAYER
  0
ACDBPLACEHOLDER
  5
F
102
{ACAD_REACTORS
330
E
102
}
330
E
  0
SCALE
  5
5AF
102
{ACAD_REACTORS
330
5AE
102
}
330
5AE
100
AcDbScale
 70
     0
300
1:1
140
1.0
141
1.0
290
     1
  0
SCALE
  5
5B0
102
{ACAD_REACTORS
330
5AE
102
}
330
5AE
100
AcDbScale
 70
     0
300
1:2
140
1.0
141
2.0
290
     0
  0
SCALE
  5
5B1
102
{ACAD_REACTORS
330
5AE
102
}
330
5AE
100
AcDbScale
 70
     0
300
1:4
140
1.0
141
4.0
290
     0
  0
SCALE
  5
5B2
102
{ACAD_REACTORS
330
5AE
102
}
330
5AE
100
AcDbScale
 70
     0
300
1:5
140
1.0
141
5.0
290
     0
  0
SCALE
  5
5B3
102
{ACAD_REACTORS
330
5AE
102
}
330
5AE
100
AcDbScale
 70
     0
300
1:8
140
1.0
141
8.0
290
     0
  0
SCALE
  5
5B4
102
{ACAD_REACTORS
330
5AE
102
}
330
5AE
100
AcDbScale
 70
     0
300
1:10
140
1.0
141
10.0
290
     0
  0
SCALE
  5
5B5
102
{ACAD_REACTORS
330
5AE
102
}
330
5AE
100
AcDbScale
 70
     0
300
1:16
140
1.0
141
16.0
290
     0
  0
SCALE
  5
5B6
102
{ACAD_REACTORS
330
5AE
102
}
330
5AE
100
AcDbScale
 70
     0
300
1:20
140
1.0
141
20.0
290
     0
  0
SCALE
  5
5B7
102
{ACAD_REACTORS
330
5AE
102
}
330
5AE
100
AcDbScale
 70
     0
300
1:30
140
1.0
141
30.0
290
     0
  0
SCALE
  5
5B8
102
{ACAD_REACTORS
330
5AE
102
}
330
5AE
100
AcDbScale
 70
     0
300
1:40
140
1.0
141
40.0
290
     0
  0
SCALE
  5
5B9
102
{ACAD_REACTORS
330
5AE
102
}
330
5AE
100
AcDbScale
 70
     0
300
1:50
140
1.0
141
50.0
290
     0
  0
SCALE
  5
5BA
102
{ACAD_REACTORS
330
5AE
102
}
330
5AE
100
AcDbScale
 70
     0
300
1:100
140
1.0
141
100.0
290
     0
  0
SCALE
  5
5BB
102
{ACAD_REACTORS
330
5AE
102
}
330
5AE
100
AcDbScale
 70
     0
300
2:1
140
2.0
141
1.0
290
     0
  0
SCALE
  5
5BC
102
{ACAD_REACTORS
330
5AE
102
}
330
5AE
100
AcDbScale
 70
     0
300
4:1
140
4.0
141
1.0
290
     0
  0
SCALE
  5
5BD
102
{ACAD_REACTORS
330
5AE
102
}
330
5AE
100
AcDbScale
 70
     0
300
8:1
140
8.0
141
1.0
290
     0
  0
SCALE
  5
5BE
102
{ACAD_REACTORS
330
5AE
102
}
330
5AE
100
AcDbScale
 70
     0
300
10:1
140
10.0
141
1.0
290
     0
  0
SCALE
  5
5BF
102
{ACAD_REACTORS
330
5AE
102
}
330
5AE
100
AcDbScale
 70
     0
300
100:1
140
100.0
141
1.0
290
     0
  0
SCALE
  5
5C0
102
{ACAD_REACTORS
330
5AE
102
}
330
5AE
100
AcDbScale
 70
     0
300
1/128" = 1'-0"
140
0.0078125
141
12.0
290
     0
  0
SCALE
  5
5C1
102
{ACAD_REACTORS
330
5AE
102
}
330
5AE
100
AcDbScale
 70
     0
300
1/64" = 1'-0"
140
0.015625
141
12.0
290
     0
  0
SCALE
  5
5C2
102
{ACAD_REACTORS
330
5AE
102
}
330
5AE
100
AcDbScale
 70
     0
300
1/32" = 1'-0"
140
0.03125
141
12.0
290
     0
  0
SCALE
  5
5C3
102
{ACAD_REACTORS
330
5AE
102
}
330
5AE
100
AcDbScale
 70
     0
300
1/16" = 1'-0"
140
0.0625
141
12.0
290
     0
  0
SCALE
  5
5C4
102
{ACAD_REACTORS
330
5AE
102
}
330
5AE
100
AcDbScale
 70
     0
300
3/32" = 1'-0"
140
0.09375
141
12.0
290
     0
  0
SCALE
  5
5C5
102
{ACAD_REACTORS
330
5AE
102
}
330
5AE
100
AcDbScale
 70
     0
300
1/8" = 1'-0"
140
0.125
141
12.0
290
     0
  0
SCALE
  5
5C6
102
{ACAD_REACTORS
330
5AE
102
}
330
5AE
100
AcDbScale
 70
     0
300
3/16" = 1'-0"
140
0.1875
141
12.0
290
     0
  0
SCALE
  5
5C7
102
{ACAD_REACTORS
330
5AE
102
}
330
5AE
100
AcDbScale
 70
     0
300
1/4" = 1'-0"
140
0.25
141
12.0
290
     0
  0
SCALE
  5
5C8
102
{ACAD_REACTORS
330
5AE
102
}
330
5AE
100
AcDbScale
 70
     0
300
3/8" = 1'-0"
140
0.375
141
12.0
290
     0
  0
SCALE
  5
5C9
102
{ACAD_REACTORS
330
5AE
102
}
330
5AE
100
AcDbScale
 70
     0
300
1/2" = 1'-0"
140
0.5
141
12.0
290
     0
  0
SCALE
  5
5CA
102
{ACAD_REACTORS
330
5AE
102
}
330
5AE
100
AcDbScale
 70
     0
300
3/4" = 1'-0"
140
0.75
141
12.0
290
     0
  0
SCALE
  5
5CB
102
{ACAD_REACTORS
330
5AE
102
}
330
5AE
100
AcDbScale
 70
     0
300
1" = 1'-0"
140
1.0
141
12.0
290
     0
  0
SCALE
  5
5CC
102
{ACAD_REACTORS
330
5AE
102
}
330
5AE
100
AcDbScale
 70
     0
300
1-1/2" = 1'-0"
140
1.5
141
12.0
290
     0
  0
SCALE
  5
5CD
102
{ACAD_REACTORS
330
5AE
102
}
330
5AE
100
AcDbScale
 70
     0
300
3" = 1'-0"
140
3.0
141
12.0
290
     0
  0
SCALE
  5
5CE
102
{ACAD_REACTORS
330
5AE
102
}
330
5AE
100
AcDbScale
 70
     0
300
6" = 1'-0"
140
6.0
141
12.0
290
     0
  0
SCALE
  5
5CF
102
{ACAD_REACTORS
330
5AE
102
}
330
5AE
100
AcDbScale
 70
     0
300
1'-0" = 1'-0"
140
12.0
141
12.0
290
     0
  0
VISUALSTYLE
  5
2F
102
{ACAD_REACTORS
330
2A
102
}
102
{ACAD_XDICTIONARY
360
5DE
102
}
330
2A
100
AcDbVisualStyle
  2
2dWireframe
 70
     4
 71
     0
 72
     2
 73
     0
 90
        0
 40
-0.6
 41
-30.0
 62
     5
 63
     7
 74
     1
 91
        4
 64
     7
 65
   257
 75
     1
175
     1
 42
1.0
 92
        0
 66
   257
 43
1.0
 76
     1
 77
     6
 78
     2
 67
     7
 79
     5
170
     0
171
     0
290
     0
174
     0
 93
        1
 44
0.0
173
     0
291
     0
 45
0.0
1001
ACAD
1000
AcDbSavedByObjectVersion
1070
     0
  0
VISUALSTYLE
  5
31
102
{ACAD_REACTORS
330
2A
102
}
102
{ACAD_XDICTIONARY
360
5E2
102
}
330
2A
100
AcDbVisualStyle
  2
3D Hidden
 70
     6
 71
     1
 72
     2
 73
     2
 90
        0
 40
-0.6
 41
-30.0
 62
     5
 63
     7
 74
     2
 91
        2
 64
     7
 65
   257
 75
     2
175
     1
 42
40.0
 92
        0
 66
   257
 43
1.0
 76
     1
 77
     6
 78
     2
 67
     7
 79
     3
170
     0
171
     0
290
     0
174
     0
 93
        1
 44
0.0
173
     0
291
     0
 45
0.0
1001
ACAD
1000
AcDbSavedByObjectVersion
1070
     0
  0
VISUALSTYLE
  5
30
102
{ACAD_REACTORS
330
2A
102
}
102
{ACAD_XDICTIONARY
360
5E0
102
}
330
2A
100
AcDbVisualStyle
  2
3dWireframe
 70
     5
 71
     0
 72
     2
 73
     0
 90
        0
 40
-0.6
 41
-30.0
 62
     5
 63
     7
 74
     1
 91
        4
 64
     7
 65
   257
 75
     1
175
     1
 42
1.0
 92
        0
 66
   257
 43
1.0
 76
     1
 77
     6
 78
     2
 67
     7
 79
     5
170
     0
171
     0
290
     0
174
     0
 93
        1
 44
0.0
173
     0
291
     0
 45
0.0
1001
ACAD
1000
AcDbSavedByObjectVersion
1070
     0
  0
VISUALSTYLE
  5
32
102
{ACAD_REACTORS
330
2A
102
}
102
{ACAD_XDICTIONARY
360
5E4
102
}
330
2A
100
AcDbVisualStyle
  2
Basic
 70
     7
 71
     1
 72
     0
 73
     1
 90
        0
 40
-0.6
 41
-30.0
 62
     5
 63
     7
 74
     0
 91
        4
 64
     7
 65
   257
 75
     1
175
     1
 42
1.0
 92
        8
 66
     7
 43
1.0
 76
     1
 77
     6
 78
     2
 67
     7
 79
     5
170
     0
171
     0
290
     0
174
     0
 93
        1
 44
0.0
173
     0
291
     1
 45
0.0
1001
ACAD
1000
AcDbSavedByObjectVersion
1070
     0
  0
VISUALSTYLE
  5
36
102
{ACAD_REACTORS
330
2A
102
}
102
{ACAD_XDICTIONARY
360
5EC
102
}
330
2A
100
AcDbVisualStyle
  2
Brighten
 70
    12
 71
     2
 72
     2
 73
     0
 90
        0
 40
-0.6
 41
-30.0
 62
     5
 63
     7
 74
     1
 91
        4
 64
     7
 65
   257
 75
     1
175
     1
 42
1.0
 92
        8
 66
     7
 43
1.0
 76
     1
 77
     6
 78
     2
 67
     7
 79
     5
170
     0
171
     0
290
     0
174
     0
 93
        1
 44
50.0
173
     0
291
     1
 45
0.0
1001
ACAD
1000
AcDbSavedByObjectVersion
1070
     0
  0
VISUALSTYLE
  5
3A
102
{ACAD_REACTORS
330
2A
102
}
102
{ACAD_XDICTIONARY
360
5F4
102
}
330
2A
100
AcDbVisualStyle
  2
ColorChange
 70
    16
 71
     2
 72
     2
 73
     3
 90
        0
 40
-0.6
 41
-30.0
 62
     5
 63
     8
 74
     1
 91
        4
 64
     7
 65
   257
 75
     1
175
     1
 42
1.0
 92
        8
 66
     8
 43
1.0
 76
     1
 77
     6
 78
     2
 67
     7
 79
     5
170
     0
171
     0
290
     0
174
     0
 93
        1
 44
0.0
173
     0
291
     1
 45
0.0
1001
ACAD
1000
AcDbSavedByObjectVersion
1070
     0
  0
VISUALSTYLE
  5
34
102
{ACAD_REACTORS
330
2A
102
}
102
{ACAD_XDICTIONARY
360
5E8
102
}
330
2A
100
AcDbVisualStyle
  2
Conceptual
 70
     9
 71
     3
 72
     2
 73
     0
 90
        0
 40
-0.6
 41
-30.0
 62
     5
 63
     7
 74
     2
 91
        2
 64
     7
 65
   257
 75
     1
175
     1
 42
40.0
 92
        8
 66
     7
 43
1.0
 76
     1
 77
     6
 78
     2
 67
     7
 79
     3
170
     0
171
     0
290
     0
174
     0
 93
        1
 44
0.0
173
     0
291
     0
 45
0.0
1001
ACAD
1000
AcDbSavedByObjectVersion
1070
     0
  0
VISUALSTYLE
  5
35
102
{ACAD_REACTORS
330
2A
102
}
102
{ACAD_XDICTIONARY
360
5EA
102
}
330
2A
100
AcDbVisualStyle
  2
Dim
 70
    11
 71
     2
 72
     2
 73
     0
 90
        0
 40
-0.6
 41
-30.0
 62
     5
 63
     7
 74
     1
 91
        4
 64
     7
 65
   257
 75
     1
175
     1
 42
1.0
 92
        8
 66
     7
 43
1.0
 76
     1
 77
     6
 78
     2
 67
     7
 79
     5
170
     0
171
     0
290
     0
174
     0
 93
        1
 44
-50.0
173
     0
291
     1
 45
0.0
1001
ACAD
1000
AcDbSavedByObjectVersion
1070
     0
  0
VISUALSTYLE
  5
39
102
{ACAD_REACTORS
330
2A
102
}
102
{ACAD_XDICTIONARY
360
5F2
102
}
330
2A
100
AcDbVisualStyle
  2
Facepattern
 70
    15
 71
     2
 72
     2
 73
     0
 90
        0
 40
-0.6
 41
-30.0
 62
     5
 63
     7
 74
     1
 91
        4
 64
     7
 65
   257
 75
     1
175
     1
 42
1.0
 92
        8
 66
     7
 43
1.0
 76
     1
 77
     6
 78
     2
 67
     7
 79
     5
170
     0
171
     0
290
     0
174
     0
 93
        1
 44
0.0
173
     0
291
     1
 45
0.0
1001
ACAD
1000
AcDbSavedByObjectVersion
1070
     0
  0
VISUALSTYLE
  5
2B
102
{ACAD_REACTORS
330
2A
102
}
102
{ACAD_XDICTIONARY
360
5D6
102
}
330
2A
100
AcDbVisualStyle
  2
Flat
 70
     0
 71
     2
 72
     1
 73
     1
 90
        2
 40
-0.6
 41
30.0
 62
     5
 63
     7
 74
     0
 91
        4
 64
     7
 65
   257
 75
     1
175
     1
 42
1.0
 92
        8
 66
     7
 43
1.0
 76
     1
 77
     6
 78
     2
 67
     7
 79
     5
170
     0
171
     0
290
     0
174
     0
 93
       13
 44
0.0
173
     0
291
     1
 45
0.0
1001
ACAD
1000
AcDbSavedByObjectVersion
1070
     0
  0
VISUALSTYLE
  5
2C
102
{ACAD_REACTORS
330
2A
102
}
102
{ACAD_XDICTIONARY
360
5D8
102
}
330
2A
100
AcDbVisualStyle
  2
FlatWithEdges
 70
     1
 71
     2
 72
     1
 73
     1
 90
        2
 40
-0.6
 41
30.0
 62
     5
 63
     7
 74
     1
 91
        4
 64
     7
 65
   257
 75
     1
175
     1
 42
1.0
 92
        0
 66
   257
 43
1.0
 76
     1
 77
     6
 78
     2
 67
     7
 79
     5
170
     0
171
     0
290
     0
174
     0
 93
       13
 44
0.0
173
     0
291
     1
 45
0.0
1001
ACAD
1000
AcDbSavedByObjectVersion
1070
     0
  0
VISUALSTYLE
  5
2D
102
{ACAD_REACTORS
330
2A
102
}
102
{ACAD_XDICTIONARY
360
5DA
102
}
330
2A
100
AcDbVisualStyle
  2
Gouraud
 70
     2
 71
     2
 72
     2
 73
     1
 90
        2
 40
-0.6
 41
30.0
 62
     5
 63
     7
 74
     0
 91
        4
 64
     7
 65
   257
 75
     1
175
     1
 42
1.0
 92
        0
 66
     7
 43
1.0
 76
     1
 77
     6
 78
     2
 67
     7
 79
     5
170
     0
171
     0
290
     0
174
     0
 93
       13
 44
0.0
173
     0
291
     1
 45
0.0
1001
ACAD
1000
AcDbSavedByObjectVersion
1070
     0
  0
VISUALSTYLE
  5
2E
102
{ACAD_REACTORS
330
2A
102
}
102
{ACAD_XDICTIONARY
360
5DC
102
}
330
2A
100
AcDbVisualStyle
  2
GouraudWithEdges
 70
     3
 71
     2
 72
     2
 73
     1
 90
        2
 40
-0.6
 41
30.0
 62
     5
 63
     7
 74
     1
 91
        4
 64
     7
 65
   257
 75
     1
175
     1
 42
1.0
 92
        0
 66
   257
 43
1.0
 76
     1
 77
     6
 78
     2
 67
     7
 79
     5
170
     0
171
     0
290
     0
174
     0
 93
       13
 44
0.0
173
     0
291
     1
 45
0.0
1001
ACAD
1000
AcDbSavedByObjectVersion
1070
     0
  0
VISUALSTYLE
  5
38
102
{ACAD_REACTORS
330
2A
102
}
102
{ACAD_XDICTIONARY
360
5F0
102
}
330
2A
100
AcDbVisualStyle
  2
Linepattern
 70
    14
 71
     2
 72
     2
 73
     0
 90
        0
 40
-0.6
 41
-30.0
 62
     5
 63
     7
 74
     1
 91
        4
 64
     7
 65
   257
 75
     7
175
     7
 42
1.0
 92
        8
 66
     7
 43
1.0
 76
     1
 77
     6
 78
     2
 67
     7
 79
     5
170
     0
171
     0
290
     0
174
     0
 93
        1
 44
0.0
173
     0
291
     1
 45
0.0
1001
ACAD
1000
AcDbSavedByObjectVersion
1070
     0
  0
VISUALSTYLE
  5
33
102
{ACAD_REACTORS
330
2A
102
}
102
{ACAD_XDICTIONARY
360
5E6
102
}
330
2A
100
AcDbVisualStyle
  2
Realistic
 70
     8
 71
     2
 72
     2
 73
     0
 90
        0
 40
-0.6
 41
-30.0
 62
     5
 63
     7
 74
     1
 91
        0
 64
     7
 65
   257
 75
     1
175
     1
 42
1.0
 92
        8
 66
     8
 43
1.0
 76
     1
 77
     6
 78
     2
 67
     7
 79
     5
170
     0
171
     0
290
     0
174
     0
 93
       13
 44
0.0
173
     0
291
     0
 45
0.0
1001
ACAD
1000
AcDbSavedByObjectVersion
1070
     0
  0
VISUALSTYLE
  5
37
102
{ACAD_REACTORS
330
2A
102
}
102
{ACAD_XDICTIONARY
360
5EE
102
}
330
2A
100
AcDbVisualStyle
  2
Thicken
 70
    13
 71
     2
 72
     2
 73
     0
 90
        0
 40
-0.6
 41
-30.0
 62
     5
 63
     7
 74
     1
 91
        4
 64
     7
 65
   257
 75
     1
175
     1
 42
1.0
 92
       12
 66
     7
 43
1.0
 76
     1
 77
     6
 78
     2
 67
     7
 79
     5
170
     0
171
     0
290
     0
174
     0
 93
        1
 44
0.0
173
     0
291
     1
 45
0.0
1001
ACAD
1000
AcDbSavedByObjectVersion
1070
     0
  0
DICTIONARYVAR
  5
5D3
102
{ACAD_REACTORS
330
5D0
102
}
330
5D0
100
DictionaryVariables
280
     0
  1
1:1
  0
DICTIONARYVAR
  5
5D4
102
{ACAD_REACTORS
330
5D0
102
}
330
5D0
100
DictionaryVariables
280
     0
  1
2
  0
DICTIONARYVAR
  5
5D5
102
{ACAD_REACTORS
330
5D0
102
}
330
5D0
100
DictionaryVariables
280
     0
  1
1
  0
DICTIONARY
  5
5F8
330
3D
100
AcDbDictionary
280
     1
281
     1
  3
ACAD_XREC_ROUNDTRIP
360
5F9
  0
DICTIONARY
  5
5F6
330
3C
100
AcDbDictionary
280
     1
281
     1
  3
ACAD_XREC_ROUNDTRIP
360
5F7
  0
DICTIONARY
  5
5FA
330
3E
100
AcDbDictionary
280
     1
281
     1
  3
ACAD_XREC_ROUNDTRIP
360
5FB
  0
DICTIONARY
  5
5DE
330
2F
100
AcDbDictionary
280
     1
281
     1
  3
ACAD_XREC_ROUNDTRIP
360
5DF
  0
DICTIONARY
  5
5E2
330
31
100
AcDbDictionary
280
     1
281
     1
  3
ACAD_XREC_ROUNDTRIP
360
5E3
  0
DICTIONARY
  5
5E0
330
30
100
AcDbDictionary
280
     1
281
     1
  3
ACAD_XREC_ROUNDTRIP
360
5E1
  0
DICTIONARY
  5
5E4
330
32
100
AcDbDictionary
280
     1
281
     1
  3
ACAD_XREC_ROUNDTRIP
360
5E5
  0
DICTIONARY
  5
5EC
330
36
100
AcDbDictionary
280
     1
281
     1
  3
ACAD_XREC_ROUNDTRIP
360
5ED
  0
DICTIONARY
  5
5F4
330
3A
100
AcDbDictionary
280
     1
281
     1
  3
ACAD_XREC_ROUNDTRIP
360
5F5
  0
DICTIONARY
  5
5E8
330
34
100
AcDbDictionary
280
     1
281
     1
  3
ACAD_XREC_ROUNDTRIP
360
5E9
  0
DICTIONARY
  5
5EA
330
35
100
AcDbDictionary
280
     1
281
     1
  3
ACAD_XREC_ROUNDTRIP
360
5EB
  0
DICTIONARY
  5
5F2
330
39
100
AcDbDictionary
280
     1
281
     1
  3
ACAD_XREC_ROUNDTRIP
360
5F3
  0
DICTIONARY
  5
5D6
330
2B
100
AcDbDictionary
280
     1
281
     1
  3
ACAD_XREC_ROUNDTRIP
360
5D7
  0
DICTIONARY
  5
5D8
330
2C
100
AcDbDictionary
280
     1
281
     1
  3
ACAD_XREC_ROUNDTRIP
360
5D9
  0
DICTIONARY
  5
5DA
330
2D
100
AcDbDictionary
280
     1
281
     1
  3
ACAD_XREC_ROUNDTRIP
360
5DB
  0
DICTIONARY
  5
5DC
330
2E
100
AcDbDictionary
280
     1
281
     1
  3
ACAD_XREC_ROUNDTRIP
360
5DD
  0
DICTIONARY
  5
5F0
330
38
100
AcDbDictionary
280
     1
281
     1
  3
ACAD_XREC_ROUNDTRIP
360
5F1
  0
DICTIONARY
  5
5E6
330
33
100
AcDbDictionary
280
     1
281
     1
  3
ACAD_XREC_ROUNDTRIP
360
5E7
  0
DICTIONARY
  5
5EE
330
37
100
AcDbDictionary
280
     1
281
     1
  3
ACAD_XREC_ROUNDTRIP
360
5EF
  0
XRECORD
  5
5F9
102
{ACAD_REACTORS
330
5F8
102
}
330
5F8
100
AcDbXrecord
280
     1
102
MATERIAL
148
0.0
149
0.0
149
0.0
 93
        0
 94
      127
282
     0
 72
     1
 77
     1
171
     1
175
     1
179
     1
273
     0
  0
XRECORD
  5
5F7
102
{ACAD_REACTORS
330
5F6
102
}
330
5F6
100
AcDbXrecord
280
     1
102
MATERIAL
148
0.0
149
0.0
149
0.0
 93
        0
 94
      127
282
     0
 72
     1
 77
     1
171
     1
175
     1
179
     1
273
     0
  0
XRECORD
  5
5FB
102
{ACAD_REACTORS
330
5FA
102
}
330
5FA
100
AcDbXrecord
280
     1
102
MATERIAL
148
0.0
149
0.0
149
0.0
 93
        0
 94
      127
282
     0
 72
     1
 77
     1
171
     1
175
     1
179
     1
273
     0
  0
XRECORD
  5
5DF
102
{ACAD_REACTORS
330
5DE
102
}
330
5DE
100
AcDbXrecord
280
     1
102
RTVSPropertyOp0
 70
     1
102
RTVSPropertyOp1
 70
     1
102
RTVSPropertyOp2
 70
     1
102
RTVSPropertyOp3
 70
     1
102
RTVSPropertyOp4
 70
     1
102
RTVSPropertyOp5
 70
     1
102
RTVSPropertyOp6
 70
     1
102
RTVSPropertyOp7
 70
     1
102
RTVSPropertyOp8
 70
     1
102
RTVSPropertyOp9
 70
     1
102
RTVSPropertyOp10
 70
     1
102
RTVSPropertyOp11
 70
     1
102
RTVSPropertyOp12
 70
     1
102
RTVSPropertyOp13
 70
     1
102
RTVSPropertyOp14
 70
     1
102
RTVSPropertyOp15
 70
     1
102
RTVSPropertyOp16
 70
     1
102
RTVSPropertyOp17
 70
     1
102
RTVSPropertyOp18
 70
     1
102
RTVSPropertyOp19
 70
     1
102
RTVSPropertyOp20
 70
     1
102
RTVSPropertyOp21
 70
     1
102
RTVSPropertyOp22
 70
     1
102
RTVSPropertyOp23
 70
     1
102
RTVSPropertyOp24
 70
     1
102
RTVSPropertyOp25
 70
     1
102
RTVSPropertyOp26
 70
     1
102
RTVSPropertyOp27
 70
     1
  0
XRECORD
  5
5E3
102
{ACAD_REACTORS
330
5E2
102
}
330
5E2
100
AcDbXrecord
280
     1
102
RTVSPropertyOp0
 70
     1
102
RTVSPropertyOp1
 70
     1
102
RTVSPropertyOp2
 70
     1
102
RTVSPropertyOp3
 70
     1
102
RTVSPropertyOp4
 70
     1
102
RTVSPropertyOp5
 70
     1
102
RTVSPropertyOp6
 70
     1
102
RTVSPropertyOp7
 70
     1
102
RTVSPropertyOp8
 70
     1
102
RTVSPropertyOp9
 70
     1
102
RTVSPropertyOp10
 70
     1
102
RTVSPropertyOp11
 70
     1
102
RTVSPropertyOp12
 70
     1
102
RTVSPropertyOp13
 70
     1
102
RTVSPropertyOp14
 70
     1
102
RTVSPropertyOp15
 70
     1
102
RTVSPropertyOp16
 70
     1
102
RTVSPropertyOp17
 70
     1
102
RTVSPropertyOp18
 70
     1
102
RTVSPropertyOp19
 70
     1
102
RTVSPropertyOp20
 70
     1
102
RTVSPropertyOp21
 70
     1
102
RTVSPropertyOp22
 70
     1
102
RTVSPropertyOp23
 70
     1
102
RTVSPropertyOp24
 70
     1
102
RTVSPropertyOp25
 70
     1
102
RTVSPropertyOp26
 70
     1
102
RTVSPropertyOp27
 70
     1
  0
XRECORD
  5
5E1
102
{ACAD_REACTORS
330
5E0
102
}
330
5E0
100
AcDbXrecord
280
     1
102
RTVSPropertyOp0
 70
     1
102
RTVSPropertyOp1
 70
     1
102
RTVSPropertyOp2
 70
     1
102
RTVSPropertyOp3
 70
     1
102
RTVSPropertyOp4
 70
     1
102
RTVSPropertyOp5
 70
     1
102
RTVSPropertyOp6
 70
     1
102
RTVSPropertyOp7
 70
     1
102
RTVSPropertyOp8
 70
     1
102
RTVSPropertyOp9
 70
     1
102
RTVSPropertyOp10
 70
     1
102
RTVSPropertyOp11
 70
     1
102
RTVSPropertyOp12
 70
     1
102
RTVSPropertyOp13
 70
     1
102
RTVSPropertyOp14
 70
     1
102
RTVSPropertyOp15
 70
     1
102
RTVSPropertyOp16
 70
     1
102
RTVSPropertyOp17
 70
     1
102
RTVSPropertyOp18
 70
     1
102
RTVSPropertyOp19
 70
     1
102
RTVSPropertyOp20
 70
     1
102
RTVSPropertyOp21
 70
     1
102
RTVSPropertyOp22
 70
     1
102
RTVSPropertyOp23
 70
     1
102
RTVSPropertyOp24
 70
     1
102
RTVSPropertyOp25
 70
     1
102
RTVSPropertyOp26
 70
     1
102
RTVSPropertyOp27
 70
     1
  0
XRECORD
  5
5E5
102
{ACAD_REACTORS
330
5E4
102
}
330
5E4
100
AcDbXrecord
280
     1
102
RTVSPropertyOp0
 70
     1
102
RTVSPropertyOp1
 70
     1
102
RTVSPropertyOp2
 70
     1
102
RTVSPropertyOp3
 70
     1
102
RTVSPropertyOp4
 70
     1
102
RTVSPropertyOp5
 70
     1
102
RTVSPropertyOp6
 70
     1
102
RTVSPropertyOp7
 70
     1
102
RTVSPropertyOp8
 70
     1
102
RTVSPropertyOp9
 70
     1
102
RTVSPropertyOp10
 70
     1
102
RTVSPropertyOp11
 70
     1
102
RTVSPropertyOp12
 70
     1
102
RTVSPropertyOp13
 70
     1
102
RTVSPropertyOp14
 70
     1
102
RTVSPropertyOp15
 70
     1
102
RTVSPropertyOp16
 70
     1
102
RTVSPropertyOp17
 70
     1
102
RTVSPropertyOp18
 70
     1
102
RTVSPropertyOp19
 70
     1
102
RTVSPropertyOp20
 70
     1
102
RTVSPropertyOp21
 70
     1
102
RTVSPropertyOp22
 70
     1
102
RTVSPropertyOp23
 70
     1
102
RTVSPropertyOp24
 70
     1
102
RTVSPropertyOp25
 70
     1
102
RTVSPropertyOp26
 70
     1
102
RTVSPropertyOp27
 70
     1
  0
XRECORD
  5
5ED
102
{ACAD_REACTORS
330
5EC
102
}
330
5EC
100
AcDbXrecord
280
     1
102
RTVSPropertyOp0
 70
     1
102
RTVSPropertyOp1
 70
     1
102
RTVSPropertyOp2
 70
     1
102
RTVSPropertyOp3
 70
     1
102
RTVSPropertyOp4
 70
     1
102
RTVSPropertyOp5
 70
     1
102
RTVSPropertyOp6
 70
     1
102
RTVSPropertyOp7
 70
     1
102
RTVSPropertyOp8
 70
     1
102
RTVSPropertyOp9
 70
     1
102
RTVSPropertyOp10
 70
     1
102
RTVSPropertyOp11
 70
     1
102
RTVSPropertyOp12
 70
     1
102
RTVSPropertyOp13
 70
     1
102
RTVSPropertyOp14
 70
     1
102
RTVSPropertyOp15
 70
     1
102
RTVSPropertyOp16
 70
     1
102
RTVSPropertyOp17
 70
     1
102
RTVSPropertyOp18
 70
     1
102
RTVSPropertyOp19
 70
     1
102
RTVSPropertyOp20
 70
     1
102
RTVSPropertyOp21
 70
     1
102
RTVSPropertyOp22
 70
     1
102
RTVSPropertyOp23
 70
     1
102
RTVSPropertyOp24
 70
     1
102
RTVSPropertyOp25
 70
     1
102
RTVSPropertyOp26
 70
     1
102
RTVSPropertyOp27
 70
     1
  0
XRECORD
  5
5F5
102
{ACAD_REACTORS
330
5F4
102
}
330
5F4
100
AcDbXrecord
280
     1
102
RTVSPropertyOp0
 70
     1
102
RTVSPropertyOp1
 70
     1
102
RTVSPropertyOp2
 70
     1
102
RTVSPropertyOp3
 70
     1
102
RTVSPropertyOp4
 70
     1
102
RTVSPropertyOp5
 70
     1
102
RTVSPropertyOp6
 70
     1
102
RTVSPropertyOp7
 70
     1
102
RTVSPropertyOp8
 70
     1
102
RTVSPropertyOp9
 70
     1
102
RTVSPropertyOp10
 70
     1
102
RTVSPropertyOp11
 70
     1
102
RTVSPropertyOp12
 70
     1
102
RTVSPropertyOp13
 70
     1
102
RTVSPropertyOp14
 70
     1
102
RTVSPropertyOp15
 70
     1
102
RTVSPropertyOp16
 70
     1
102
RTVSPropertyOp17
 70
     1
102
RTVSPropertyOp18
 70
     1
102
RTVSPropertyOp19
 70
     1
102
RTVSPropertyOp20
 70
     1
102
RTVSPropertyOp21
 70
     1
102
RTVSPropertyOp22
 70
     1
102
RTVSPropertyOp23
 70
     1
102
RTVSPropertyOp24
 70
     1
102
RTVSPropertyOp25
 70
     1
102
RTVSPropertyOp26
 70
     1
102
RTVSPropertyOp27
 70
     1
  0
XRECORD
  5
5E9
102
{ACAD_REACTORS
330
5E8
102
}
330
5E8
100
AcDbXrecord
280
     1
102
RTVSPropertyOp0
 70
     1
102
RTVSPropertyOp1
 70
     1
102
RTVSPropertyOp2
 70
     1
102
RTVSPropertyOp3
 70
     1
102
RTVSPropertyOp4
 70
     1
102
RTVSPropertyOp5
 70
     1
102
RTVSPropertyOp6
 70
     1
102
RTVSPropertyOp7
 70
     1
102
RTVSPropertyOp8
 70
     1
102
RTVSPropertyOp9
 70
     1
102
RTVSPropertyOp10
 70
     1
102
RTVSPropertyOp11
 70
     1
102
RTVSPropertyOp12
 70
     1
102
RTVSPropertyOp13
 70
     1
102
RTVSPropertyOp14
 70
     1
102
RTVSPropertyOp15
 70
     1
102
RTVSPropertyOp16
 70
     1
102
RTVSPropertyOp17
 70
     1
102
RTVSPropertyOp18
 70
     1
102
RTVSPropertyOp19
 70
     1
102
RTVSPropertyOp20
 70
     1
102
RTVSPropertyOp21
 70
     1
102
RTVSPropertyOp22
 70
     1
102
RTVSPropertyOp23
 70
     1
102
RTVSPropertyOp24
 70
     1
102
RTVSPropertyOp25
 70
     1
102
RTVSPropertyOp26
 70
     1
102
RTVSPropertyOp27
 70
     1
  0
XRECORD
  5
5EB
102
{ACAD_REACTORS
330
5EA
102
}
330
5EA
100
AcDbXrecord
280
     1
102
RTVSPropertyOp0
 70
     1
102
RTVSPropertyOp1
 70
     1
102
RTVSPropertyOp2
 70
     1
102
RTVSPropertyOp3
 70
     1
102
RTVSPropertyOp4
 70
     1
102
RTVSPropertyOp5
 70
     1
102
RTVSPropertyOp6
 70
     1
102
RTVSPropertyOp7
 70
     1
102
RTVSPropertyOp8
 70
     1
102
RTVSPropertyOp9
 70
     1
102
RTVSPropertyOp10
 70
     1
102
RTVSPropertyOp11
 70
     1
102
RTVSPropertyOp12
 70
     1
102
RTVSPropertyOp13
 70
     1
102
RTVSPropertyOp14
 70
     1
102
RTVSPropertyOp15
 70
     1
102
RTVSPropertyOp16
 70
     1
102
RTVSPropertyOp17
 70
     1
102
RTVSPropertyOp18
 70
     1
102
RTVSPropertyOp19
 70
     1
102
RTVSPropertyOp20
 70
     1
102
RTVSPropertyOp21
 70
     1
102
RTVSPropertyOp22
 70
     1
102
RTVSPropertyOp23
 70
     1
102
RTVSPropertyOp24
 70
     1
102
RTVSPropertyOp25
 70
     1
102
RTVSPropertyOp26
 70
     1
102
RTVSPropertyOp27
 70
     1
  0
XRECORD
  5
5F3
102
{ACAD_REACTORS
330
5F2
102
}
330
5F2
100
AcDbXrecord
280
     1
102
RTVSPropertyOp0
 70
     1
102
RTVSPropertyOp1
 70
     1
102
RTVSPropertyOp2
 70
     1
102
RTVSPropertyOp3
 70
     1
102
RTVSPropertyOp4
 70
     1
102
RTVSPropertyOp5
 70
     1
102
RTVSPropertyOp6
 70
     1
102
RTVSPropertyOp7
 70
     1
102
RTVSPropertyOp8
 70
     1
102
RTVSPropertyOp9
 70
     1
102
RTVSPropertyOp10
 70
     1
102
RTVSPropertyOp11
 70
     1
102
RTVSPropertyOp12
 70
     1
102
RTVSPropertyOp13
 70
     1
102
RTVSPropertyOp14
 70
     1
102
RTVSPropertyOp15
 70
     1
102
RTVSPropertyOp16
 70
     1
102
RTVSPropertyOp17
 70
     1
102
RTVSPropertyOp18
 70
     1
102
RTVSPropertyOp19
 70
     1
102
RTVSPropertyOp20
 70
     1
102
RTVSPropertyOp21
 70
     1
102
RTVSPropertyOp22
 70
     1
102
RTVSPropertyOp23
 70
     1
102
RTVSPropertyOp24
 70
     1
102
RTVSPropertyOp25
 70
     1
102
RTVSPropertyOp26
 70
     1
102
RTVSPropertyOp27
 70
     1
  0
XRECORD
  5
5D7
102
{ACAD_REACTORS
330
5D6
102
}
330
5D6
100
AcDbXrecord
280
     1
102
RTVSPropertyOp0
 70
     1
102
RTVSPropertyOp1
 70
     1
102
RTVSPropertyOp2
 70
     1
102
RTVSPropertyOp3
 70
     1
102
RTVSPropertyOp4
 70
     1
102
RTVSPropertyOp5
 70
     1
102
RTVSPropertyOp6
 70
     1
102
RTVSPropertyOp7
 70
     1
102
RTVSPropertyOp8
 70
     1
102
RTVSPropertyOp9
 70
     1
102
RTVSPropertyOp10
 70
     1
102
RTVSPropertyOp11
 70
     1
102
RTVSPropertyOp12
 70
     1
102
RTVSPropertyOp13
 70
     1
102
RTVSPropertyOp14
 70
     1
102
RTVSPropertyOp15
 70
     1
102
RTVSPropertyOp16
 70
     1
102
RTVSPropertyOp17
 70
     1
102
RTVSPropertyOp18
 70
     1
102
RTVSPropertyOp19
 70
     1
102
RTVSPropertyOp20
 70
     1
102
RTVSPropertyOp21
 70
     1
102
RTVSPropertyOp22
 70
     1
102
RTVSPropertyOp23
 70
     1
102
RTVSPropertyOp24
 70
     1
102
RTVSPropertyOp25
 70
     1
102
RTVSPropertyOp26
 70
     1
102
RTVSPropertyOp27
 70
     1
  0
XRECORD
  5
5D9
102
{ACAD_REACTORS
330
5D8
102
}
330
5D8
100
AcDbXrecord
280
     1
102
RTVSPropertyOp0
 70
     1
102
RTVSPropertyOp1
 70
     1
102
RTVSPropertyOp2
 70
     1
102
RTVSPropertyOp3
 70
     1
102
RTVSPropertyOp4
 70
     1
102
RTVSPropertyOp5
 70
     1
102
RTVSPropertyOp6
 70
     1
102
RTVSPropertyOp7
 70
     1
102
RTVSPropertyOp8
 70
     1
102
RTVSPropertyOp9
 70
     1
102
RTVSPropertyOp10
 70
     1
102
RTVSPropertyOp11
 70
     1
102
RTVSPropertyOp12
 70
     1
102
RTVSPropertyOp13
 70
     1
102
RTVSPropertyOp14
 70
     1
102
RTVSPropertyOp15
 70
     1
102
RTVSPropertyOp16
 70
     1
102
RTVSPropertyOp17
 70
     1
102
RTVSPropertyOp18
 70
     1
102
RTVSPropertyOp19
 70
     1
102
RTVSPropertyOp20
 70
     1
102
RTVSPropertyOp21
 70
     1
102
RTVSPropertyOp22
 70
     1
102
RTVSPropertyOp23
 70
     1
102
RTVSPropertyOp24
 70
     1
102
RTVSPropertyOp25
 70
     1
102
RTVSPropertyOp26
 70
     1
102
RTVSPropertyOp27
 70
     1
  0
XRECORD
  5
5DB
102
{ACAD_REACTORS
330
5DA
102
}
330
5DA
100
AcDbXrecord
280
     1
102
RTVSPropertyOp0
 70
     1
102
RTVSPropertyOp1
 70
     1
102
RTVSPropertyOp2
 70
     1
102
RTVSPropertyOp3
 70
     1
102
RTVSPropertyOp4
 70
     1
102
RTVSPropertyOp5
 70
     1
102
RTVSPropertyOp6
 70
     1
102
RTVSPropertyOp7
 70
     1
102
RTVSPropertyOp8
 70
     1
102
RTVSPropertyOp9
 70
     1
102
RTVSPropertyOp10
 70
     1
102
RTVSPropertyOp11
 70
     1
102
RTVSPropertyOp12
 70
     1
102
RTVSPropertyOp13
 70
     1
102
RTVSPropertyOp14
 70
     1
102
RTVSPropertyOp15
 70
     1
102
RTVSPropertyOp16
 70
     1
102
RTVSPropertyOp17
 70
     1
102
RTVSPropertyOp18
 70
     1
102
RTVSPropertyOp19
 70
     1
102
RTVSPropertyOp20
 70
     1
102
RTVSPropertyOp21
 70
     1
102
RTVSPropertyOp22
 70
     1
102
RTVSPropertyOp23
 70
     1
102
RTVSPropertyOp24
 70
     1
102
RTVSPropertyOp25
 70
     1
102
RTVSPropertyOp26
 70
     1
102
RTVSPropertyOp27
 70
     1
  0
XRECORD
  5
5DD
102
{ACAD_REACTORS
330
5DC
102
}
330
5DC
100
AcDbXrecord
280
     1
102
RTVSPropertyOp0
 70
     1
102
RTVSPropertyOp1
 70
     1
102
RTVSPropertyOp2
 70
     1
102
RTVSPropertyOp3
 70
     1
102
RTVSPropertyOp4
 70
     1
102
RTVSPropertyOp5
 70
     1
102
RTVSPropertyOp6
 70
     1
102
RTVSPropertyOp7
 70
     1
102
RTVSPropertyOp8
 70
     1
102
RTVSPropertyOp9
 70
     1
102
RTVSPropertyOp10
 70
     1
102
RTVSPropertyOp11
 70
     1
102
RTVSPropertyOp12
 70
     1
102
RTVSPropertyOp13
 70
     1
102
RTVSPropertyOp14
 70
     1
102
RTVSPropertyOp15
 70
     1
102
RTVSPropertyOp16
 70
     1
102
RTVSPropertyOp17
 70
     1
102
RTVSPropertyOp18
 70
     1
102
RTVSPropertyOp19
 70
     1
102
RTVSPropertyOp20
 70
     1
102
RTVSPropertyOp21
 70
     1
102
RTVSPropertyOp22
 70
     1
102
RTVSPropertyOp23
 70
     1
102
RTVSPropertyOp24
 70
     1
102
RTVSPropertyOp25
 70
     1
102
RTVSPropertyOp26
 70
     1
102
RTVSPropertyOp27
 70
     1
  0
XRECORD
  5
5F1
102
{ACAD_REACTORS
330
5F0
102
}
330
5F0
100
AcDbXrecord
280
     1
102
RTVSPropertyOp0
 70
     1
102
RTVSPropertyOp1
 70
     1
102
RTVSPropertyOp2
 70
     1
102
RTVSPropertyOp3
 70
     1
102
RTVSPropertyOp4
 70
     1
102
RTVSPropertyOp5
 70
     1
102
RTVSPropertyOp6
 70
     1
102
RTVSPropertyOp7
 70
     1
102
RTVSPropertyOp8
 70
     1
102
RTVSPropertyOp9
 70
     1
102
RTVSPropertyOp10
 70
     1
102
RTVSPropertyOp11
 70
     1
102
RTVSPropertyOp12
 70
     1
102
RTVSPropertyOp13
 70
     1
102
RTVSPropertyOp14
 70
     1
102
RTVSPropertyOp15
 70
     1
102
RTVSPropertyOp16
 70
     1
102
RTVSPropertyOp17
 70
     1
102
RTVSPropertyOp18
 70
     1
102
RTVSPropertyOp19
 70
     1
102
RTVSPropertyOp20
 70
     1
102
RTVSPropertyOp21
 70
     1
102
RTVSPropertyOp22
 70
     1
102
RTVSPropertyOp23
 70
     1
102
RTVSPropertyOp24
 70
     1
102
RTVSPropertyOp25
 70
     1
102
RTVSPropertyOp26
 70
     1
102
RTVSPropertyOp27
 70
     1
  0
XRECORD
  5
5E7
102
{ACAD_REACTORS
330
5E6
102
}
330
5E6
100
AcDbXrecord
280
     1
102
RTVSPropertyOp0
 70
     1
102
RTVSPropertyOp1
 70
     1
102
RTVSPropertyOp2
 70
     1
102
RTVSPropertyOp3
 70
     1
102
RTVSPropertyOp4
 70
     1
102
RTVSPropertyOp5
 70
     1
102
RTVSPropertyOp6
 70
     1
102
RTVSPropertyOp7
 70
     1
102
RTVSPropertyOp8
 70
     1
102
RTVSPropertyOp9
 70
     1
102
RTVSPropertyOp10
 70
     1
102
RTVSPropertyOp11
 70
     1
102
RTVSPropertyOp12
 70
     1
102
RTVSPropertyOp13
 70
     1
102
RTVSPropertyOp14
 70
     1
102
RTVSPropertyOp15
 70
     1
102
RTVSPropertyOp16
 70
     1
102
RTVSPropertyOp17
 70
     1
102
RTVSPropertyOp18
 70
     1
102
RTVSPropertyOp19
 70
     1
102
RTVSPropertyOp20
 70
     1
102
RTVSPropertyOp21
 70
     1
102
RTVSPropertyOp22
 70
     1
102
RTVSPropertyOp23
 70
     1
102
RTVSPropertyOp24
 70
     1
102
RTVSPropertyOp25
 70
     1
102
RTVSPropertyOp26
 70
     1
102
RTVSPropertyOp27
 70
     1
  0
XRECORD
  5
5EF
102
{ACAD_REACTORS
330
5EE
102
}
330
5EE
100
AcDbXrecord
280
     1
102
RTVSPropertyOp0
 70
     1
102
RTVSPropertyOp1
 70
     1
102
RTVSPropertyOp2
 70
     1
102
RTVSPropertyOp3
 70
     1
102
RTVSPropertyOp4
 70
     1
102
RTVSPropertyOp5
 70
     1
102
RTVSPropertyOp6
 70
     1
102
RTVSPropertyOp7
 70
     1
102
RTVSPropertyOp8
 70
     1
102
RTVSPropertyOp9
 70
     1
102
RTVSPropertyOp10
 70
     1
102
RTVSPropertyOp11
 70
     1
102
RTVSPropertyOp12
 70
     1
102
RTVSPropertyOp13
 70
     1
102
RTVSPropertyOp14
 70
     1
102
RTVSPropertyOp15
 70
     1
102
RTVSPropertyOp16
 70
     1
102
RTVSPropertyOp17
 70
     1
102
RTVSPropertyOp18
 70
     1
102
RTVSPropertyOp19
 70
     1
102
RTVSPropertyOp20
 70
     1
102
RTVSPropertyOp21
 70
     1
102
RTVSPropertyOp22
 70
     1
102
RTVSPropertyOp23
 70
     1
102
RTVSPropertyOp24
 70
     1
102
RTVSPropertyOp25
 70
     1
102
RTVSPropertyOp26
 70
     1
102
RTVSPropertyOp27
 70
     1
  0
ENDSEC
  0
EOF
